  0
SECTION
  2
HEADER
  9
$ACADVER
  1
AC1014
  9
$ACADMAINTVER
 70
         0
  9
$DWGCODEPAGE
  3
ANSI_1252
  9
$INSBASE
 10
0.0
 20
0.0
 30
0.0
  9
$EXTMIN
 10
0.0
 20
-16.921479
 30
0.0
  9
$EXTMAX
 10
138.948995
 20
129.236807
 30
0.0
  9
$LIMMIN
 10
0.0
 20
0.0
  9
$LIMMAX
 10
0.0
 20
0.0
  9
$ORTHOMODE
 70
         0
  9
$REGENMODE
 70
         1
  9
$FILLMODE
 70
         1
  9
$QTEXTMODE
 70
         0
  9
$MIRRTEXT
 70
         1
  9
$DRAGMODE
 70
         2
  9
$LTSCALE
 40
1.0
  9
$OSMODE
 70
         0
  9
$ATTMODE
 70
         1
  9
$TEXTSIZE
 40
0.2
  9
$TRACEWID
 40
0.05
  9
$TEXTSTYLE
  7
STANDARD
  9
$CLAYER
  8
0
  9
$CELTYPE
  6
CONTINUOUS
  9
$CECOLOR
 62
       256
  9
$CELTSCALE
 40
1.0
  9
$DELOBJ
 70
         1
  9
$DISPSILH
 70
         0
  9
$DIMSCALE
 40
1.0
  9
$DIMASZ
 40
0.18
  9
$DIMEXO
 40
0.0625
  9
$DIMDLI
 40
0.38
  9
$DIMRND
 40
0.0
  9
$DIMDLE
 40
0.0
  9
$DIMEXE
 40
0.18
  9
$DIMTP
 40
0.0
  9
$DIMTM
 40
0.0
  9
$DIMTXT
 40
0.18
  9
$DIMCEN
 40
0.09
  9
$DIMTSZ
 40
0.0
  9
$DIMTOL
 70
         0
  9
$DIMLIM
 70
         0
  9
$DIMTIH
 70
         1
  9
$DIMTOH
 70
         1
  9
$DIMSE1
 70
         0
  9
$DIMSE2
 70
         0
  9
$DIMTAD
 70
         0
  9
$DIMZIN
 70
         0
  9
$DIMBLK
  1

  9
$DIMASO
 70
         1
  9
$DIMSHO
 70
         1
  9
$DIMPOST
  1

  9
$DIMAPOST
  1

  9
$DIMALT
 70
         0
  9
$DIMALTD
 70
         2
  9
$DIMALTF
 40
25.4
  9
$DIMLFAC
 40
1.0
  9
$DIMTOFL
 70
         0
  9
$DIMTVP
 40
0.0
  9
$DIMTIX
 70
         0
  9
$DIMSOXD
 70
         0
  9
$DIMSAH
 70
         0
  9
$DIMBLK1
  1

  9
$DIMBLK2
  1

  9
$DIMSTYLE
  2
STANDARD
  9
$DIMCLRD
 70
         0
  9
$DIMCLRE
 70
         0
  9
$DIMCLRT
 70
         0
  9
$DIMTFAC
 40
1.0
  9
$DIMGAP
 40
0.09
  9
$DIMJUST
 70
         0
  9
$DIMSD1
 70
         0
  9
$DIMSD2
 70
         0
  9
$DIMTOLJ
 70
         1
  9
$DIMTZIN
 70
         0
  9
$DIMALTZ
 70
         0
  9
$DIMALTTZ
 70
         0
  9
$DIMFIT
 70
         3
  9
$DIMUPT
 70
         0
  9
$DIMUNIT
 70
         2
  9
$DIMDEC
 70
         4
  9
$DIMTDEC
 70
         4
  9
$DIMALTU
 70
         2
  9
$DIMALTTD
 70
         2
  9
$DIMTXSTY
  7
STANDARD
  9
$DIMAUNIT
 70
         0
  9
$LUNITS
 70
         2
  9
$LUPREC
 70
         4
  9
$SKETCHINC
 40
0.1
  9
$FILLETRAD
 40
0.0
  9
$AUNITS
 70
         0
  9
$AUPREC
 70
         0
  9
$MENU
  1
acad
  9
$ELEVATION
 40
0.0
  9
$PELEVATION
 40
0.0
  9
$THICKNESS
 40
0.0
  9
$LIMCHECK
 70
         0
  9
$BLIPMODE
 70
         1
  9
$CHAMFERA
 40
0.0
  9
$CHAMFERB
 40
0.0
  9
$CHAMFERC
 40
0.0
  9
$CHAMFERD
 40
0.0
  9
$SKPOLY
 70
         0
  9
$TDCREATE
 40
2457162.622233796
  9
$TDUPDATE
 40
0.000000000
  9
$TDINDWG
 40
0.0000000000
  9
$TDUSRTIMER
 40
0.0000000000
  9
$USRTIMER
 70
         1
  9
$ANGBASE
 50
0.0
  9
$ANGDIR
 70
         0
  9
$PDMODE
 70
         0
  9
$PDSIZE
 40
0.0
  9
$PLINEWID
 40
0.0
  9
$COORDS
 70
         0
  9
$SPLFRAME
 70
         0
  9
$SPLINETYPE
 70
         6
  9
$SPLINESEGS
 70
         8
  9
$ATTDIA
 70
         0
  9
$ATTREQ
 70
         1
  9
$HANDLING
 70
         1
  9
$HANDSEED
  5
21A
  9
$SURFTAB1
 70
         6
  9
$SURFTAB2
 70
         6
  9
$SURFTYPE
 70
         6
  9
$SURFU
 70
         6
  9
$SURFV
 70
         6
  9
$UCSNAME
  2

  9
$UCSORG
 10
0.0
 20
0.0
 30
0.0
  9
$UCSXDIR
 10
1.0
 20
0.0
 30
0.0
  9
$UCSYDIR
 10
0.0
 20
1.0
 30
0.0
  9
$PUCSNAME
  2

  9
$PUCSORG
 10
0.0
 20
0.0
 30
0.0
  9
$PUCSXDIR
 10
1.0
 20
0.0
 30
0.0
  9
$PUCSYDIR
 10
0.0
 20
1.0
 30
0.0
  9
$USERI1
 70
        -3
  9
$USERI2
 70
         0
  9
$USERI3
 70
         0
  9
$USERI4
 70
         0
  9
$USERI5
 70
         0
  9
$USERR1
 40
0.0
  9
$USERR2
 40
0.0
  9
$USERR3
 40
0.0
  9
$USERR4
 40
0.0
  9
$USERR5
 40
0.0
  9
$WORLDVIEW
 70
         1
  9
$SHADEDGE
 70
         3
  9
$SHADEDIF
 70
        70
  9
$TILEMODE
 70
         1
  9
$MAXACTVP
 70
        16
  9
$PINSBASE
 10
0.0
 20
0.0
 30
0.0
  9
$PLIMCHECK
 70
         0
  9
$PEXTMIN
 10
1.0000000000E+20
 20
1.0000000000E+20
 30
1.0000000000E+20
  9
$PEXTMAX
 10
-1.0000000000E+20
 20
-1.0000000000E+20
 30
-1.0000000000E+20
  9
$PLIMMIN
 10
0.0
 20
0.0
  9
$PLIMMAX
 10
12.0
 20
9.0
  9
$UNITMODE
 70
         0
  9
$VISRETAIN
 70
         0
  9
$PLINEGEN
 70
         1
  9
$PSLTSCALE
 70
         0
  9
$TREEDEPTH
 70
      3020
  9
$PICKSTYLE
 70
         1
  9
$CMLSTYLE
  2
STANDARD
  9
$CMLJUST
 70
         0
  9
$CMLSCALE
 40
1.0
  9
$PROXYGRAPHICS
 70
         0
  9
$MEASUREMENT
 70
         0
  0
ENDSEC
  0
SECTION
  2
CLASSES
  0
CLASS
  1
LWPOLYLINE
  2
AcDbPolyline
  3
"AutoCAD"
 90
        0
280
         0
281
         1
  0
CLASS
  1
IMAGE
  2
AcDbRasterImage
  3
ISM
 90
      127
280
         0
281
         1
  0
CLASS
  1
OLE2FRAME
  2
AcDbOle2Frame
  3
""
 90
        0
280
         0
281
         1
  0
CLASS
  1
HATCH
  2
AcDbHatch
  3
"ACAD_SEDONA"
 90
        0
280
         0
281
         1
  0
CLASS
  1
DICTIONARYVAR
  2
AcDbDictionaryVar
  3
"AutoCAD"
 90
        0
280
         0
281
         0
  0
CLASS
  1
RASTERVARIABLES
  2
AcDbRasterVariables
  3
ISM
 90
        0
280
         0
281
         0
  0
CLASS
  1
IMAGEDEF
  2
AcDbRasterImageDef
  3
ISM
 90
        0
280
         0
281
         0
  0
CLASS
  1
IMAGEDEF_REACTOR
  2
AcDbRasterImageDefReactor
  3
ISM
 90
        1
280
         0
281
         0
  0
CLASS
  1
IDBUFFER
  2
AcDbIdBuffer
  3
"Acad"
 90
        0
280
         0
281
         0
  0
CLASS
  1
SPATIAL_FILTER
  2
AcDbSpatialFilter
  3
"Acad"
 90
        0
280
         0
281
         0
  0
CLASS
  1
XRECORD
  2
AcDbXrecord
  3
"<Built In>"
 90
        0
280
         0
281
         0
  0
CLASS
  1
SORTENTSTABLE
  2
AcDbSortentsTable
  3
"AutoCAD"
 90
        0
280
         0
281
         0
  0
CLASS
  1
LAYER_INDEX
  2
AcDbLayerIndex
  3
"Acad"
 90
        0
280
         0
281
         0
  0
CLASS
  1
SPATIAL_INDEX
  2
AcDbSpatialIndex
  3
"Acad"
 90
        0
280
         0
281
         0
  0
CLASS
  1
OBJECT_PTR
  2
CAseDLPNTableRecord
  3
"ASE-LPNTableRecord"
 90
        1
280
         0
281
         0
  0
CLASS
  1
LAYOUT
  2
AcDbLayout
  3
"AutoCAD 2000"
 90
        0
280
         0
281
         0
  0
CLASS
  1
PLOTSETTINGS
  2
AcDbPlotSettings
  3
"AutoCAD 2000"
 90
        0
280
         0
281
         0
  0
CLASS
  1
ACDBDICTIONARYWDFLT
  2
AcDbDictionaryWithDefault
  3
"AutoCAD 2000"
 90
        0
280
         0
281
         0
  0
CLASS
  1
ACDBPLACEHOLDER
  2
AcDbPlaceHolder
  3
"AutoCAD 2000"
 90
        0
280
         0
281
         0
  0
CLASS
  1
VBA_PROJECT
  2
AcDbVbaProject
  3
"acadvba"
 90
        0
280
         0
281
         0
  0
CLASS
  1
WIPEOUT
  2
AcDbWipeout
  3
WipeOut|AutoCAD Express Tool|expresstools@autodesk.com
 90
      127
280
         0
281
         1
  0
CLASS
  1
WIPEOUTVARIABLES
  2
AcDbWipeoutVariables
  3
WipeOut|AutoCAD Express Tool|expresstools@autodesk.com
 90
        0
280
         0
281
         0
  0
CLASS
  1
RTEXT
  2
RText
  3
RText|AutoCAD Express Tool|expresstools@autodesk.com
 90
        0
280
         0
281
         1
  0
CLASS
  1
ARCALIGNEDTEXT
  2
AcDbArcAlignedText
  3
ATEXT|AutoCAD Express Tool|expresstools@autodesk.com
 90
        0
280
         0
281
         1
  0
ENDSEC
  0
SECTION
  2
TABLES
  0
TABLE
  2
VPORT
  5
7
100
AcDbSymbolTable
 70
         1
  0
VPORT
  5
15
100
AcDbSymbolTableRecord
100
AcDbViewportTableRecord
  2
*ACTIVE
 70
         0
 10
0.0
 20
0.0
 11
1.0
 21
1.0
 12
6.591288
 22
4.579184
 13
0.0
 23
0.0
 14
1.0
 24
1.0
 15
0.0
 25
0.0
 16
0.0
 26
0.0
 36
1.0
 17
0.0
 27
0.0
 37
0.0
 40
9.158369
 41
0.688564
 42
50.0
 43
0.0
 44
0.0
 50
0.0
 51
0.0
 71
         0
 72
       100
 73
         1
 74
         1
 75
         0
 76
         0
 77
         0
 78
         0
  0
ENDTAB
  0
TABLE
  2
LTYPE
  5
4
100
AcDbSymbolTable
 70
         3
  0
LTYPE
  5
11
100
AcDbSymbolTableRecord
100
AcDbLinetypeTableRecord
  2
BYBLOCK
 70
        64
  3

 72
        65
 73
         0
 40
0.0
  0
LTYPE
  5
12
100
AcDbSymbolTableRecord
100
AcDbLinetypeTableRecord
  2
BYLAYER
 70
        64
  3

 72
        65
 73
         0
 40
0.0
  0
LTYPE
  5
13
100
AcDbSymbolTableRecord
100
AcDbLinetypeTableRecord
  2
CONTINUOUS
 70
        64
  3
Solid line
 72
        65
 73
         0
 40
0.0
  0
ENDTAB
  0
TABLE
  2
LAYER
  5
2
100
AcDbSymbolTable
 70
         6
  0
LAYER
  5
14
100
AcDbSymbolTableRecord
100
AcDbLayerTableRecord
  2
0
 70
         0
 62
         7
  6
CONTINUOUS
  0
LAYER
  5
24
100
AcDbSymbolTableRecord
100
AcDbLayerTableRecord
  2
ASSEMBLY_OUTLINES_TOP
 70
         0
 62
       102
  6
CONTINUOUS
  0
LAYER
  5
25
100
AcDbSymbolTableRecord
100
AcDbLayerTableRecord
  2
ASSEMBLY_REF_DES_TOP
 70
         0
 62
       102
  6
CONTINUOUS
  0
LAYER
  5
26
100
AcDbSymbolTableRecord
100
AcDbLayerTableRecord
  2
BOARD_OUTLINE
 70
         0
 62
        10
  6
CONTINUOUS
  0
LAYER
  5
27
100
AcDbSymbolTableRecord
100
AcDbLayerTableRecord
  2
MOUNTING_HOLES_LAYER_TOP
 70
         0
 62
        42
  6
CONTINUOUS
  0
LAYER
  5
28
100
AcDbSymbolTableRecord
100
AcDbLayerTableRecord
  2
PART_HOLES_LAYER_TOP
 70
         0
 62
        30
  6
CONTINUOUS
  0
ENDTAB
  0
TABLE
  2
STYLE
  5
3
100
AcDbSymbolTable
 70
         4
  0
STYLE
  5
17
100
AcDbSymbolTableRecord
100
AcDbTextStyleTableRecord
  2
STANDARD
 70
         0
 40
0.0
 41
1.0
 50
0.0
 71
         0
 42
0.0
  3
txt
  4

  0
STYLE
  5
83
100
AcDbSymbolTableRecord
100
AcDbTextStyleTableRecord
  2
VERIBEST_GERBER_0
 70
         0
 40
0.0
 41
1.0
 50
0.0
 71
         0
 42
0.0
  3

  4

  0
STYLE
  5
149
100
AcDbSymbolTableRecord
100
AcDbTextStyleTableRecord
  2
GOST_TYPE_B
 70
         0
 40
0.0
 41
1.0
 50
0.0
 71
         0
 42
0.0
  3
gost.ttf
  4

  0
STYLE
  5
153
100
AcDbSymbolTableRecord
100
AcDbTextStyleTableRecord
  2
GOST_D
 70
         0
 40
0.0
 41
1.0
 50
0.0
 71
         0
 42
0.0
  3
GOST_0.TTF
  4

  0
ENDTAB
  0
TABLE
  2
VIEW
  5
5
100
AcDbSymbolTable
 70
         0
  0
ENDTAB
  0
TABLE
  2
UCS
  5
6
100
AcDbSymbolTable
 70
         0
  0
ENDTAB
  0
TABLE
  2
APPID
  5
8
100
AcDbSymbolTable
 70
         1
  0
APPID
  5
16
100
AcDbSymbolTableRecord
100
AcDbRegAppTableRecord
  2
ACAD
 70
         0
  0
ENDTAB
  0
TABLE
  2
DIMSTYLE
  5
9
100
AcDbSymbolTable
 70
         1
  0
DIMSTYLE
105
18
100
AcDbSymbolTableRecord
100
AcDbDimStyleTableRecord
  2
STANDARD
 70
         0
  3

  4

  5

  6

  7

 40
1.0
 41
0.18
 42
0.0625
 43
0.38
 44
0.18
 45
0.0
 46
0.0
 47
0.0
 48
0.0
 71
         0
 72
         0
 73
         1
 74
         1
 75
         0
 76
         0
 77
         0
 78
         0
140
0.18
141
0.09
142
0.0
143
25.4
144
1.0
145
0.0
146
1.0
147
0.09
170
         0
171
         2
172
         0
173
         0
174
         0
175
         0
176
         0
177
         0
178
         0
270
         2
271
         4
272
         4
273
         2
274
         2
275
         0
280
         0
281
         0
282
         0
283
         1
284
         0
285
         0
286
         0
287
         3
288
         0
340
17
  0
ENDTAB
  0
TABLE
  2
BLOCK_RECORD
  5
1
100
AcDbSymbolTable
 70
         0
  0
BLOCK_RECORD
  5
A
100
AcDbSymbolTableRecord
100
AcDbBlockTableRecord
  2
*MODEL_SPACE
  0
BLOCK_RECORD
  5
B
100
AcDbSymbolTableRecord
100
AcDbBlockTableRecord
  2
*PAPER_SPACE
  0
ENDTAB
  0
ENDSEC
  0
SECTION
  2
BLOCKS
  0
BLOCK
  5
D
100
AcDbEntity
  8
0
100
AcDbBlockBegin
  2
*MODEL_SPACE
 70
         0
 10
0.0
 20
0.0
 30
0.0
  3
*MODEL_SPACE
  1

  0
ENDBLK
  5
E
100
AcDbEntity
  8
0
100
AcDbBlockEnd
  0
BLOCK
  5
F
100
AcDbEntity
 67
         1
  8
0
100
AcDbBlockBegin
  2
*PAPER_SPACE
 70
         0
 10
0.0
 20
0.0
 30
0.0
  3
*PAPER_SPACE
  1

  0
ENDBLK
  5
10
100
AcDbEntity
 67
         1
  8
0
100
AcDbBlockEnd
  0
ENDSEC
  0
SECTION
  2
ENTITIES
  0
LWPOLYLINE
  5
29
100
AcDbEntity
  8
ASSEMBLY_OUTLINES_TOP
100
AcDbPolyline
 90
        3
 70
         1
 10
56.7
 20
-7.5
 10
56.13
 20
-6.36
 10
57.27
 20
-6.36
  0
HATCH
  5
2A
100
AcDbEntity
  8
ASSEMBLY_OUTLINES_TOP
100
AcDbHatch
 10
0.0
 20
0.0
 30
0.0
210
0.0
220
0.0
230
1.0
  2
SOLID
 70
         1
 71
         1
 91
        1
 92
        2
 72
         0
 73
         1
 93
        3
 10
56.700000000000003
 20
-7.5
 10
56.130000000000003
 20
-6.3600000000000003
 10
57.270000000000003
 20
-6.3600000000000003
 97
        1
330
29
 75
         0
 76
         1
 98
        1
 10
0.0
 20
0.0
  0
LWPOLYLINE
  5
2B
100
AcDbEntity
  8
ASSEMBLY_OUTLINES_TOP
100
AcDbPolyline
 90
        3
 70
         1
 10
56.7
 20
117.5
 10
57.269999
 20
116.36
 10
56.13
 20
116.36
  0
HATCH
  5
2C
100
AcDbEntity
  8
ASSEMBLY_OUTLINES_TOP
100
AcDbHatch
 10
0.0
 20
0.0
 30
0.0
210
0.0
220
0.0
230
1.0
  2
SOLID
 70
         1
 71
         1
 91
        1
 92
        2
 72
         0
 73
         1
 93
        3
 10
56.700000000000003
 20
117.5
 10
57.269998999999999
 20
116.36
 10
56.130000000000003
 20
116.36
 97
        1
330
2B
 75
         0
 76
         1
 98
        1
 10
0.0
 20
0.0
  0
LWPOLYLINE
  5
2D
100
AcDbEntity
  8
ASSEMBLY_OUTLINES_TOP
100
AcDbPolyline
 90
        2
 70
         0
 43
0.2
 10
56.7
 20
51.64436
 10
56.7
 20
-6.93
  0
LWPOLYLINE
  5
2E
100
AcDbEntity
  8
ASSEMBLY_OUTLINES_TOP
100
AcDbPolyline
 90
        2
 70
         0
 43
0.2
 10
56.7
 20
116.93
 10
56.7
 20
58.35564
  0
LWPOLYLINE
  5
2F
100
AcDbEntity
  8
ASSEMBLY_OUTLINES_TOP
100
AcDbPolyline
 90
        2
 70
         0
 43
0.2
 10
64.59
 20
-7.5
 10
56.19
 20
-7.5
  0
LWPOLYLINE
  5
30
100
AcDbEntity
  8
ASSEMBLY_OUTLINES_TOP
100
AcDbPolyline
 90
        2
 70
         0
 43
0.2
 10
64.59
 20
117.5
 10
56.19
 20
117.5
  0
LWPOLYLINE
  5
31
100
AcDbEntity
  8
ASSEMBLY_OUTLINES_TOP
100
AcDbPolyline
 90
        3
 70
         1
 10
132.1
 20
-16.311479
 10
130.96
 20
-16.881479
 10
130.96
 20
-15.741479
  0
HATCH
  5
32
100
AcDbEntity
  8
ASSEMBLY_OUTLINES_TOP
100
AcDbHatch
 10
0.0
 20
0.0
 30
0.0
210
0.0
220
0.0
230
1.0
  2
SOLID
 70
         1
 71
         1
 91
        1
 92
        2
 72
         0
 73
         1
 93
        3
 10
132.09999999999999
 20
-16.311478999999999
 10
130.96000000000001
 20
-16.881478999999999
 10
130.96000000000001
 20
-15.741479
 97
        1
330
31
 75
         0
 76
         1
 98
        1
 10
0.0
 20
0.0
  0
LWPOLYLINE
  5
33
100
AcDbEntity
  8
ASSEMBLY_OUTLINES_TOP
100
AcDbPolyline
 90
        3
 70
         1
 10
65.1
 20
-16.311479
 10
66.24
 20
-15.741479
 10
66.24
 20
-16.881479
  0
HATCH
  5
34
100
AcDbEntity
  8
ASSEMBLY_OUTLINES_TOP
100
AcDbHatch
 10
0.0
 20
0.0
 30
0.0
210
0.0
220
0.0
230
1.0
  2
SOLID
 70
         1
 71
         1
 91
        1
 92
        2
 72
         0
 73
         1
 93
        3
 10
65.099999999999994
 20
-16.311478999999999
 10
66.239999999999995
 20
-15.741479
 10
66.239999999999995
 20
-16.881478999999999
 97
        1
330
33
 75
         0
 76
         1
 98
        1
 10
0.0
 20
0.0
  0
LWPOLYLINE
  5
35
100
AcDbEntity
  8
ASSEMBLY_OUTLINES_TOP
100
AcDbPolyline
 90
        2
 70
         0
 43
0.2
 10
101.348898
 20
-16.311479
 10
131.53
 20
-16.311479
  0
LWPOLYLINE
  5
36
100
AcDbEntity
  8
ASSEMBLY_OUTLINES_TOP
100
AcDbPolyline
 90
        2
 70
         0
 43
0.2
 10
65.67
 20
-16.311479
 10
95.851102
 20
-16.311479
  0
LWPOLYLINE
  5
37
100
AcDbEntity
  8
ASSEMBLY_OUTLINES_TOP
100
AcDbPolyline
 90
        2
 70
         0
 43
0.2
 10
132.1
 20
-8.01
 10
132.1
 20
-16.821479
  0
LWPOLYLINE
  5
38
100
AcDbEntity
  8
ASSEMBLY_OUTLINES_TOP
100
AcDbPolyline
 90
        2
 70
         0
 43
0.2
 10
65.1
 20
-8.01
 10
65.1
 20
-16.821479
  0
LWPOLYLINE
  5
39
100
AcDbEntity
  8
ASSEMBLY_OUTLINES_TOP
100
AcDbPolyline
 90
        2
 70
         0
 43
0.1
 10
68.3
 20
32.2
 10
78.3
 20
32.2
  0
LWPOLYLINE
  5
3A
100
AcDbEntity
  8
ASSEMBLY_OUTLINES_TOP
100
AcDbPolyline
 90
        2
 70
         0
 43
0.2
 10
65.1
 20
-8.01
 10
65.1
 20
-12.649676
  0
LWPOLYLINE
  5
3B
100
AcDbEntity
  8
ASSEMBLY_OUTLINES_TOP
100
AcDbPolyline
 90
        2
 70
         0
 43
0.2
 10
69.1
 20
-4.01
 10
69.1
 20
-12.649676
  0
LWPOLYLINE
  5
3C
100
AcDbEntity
  8
ASSEMBLY_OUTLINES_TOP
100
AcDbPolyline
 90
        2
 70
         0
 43
0.2
 10
64.53
 20
-12.139676
 10
62.25
 20
-12.139676
  0
LWPOLYLINE
  5
3D
100
AcDbEntity
  8
ASSEMBLY_OUTLINES_TOP
100
AcDbPolyline
 90
        2
 70
         0
 43
0.2
 10
69.67
 20
-12.139676
 10
71.95
 20
-12.139676
  0
LWPOLYLINE
  5
3E
100
AcDbEntity
  8
ASSEMBLY_OUTLINES_TOP
100
AcDbPolyline
 90
        3
 70
         1
 10
65.1
 20
-12.139676
 10
63.96
 20
-12.709676
 10
63.96
 20
-11.569676
  0
HATCH
  5
3F
100
AcDbEntity
  8
ASSEMBLY_OUTLINES_TOP
100
AcDbHatch
 10
0.0
 20
0.0
 30
0.0
210
0.0
220
0.0
230
1.0
  2
SOLID
 70
         1
 71
         1
 91
        1
 92
        2
 72
         0
 73
         1
 93
        3
 10
65.099999999999994
 20
-12.139676
 10
63.960000000000001
 20
-12.709676
 10
63.960000000000001
 20
-11.569675999999999
 97
        1
330
3E
 75
         0
 76
         1
 98
        1
 10
0.0
 20
0.0
  0
LWPOLYLINE
  5
40
100
AcDbEntity
  8
ASSEMBLY_OUTLINES_TOP
100
AcDbPolyline
 90
        3
 70
         1
 10
69.1
 20
-12.139676
 10
70.24
 20
-11.569676
 10
70.24
 20
-12.709676
  0
HATCH
  5
41
100
AcDbEntity
  8
ASSEMBLY_OUTLINES_TOP
100
AcDbHatch
 10
0.0
 20
0.0
 30
0.0
210
0.0
220
0.0
230
1.0
  2
SOLID
 70
         1
 71
         1
 91
        1
 92
        2
 72
         0
 73
         1
 93
        3
 10
69.099999999999994
 20
-12.139676
 10
70.239999999999995
 20
-11.569675999999999
 10
70.239999999999995
 20
-12.709676
 97
        1
330
40
 75
         0
 76
         1
 98
        1
 10
0.0
 20
0.0
  0
LWPOLYLINE
  5
42
100
AcDbEntity
  8
ASSEMBLY_OUTLINES_TOP
100
AcDbPolyline
 90
        2
 70
         0
 43
0.2
 10
68.59
 20
-3.5
 10
59.24375
 20
-3.5
  0
LWPOLYLINE
  5
43
100
AcDbEntity
  8
ASSEMBLY_OUTLINES_TOP
100
AcDbPolyline
 90
        2
 70
         0
 43
0.2
 10
64.59
 20
-7.5
 10
59.24375
 20
-7.5
  0
LWPOLYLINE
  5
44
100
AcDbEntity
  8
ASSEMBLY_OUTLINES_TOP
100
AcDbPolyline
 90
        2
 70
         0
 43
0.2
 10
59.75375
 20
-2.93
 10
59.75375
 20
-0.65
  0
LWPOLYLINE
  5
45
100
AcDbEntity
  8
ASSEMBLY_OUTLINES_TOP
100
AcDbPolyline
 90
        2
 70
         0
 43
0.2
 10
59.75375
 20
-8.07
 10
59.75375
 20
-10.35
  0
LWPOLYLINE
  5
46
100
AcDbEntity
  8
ASSEMBLY_OUTLINES_TOP
100
AcDbPolyline
 90
        3
 70
         1
 10
59.75375
 20
-3.5
 10
59.18375
 20
-2.36
 10
60.32375
 20
-2.36
  0
HATCH
  5
47
100
AcDbEntity
  8
ASSEMBLY_OUTLINES_TOP
100
AcDbHatch
 10
0.0
 20
0.0
 30
0.0
210
0.0
220
0.0
230
1.0
  2
SOLID
 70
         1
 71
         1
 91
        1
 92
        2
 72
         0
 73
         1
 93
        3
 10
59.753749999999997
 20
-3.5
 10
59.183750000000003
 20
-2.3599999999999999
 10
60.323749999999997
 20
-2.3599999999999999
 97
        1
330
46
 75
         0
 76
         1
 98
        1
 10
0.0
 20
0.0
  0
LWPOLYLINE
  5
48
100
AcDbEntity
  8
ASSEMBLY_OUTLINES_TOP
100
AcDbPolyline
 90
        3
 70
         1
 10
59.75375
 20
-7.5
 10
60.323749
 20
-8.64
 10
59.18375
 20
-8.64
  0
HATCH
  5
49
100
AcDbEntity
  8
ASSEMBLY_OUTLINES_TOP
100
AcDbHatch
 10
0.0
 20
0.0
 30
0.0
210
0.0
220
0.0
230
1.0
  2
SOLID
 70
         1
 71
         1
 91
        1
 92
        2
 72
         0
 73
         1
 93
        3
 10
59.753749999999997
 20
-7.5
 10
60.323748999999999
 20
-8.6400000000000006
 10
59.183750000000003
 20
-8.6400000000000006
 97
        1
330
48
 75
         0
 76
         1
 98
        1
 10
0.0
 20
0.0
  0
LWPOLYLINE
  5
4A
100
AcDbEntity
  8
ASSEMBLY_OUTLINES_TOP
100
AcDbPolyline
 90
        2
 70
         0
 43
0.2
 10
113.1
 20
114.01
 10
113.1
 20
126.085138
  0
LWPOLYLINE
  5
4B
100
AcDbEntity
  8
ASSEMBLY_OUTLINES_TOP
100
AcDbPolyline
 90
        2
 70
         0
 43
0.2
 10
132.1
 20
118.01
 10
132.1
 20
126.085138
  0
LWPOLYLINE
  5
4C
100
AcDbEntity
  8
ASSEMBLY_OUTLINES_TOP
100
AcDbPolyline
 90
        2
 70
         0
 43
0.2
 10
113.67
 20
125.575138
 10
119.874438
 20
125.575138
  0
LWPOLYLINE
  5
4D
100
AcDbEntity
  8
ASSEMBLY_OUTLINES_TOP
100
AcDbPolyline
 90
        2
 70
         0
 43
0.2
 10
125.325562
 20
125.575138
 10
131.53
 20
125.575138
  0
LWPOLYLINE
  5
4E
100
AcDbEntity
  8
ASSEMBLY_OUTLINES_TOP
100
AcDbPolyline
 90
        3
 70
         1
 10
113.1
 20
125.575138
 10
114.24
 20
126.145138
 10
114.24
 20
125.005138
  0
HATCH
  5
4F
100
AcDbEntity
  8
ASSEMBLY_OUTLINES_TOP
100
AcDbHatch
 10
0.0
 20
0.0
 30
0.0
210
0.0
220
0.0
230
1.0
  2
SOLID
 70
         1
 71
         1
 91
        1
 92
        2
 72
         0
 73
         1
 93
        3
 10
113.09999999999999
 20
125.575138
 10
114.23999999999999
 20
126.145138
 10
114.23999999999999
 20
125.005138
 97
        1
330
4E
 75
         0
 76
         1
 98
        1
 10
0.0
 20
0.0
  0
LWPOLYLINE
  5
50
100
AcDbEntity
  8
ASSEMBLY_OUTLINES_TOP
100
AcDbPolyline
 90
        3
 70
         1
 10
132.1
 20
125.575138
 10
130.96
 20
125.005138
 10
130.96
 20
126.145138
  0
HATCH
  5
51
100
AcDbEntity
  8
ASSEMBLY_OUTLINES_TOP
100
AcDbHatch
 10
0.0
 20
0.0
 30
0.0
210
0.0
220
0.0
230
1.0
  2
SOLID
 70
         1
 71
         1
 91
        1
 92
        2
 72
         0
 73
         1
 93
        3
 10
132.09999999999999
 20
125.575138
 10
130.96000000000001
 20
125.005138
 10
130.96000000000001
 20
126.145138
 97
        1
330
50
 75
         0
 76
         1
 98
        1
 10
0.0
 20
0.0
  0
LWPOLYLINE
  5
52
100
AcDbEntity
  8
ASSEMBLY_OUTLINES_TOP
100
AcDbPolyline
 90
        2
 70
         0
 43
0.2
 10
64.59
 20
117.5
 10
62.862817
 20
117.5
  0
LWPOLYLINE
  5
53
100
AcDbEntity
  8
ASSEMBLY_OUTLINES_TOP
100
AcDbPolyline
 90
        2
 70
         0
 43
0.2
 10
68.59
 20
113.5
 10
62.862817
 20
113.5
  0
LWPOLYLINE
  5
54
100
AcDbEntity
  8
ASSEMBLY_OUTLINES_TOP
100
AcDbPolyline
 90
        2
 70
         0
 43
0.2
 10
63.372817
 20
118.07
 10
63.372817
 20
120.35
  0
LWPOLYLINE
  5
55
100
AcDbEntity
  8
ASSEMBLY_OUTLINES_TOP
100
AcDbPolyline
 90
        2
 70
         0
 43
0.2
 10
63.372817
 20
112.93
 10
63.372817
 20
110.65
  0
LWPOLYLINE
  5
56
100
AcDbEntity
  8
ASSEMBLY_OUTLINES_TOP
100
AcDbPolyline
 90
        3
 70
         1
 10
63.372817
 20
117.5
 10
62.802817
 20
118.64
 10
63.942817
 20
118.64
  0
HATCH
  5
57
100
AcDbEntity
  8
ASSEMBLY_OUTLINES_TOP
100
AcDbHatch
 10
0.0
 20
0.0
 30
0.0
210
0.0
220
0.0
230
1.0
  2
SOLID
 70
         1
 71
         1
 91
        1
 92
        2
 72
         0
 73
         1
 93
        3
 10
63.372816999999998
 20
117.5
 10
62.802816999999997
 20
118.64
 10
63.942816999999998
 20
118.64
 97
        1
330
56
 75
         0
 76
         1
 98
        1
 10
0.0
 20
0.0
  0
LWPOLYLINE
  5
58
100
AcDbEntity
  8
ASSEMBLY_OUTLINES_TOP
100
AcDbPolyline
 90
        3
 70
         1
 10
63.372817
 20
113.5
 10
63.942816
 20
112.36
 10
62.802817
 20
112.36
  0
HATCH
  5
59
100
AcDbEntity
  8
ASSEMBLY_OUTLINES_TOP
100
AcDbHatch
 10
0.0
 20
0.0
 30
0.0
210
0.0
220
0.0
230
1.0
  2
SOLID
 70
         1
 71
         1
 91
        1
 92
        2
 72
         0
 73
         1
 93
        3
 10
63.372816999999998
 20
113.5
 10
63.942816000000001
 20
112.36
 10
62.802816999999997
 20
112.36
 97
        1
330
58
 75
         0
 76
         1
 98
        1
 10
0.0
 20
0.0
  0
LWPOLYLINE
  5
5A
100
AcDbEntity
  8
ASSEMBLY_OUTLINES_TOP
100
AcDbPolyline
 90
        2
 70
         0
 43
0.2
 10
65.1
 20
118.01
 10
65.1
 20
129.136807
  0
LWPOLYLINE
  5
5B
100
AcDbEntity
  8
ASSEMBLY_OUTLINES_TOP
100
AcDbPolyline
 90
        2
 70
         0
 43
0.2
 10
69.1
 20
114.01
 10
69.1
 20
129.136807
  0
LWPOLYLINE
  5
5C
100
AcDbEntity
  8
ASSEMBLY_OUTLINES_TOP
100
AcDbPolyline
 90
        2
 70
         0
 43
0.2
 10
64.53
 20
128.626807
 10
62.25
 20
128.626807
  0
LWPOLYLINE
  5
5D
100
AcDbEntity
  8
ASSEMBLY_OUTLINES_TOP
100
AcDbPolyline
 90
        2
 70
         0
 43
0.2
 10
69.67
 20
128.626807
 10
71.95
 20
128.626807
  0
LWPOLYLINE
  5
5E
100
AcDbEntity
  8
ASSEMBLY_OUTLINES_TOP
100
AcDbPolyline
 90
        3
 70
         1
 10
65.1
 20
128.626807
 10
63.96
 20
128.056807
 10
63.96
 20
129.196807
  0
HATCH
  5
5F
100
AcDbEntity
  8
ASSEMBLY_OUTLINES_TOP
100
AcDbHatch
 10
0.0
 20
0.0
 30
0.0
210
0.0
220
0.0
230
1.0
  2
SOLID
 70
         1
 71
         1
 91
        1
 92
        2
 72
         0
 73
         1
 93
        3
 10
65.099999999999994
 20
128.62680700000001
 10
63.960000000000001
 20
128.05680699999999
 10
63.960000000000001
 20
129.19680700000001
 97
        1
330
5E
 75
         0
 76
         1
 98
        1
 10
0.0
 20
0.0
  0
LWPOLYLINE
  5
60
100
AcDbEntity
  8
ASSEMBLY_OUTLINES_TOP
100
AcDbPolyline
 90
        3
 70
         1
 10
69.1
 20
128.626807
 10
70.24
 20
129.196807
 10
70.24
 20
128.056807
  0
HATCH
  5
61
100
AcDbEntity
  8
ASSEMBLY_OUTLINES_TOP
100
AcDbHatch
 10
0.0
 20
0.0
 30
0.0
210
0.0
220
0.0
230
1.0
  2
SOLID
 70
         1
 71
         1
 91
        1
 92
        2
 72
         0
 73
         1
 93
        3
 10
69.099999999999994
 20
128.62680700000001
 10
70.239999999999995
 20
129.19680700000001
 10
70.239999999999995
 20
128.05680699999999
 97
        1
330
60
 75
         0
 76
         1
 98
        1
 10
0.0
 20
0.0
  0
LWPOLYLINE
  5
62
100
AcDbEntity
  8
ASSEMBLY_OUTLINES_TOP
100
AcDbPolyline
 90
        2
 70
         0
 43
0.2
 10
132.61
 20
117.5
 10
138.71
 20
117.5
  0
LWPOLYLINE
  5
63
100
AcDbEntity
  8
ASSEMBLY_OUTLINES_TOP
100
AcDbPolyline
 90
        2
 70
         0
 43
0.2
 10
113.61
 20
113.5
 10
138.71
 20
113.5
  0
LWPOLYLINE
  5
64
100
AcDbEntity
  8
ASSEMBLY_OUTLINES_TOP
100
AcDbPolyline
 90
        2
 70
         0
 43
0.2
 10
138.2
 20
118.07
 10
138.2
 20
120.35
  0
LWPOLYLINE
  5
65
100
AcDbEntity
  8
ASSEMBLY_OUTLINES_TOP
100
AcDbPolyline
 90
        2
 70
         0
 43
0.2
 10
138.2
 20
112.93
 10
138.2
 20
110.65
  0
LWPOLYLINE
  5
66
100
AcDbEntity
  8
ASSEMBLY_OUTLINES_TOP
100
AcDbPolyline
 90
        3
 70
         1
 10
138.2
 20
117.5
 10
137.63
 20
118.64
 10
138.77
 20
118.64
  0
HATCH
  5
67
100
AcDbEntity
  8
ASSEMBLY_OUTLINES_TOP
100
AcDbHatch
 10
0.0
 20
0.0
 30
0.0
210
0.0
220
0.0
230
1.0
  2
SOLID
 70
         1
 71
         1
 91
        1
 92
        2
 72
         0
 73
         1
 93
        3
 10
138.19999999999999
 20
117.5
 10
137.63
 20
118.64
 10
138.77000000000001
 20
118.64
 97
        1
330
66
 75
         0
 76
         1
 98
        1
 10
0.0
 20
0.0
  0
LWPOLYLINE
  5
68
100
AcDbEntity
  8
ASSEMBLY_OUTLINES_TOP
100
AcDbPolyline
 90
        3
 70
         1
 10
138.2
 20
113.5
 10
138.769999
 20
112.36
 10
137.63
 20
112.36
  0
HATCH
  5
69
100
AcDbEntity
  8
ASSEMBLY_OUTLINES_TOP
100
AcDbHatch
 10
0.0
 20
0.0
 30
0.0
210
0.0
220
0.0
230
1.0
  2
SOLID
 70
         1
 71
         1
 91
        1
 92
        2
 72
         0
 73
         1
 93
        3
 10
138.19999999999999
 20
113.5
 10
138.76999900000001
 20
112.36
 10
137.63
 20
112.36
 97
        1
330
68
 75
         0
 76
         1
 98
        1
 10
0.0
 20
0.0
  0
LWPOLYLINE
  5
6A
100
AcDbEntity
  8
ASSEMBLY_OUTLINES_TOP
100
AcDbPolyline
 90
        2
 70
         0
 43
0.2
 10
128.61
 20
-3.5
 10
135.81
 20
-3.5
  0
LWPOLYLINE
  5
6B
100
AcDbEntity
  8
ASSEMBLY_OUTLINES_TOP
100
AcDbPolyline
 90
        2
 70
         0
 43
0.2
 10
132.61
 20
-7.5
 10
135.81
 20
-7.5
  0
LWPOLYLINE
  5
6C
100
AcDbEntity
  8
ASSEMBLY_OUTLINES_TOP
100
AcDbPolyline
 90
        2
 70
         0
 43
0.2
 10
135.3
 20
-2.93
 10
135.3
 20
-0.65
  0
LWPOLYLINE
  5
6D
100
AcDbEntity
  8
ASSEMBLY_OUTLINES_TOP
100
AcDbPolyline
 90
        2
 70
         0
 43
0.2
 10
135.3
 20
-8.07
 10
135.3
 20
-10.35
  0
LWPOLYLINE
  5
6E
100
AcDbEntity
  8
ASSEMBLY_OUTLINES_TOP
100
AcDbPolyline
 90
        3
 70
         1
 10
135.3
 20
-3.5
 10
134.73
 20
-2.36
 10
135.87
 20
-2.36
  0
HATCH
  5
6F
100
AcDbEntity
  8
ASSEMBLY_OUTLINES_TOP
100
AcDbHatch
 10
0.0
 20
0.0
 30
0.0
210
0.0
220
0.0
230
1.0
  2
SOLID
 70
         1
 71
         1
 91
        1
 92
        2
 72
         0
 73
         1
 93
        3
 10
135.30000000000001
 20
-3.5
 10
134.72999999999999
 20
-2.3599999999999999
 10
135.87
 20
-2.3599999999999999
 97
        1
330
6E
 75
         0
 76
         1
 98
        1
 10
0.0
 20
0.0
  0
LWPOLYLINE
  5
70
100
AcDbEntity
  8
ASSEMBLY_OUTLINES_TOP
100
AcDbPolyline
 90
        3
 70
         1
 10
135.3
 20
-7.5
 10
135.869999
 20
-8.64
 10
134.73
 20
-8.64
  0
HATCH
  5
71
100
AcDbEntity
  8
ASSEMBLY_OUTLINES_TOP
100
AcDbHatch
 10
0.0
 20
0.0
 30
0.0
210
0.0
220
0.0
230
1.0
  2
SOLID
 70
         1
 71
         1
 91
        1
 92
        2
 72
         0
 73
         1
 93
        3
 10
135.30000000000001
 20
-7.5
 10
135.86999900000001
 20
-8.6400000000000006
 10
134.72999999999999
 20
-8.6400000000000006
 97
        1
330
70
 75
         0
 76
         1
 98
        1
 10
0.0
 20
0.0
  0
LWPOLYLINE
  5
72
100
AcDbEntity
  8
ASSEMBLY_OUTLINES_TOP
100
AcDbPolyline
 90
        2
 70
         0
 43
0.2
 10
128.1
 20
-4.01
 10
128.1
 20
-11.91
  0
LWPOLYLINE
  5
73
100
AcDbEntity
  8
ASSEMBLY_OUTLINES_TOP
100
AcDbPolyline
 90
        2
 70
         0
 43
0.2
 10
132.1
 20
-8.01
 10
132.1
 20
-11.91
  0
LWPOLYLINE
  5
74
100
AcDbEntity
  8
ASSEMBLY_OUTLINES_TOP
100
AcDbPolyline
 90
        2
 70
         0
 43
0.2
 10
127.53
 20
-11.4
 10
125.25
 20
-11.4
  0
LWPOLYLINE
  5
75
100
AcDbEntity
  8
ASSEMBLY_OUTLINES_TOP
100
AcDbPolyline
 90
        2
 70
         0
 43
0.2
 10
132.67
 20
-11.4
 10
134.95
 20
-11.4
  0
LWPOLYLINE
  5
76
100
AcDbEntity
  8
ASSEMBLY_OUTLINES_TOP
100
AcDbPolyline
 90
        3
 70
         1
 10
128.1
 20
-11.4
 10
126.96
 20
-11.97
 10
126.96
 20
-10.83
  0
HATCH
  5
77
100
AcDbEntity
  8
ASSEMBLY_OUTLINES_TOP
100
AcDbHatch
 10
0.0
 20
0.0
 30
0.0
210
0.0
220
0.0
230
1.0
  2
SOLID
 70
         1
 71
         1
 91
        1
 92
        2
 72
         0
 73
         1
 93
        3
 10
128.09999999999999
 20
-11.4
 10
126.95999999999999
 20
-11.970000000000001
 10
126.95999999999999
 20
-10.83
 97
        1
330
76
 75
         0
 76
         1
 98
        1
 10
0.0
 20
0.0
  0
LWPOLYLINE
  5
78
100
AcDbEntity
  8
ASSEMBLY_OUTLINES_TOP
100
AcDbPolyline
 90
        3
 70
         1
 10
132.1
 20
-11.4
 10
133.24
 20
-10.83
 10
133.24
 20
-11.97
  0
HATCH
  5
79
100
AcDbEntity
  8
ASSEMBLY_OUTLINES_TOP
100
AcDbHatch
 10
0.0
 20
0.0
 30
0.0
210
0.0
220
0.0
230
1.0
  2
SOLID
 70
         1
 71
         1
 91
        1
 92
        2
 72
         0
 73
         1
 93
        3
 10
132.09999999999999
 20
-11.4
 10
133.24000000000001
 20
-10.83
 10
133.24000000000001
 20
-11.970000000000001
 97
        1
330
78
 75
         0
 76
         1
 98
        1
 10
0.0
 20
0.0
  0
LWPOLYLINE
  5
7A
100
AcDbEntity
  8
ASSEMBLY_OUTLINES_TOP
100
AcDbPolyline
 90
        4
 70
         1
 43
0.1
 10
65.1
 20
2.5
 10
65.1
 20
107.5
 10
132.1
 20
107.5
 10
132.1
 20
2.5
  0
LWPOLYLINE
  5
7B
100
AcDbEntity
  8
ASSEMBLY_OUTLINES_TOP
100
AcDbPolyline
 90
        2
 70
         0
 43
0.2
 10
64.59
 20
107.5
 10
59.157522
 20
107.5
  0
LWPOLYLINE
  5
7C
100
AcDbEntity
  8
ASSEMBLY_OUTLINES_TOP
100
AcDbPolyline
 90
        2
 70
         0
 43
0.2
 10
67.79
 20
32.2
 10
59.157522
 20
32.2
  0
LWPOLYLINE
  5
7D
100
AcDbEntity
  8
ASSEMBLY_OUTLINES_TOP
100
AcDbPolyline
 90
        2
 70
         0
 43
0.2
 10
59.667522
 20
106.93
 10
59.667522
 20
73.741707
  0
LWPOLYLINE
  5
7E
100
AcDbEntity
  8
ASSEMBLY_OUTLINES_TOP
100
AcDbPolyline
 90
        2
 70
         0
 43
0.2
 10
59.667522
 20
65.958293
 10
59.667522
 20
32.77
  0
LWPOLYLINE
  5
7F
100
AcDbEntity
  8
ASSEMBLY_OUTLINES_TOP
100
AcDbPolyline
 90
        3
 70
         1
 10
59.667522
 20
107.5
 10
60.237521
 20
106.36
 10
59.097522
 20
106.36
  0
HATCH
  5
80
100
AcDbEntity
  8
ASSEMBLY_OUTLINES_TOP
100
AcDbHatch
 10
0.0
 20
0.0
 30
0.0
210
0.0
220
0.0
230
1.0
  2
SOLID
 70
         1
 71
         1
 91
        1
 92
        2
 72
         0
 73
         1
 93
        3
 10
59.667521999999998
 20
107.5
 10
60.237521000000001
 20
106.36
 10
59.097521999999998
 20
106.36
 97
        1
330
7F
 75
         0
 76
         1
 98
        1
 10
0.0
 20
0.0
  0
LWPOLYLINE
  5
81
100
AcDbEntity
  8
ASSEMBLY_OUTLINES_TOP
100
AcDbPolyline
 90
        3
 70
         1
 10
59.667522
 20
32.2
 10
59.097522
 20
33.34
 10
60.237522
 20
33.34
  0
HATCH
  5
82
100
AcDbEntity
  8
ASSEMBLY_OUTLINES_TOP
100
AcDbHatch
 10
0.0
 20
0.0
 30
0.0
210
0.0
220
0.0
230
1.0
  2
SOLID
 70
         1
 71
         1
 91
        1
 92
        2
 72
         0
 73
         1
 93
        3
 10
59.667521999999998
 20
32.200000000000003
 10
59.097521999999998
 20
33.340000000000003
 10
60.237521999999998
 20
33.340000000000003
 97
        1
330
81
 75
         0
 76
         1
 98
        1
 10
0.0
 20
0.0
  0
TEXT
  5
84
100
AcDbEntity
  8
ASSEMBLY_OUTLINES_TOP
100
AcDbText
 10
57.335
 20
52.02439
 30
0.0
 40
1.27
  1
125mm
 50
90.0
  7
VERIBEST_GERBER_0
 72
         1
 11
56.7
 21
55.0
 31
0.0
100
AcDbText
 73
         2
  0
TEXT
  5
85
100
AcDbEntity
  8
ASSEMBLY_OUTLINES_TOP
100
AcDbText
 10
96.20224
 20
-16.946478
 30
0.0
 40
1.27
  1
67mm
  7
VERIBEST_GERBER_0
 72
         1
 11
98.6
 21
-16.311478
 31
0.0
100
AcDbText
 73
         2
  0
TEXT
  5
86
100
AcDbEntity
  8
ASSEMBLY_OUTLINES_TOP
100
AcDbText
 10
58.433496
 20
-12.774676
 30
0.0
 40
1.27
  1
4mm
  7
VERIBEST_GERBER_0
 72
         1
 11
60.231181
 21
-12.139676
 31
0.0
100
AcDbText
 73
         2
  0
TEXT
  5
87
100
AcDbEntity
  8
ASSEMBLY_OUTLINES_TOP
100
AcDbText
 10
60.38875
 20
-0.428866
 30
0.0
 40
1.27
  1
4mm
 50
90.0
  7
VERIBEST_GERBER_0
 72
         1
 11
59.75375
 21
1.368819
 31
0.0
100
AcDbText
 73
         2
  0
TEXT
  5
88
100
AcDbEntity
  8
ASSEMBLY_OUTLINES_TOP
100
AcDbText
 10
120.224465
 20
124.940138
 30
0.0
 40
1.27
  1
19mm
  7
VERIBEST_GERBER_0
 72
         1
 11
122.6
 21
125.575138
 31
0.0
100
AcDbText
 73
         2
  0
TEXT
  5
89
100
AcDbEntity
  8
ASSEMBLY_OUTLINES_TOP
100
AcDbText
 10
64.007817
 20
120.571134
 30
0.0
 40
1.27
  1
4mm
 50
90.0
  7
VERIBEST_GERBER_0
 72
         1
 11
63.372817
 21
122.368819
 31
0.0
100
AcDbText
 73
         2
  0
TEXT
  5
8A
100
AcDbEntity
  8
ASSEMBLY_OUTLINES_TOP
100
AcDbText
 10
58.433496
 20
127.991807
 30
0.0
 40
1.27
  1
4mm
  7
VERIBEST_GERBER_0
 72
         1
 11
60.231181
 21
128.626807
 31
0.0
100
AcDbText
 73
         2
  0
TEXT
  5
8B
100
AcDbEntity
  8
ASSEMBLY_OUTLINES_TOP
100
AcDbText
 10
138.835
 20
120.571134
 30
0.0
 40
1.27
  1
4mm
 50
90.0
  7
VERIBEST_GERBER_0
 72
         1
 11
138.2
 21
122.368819
 31
0.0
100
AcDbText
 73
         2
  0
TEXT
  5
8C
100
AcDbEntity
  8
ASSEMBLY_OUTLINES_TOP
100
AcDbText
 10
135.935
 20
-0.428866
 30
0.0
 40
1.27
  1
4mm
 50
90.0
  7
VERIBEST_GERBER_0
 72
         1
 11
135.3
 21
1.368819
 31
0.0
100
AcDbText
 73
         2
  0
TEXT
  5
8D
100
AcDbEntity
  8
ASSEMBLY_OUTLINES_TOP
100
AcDbText
 10
121.433496
 20
-12.035
 30
0.0
 40
1.27
  1
4mm
  7
VERIBEST_GERBER_0
 72
         1
 11
123.231181
 21
-11.4
 31
0.0
100
AcDbText
 73
         2
  0
TEXT
  5
8E
100
AcDbEntity
  8
ASSEMBLY_OUTLINES_TOP
100
AcDbText
 10
60.302522
 20
66.36385
 30
0.0
 40
1.27
  1
75.3mm
 50
90.0
  7
VERIBEST_GERBER_0
 72
         1
 11
59.667522
 21
69.85
 31
0.0
100
AcDbText
 73
         2
  0
LWPOLYLINE
  5
8F
100
AcDbEntity
  8
ASSEMBLY_OUTLINES_TOP
100
AcDbPolyline
 90
        4
 70
         1
 43
0.1
 10
101.55
 20
32.8
 10
101.55
 20
35.6
 10
102.85
 20
35.6
 10
102.85
 20
32.8
  0
LWPOLYLINE
  5
90
100
AcDbEntity
  8
ASSEMBLY_OUTLINES_TOP
100
AcDbPolyline
 90
        4
 70
         1
 43
0.1
 10
125.65
 20
102.55
 10
125.65
 20
105.45
 10
126.95
 20
105.45
 10
126.95
 20
102.55
  0
LWPOLYLINE
  5
91
100
AcDbEntity
  8
ASSEMBLY_OUTLINES_TOP
100
AcDbPolyline
 90
        4
 70
         1
 43
0.1
 10
104.65
 20
17.65
 10
104.65
 20
20.55
 10
105.95
 20
20.55
 10
105.95
 20
17.65
  0
LWPOLYLINE
  5
92
100
AcDbEntity
  8
ASSEMBLY_OUTLINES_TOP
100
AcDbPolyline
 90
        4
 70
         1
 43
0.1
 10
92.75
 20
51.0
 10
92.75
 20
53.8
 10
94.05
 20
53.8
 10
94.05
 20
51.0
  0
LWPOLYLINE
  5
93
100
AcDbEntity
  8
ASSEMBLY_OUTLINES_TOP
100
AcDbPolyline
 90
        8
 70
         0
 10
118.6
 20
26.8
 42
-2.549150321
 10
128.8
 20
26.8
 10
130.7
 20
26.8
 10
130.7
 20
24.8
 10
116.7
 20
24.8
 10
116.7
 20
26.8
 10
118.6
 20
26.8
 10
118.5
 20
26.8
  0
LWPOLYLINE
  5
94
100
AcDbEntity
  8
ASSEMBLY_OUTLINES_TOP
100
AcDbPolyline
 90
        4
 70
         1
 43
0.1
 10
120.3
 20
96.1
 10
120.3
 20
96.9
 10
121.5
 20
96.9
 10
121.5
 20
96.1
  0
LWPOLYLINE
  5
95
100
AcDbEntity
  8
ASSEMBLY_OUTLINES_TOP
100
AcDbPolyline
 90
        2
 70
         0
 43
0.1
 10
121.5
 20
96.9
 10
121.5
 20
96.1
  0
LWPOLYLINE
  5
96
100
AcDbEntity
  8
ASSEMBLY_OUTLINES_TOP
100
AcDbPolyline
 90
        2
 70
         0
 43
0.1
 10
121.4
 20
96.9
 10
121.4
 20
96.1
  0
LWPOLYLINE
  5
97
100
AcDbEntity
  8
ASSEMBLY_OUTLINES_TOP
100
AcDbPolyline
 90
        2
 70
         0
 43
0.1
 10
121.3
 20
96.9
 10
121.3
 20
96.1
  0
LWPOLYLINE
  5
98
100
AcDbEntity
  8
ASSEMBLY_OUTLINES_TOP
100
AcDbPolyline
 90
        2
 70
         0
 43
0.1
 10
121.2
 20
96.9
 10
121.2
 20
96.1
  0
LWPOLYLINE
  5
99
100
AcDbEntity
  8
ASSEMBLY_OUTLINES_TOP
100
AcDbPolyline
 90
        2
 70
         0
 43
0.1
 10
121.1
 20
96.9
 10
121.1
 20
96.1
  0
LWPOLYLINE
  5
9A
100
AcDbEntity
  8
ASSEMBLY_OUTLINES_TOP
100
AcDbPolyline
 90
        2
 70
         0
 43
0.1
 10
121.0
 20
96.9
 10
121.0
 20
96.1
  0
LWPOLYLINE
  5
9B
100
AcDbEntity
  8
ASSEMBLY_OUTLINES_TOP
100
AcDbPolyline
 90
        4
 70
         1
 43
0.1
 10
76.1
 20
78.25
 10
76.1
 20
79.55
 10
78.9
 20
79.55
 10
78.9
 20
78.25
  0
LWPOLYLINE
  5
9C
100
AcDbEntity
  8
ASSEMBLY_OUTLINES_TOP
100
AcDbPolyline
 90
        4
 70
         1
 43
0.1
 10
76.1
 20
52.75
 10
76.1
 20
54.05
 10
78.9
 20
54.05
 10
78.9
 20
52.75
  0
LWPOLYLINE
  5
9D
100
AcDbEntity
  8
ASSEMBLY_OUTLINES_TOP
100
AcDbPolyline
 90
        4
 70
         1
 43
0.1
 10
117.65
 20
72.15
 10
117.65
 20
73.45
 10
120.55
 20
73.45
 10
120.55
 20
72.15
  0
LWPOLYLINE
  5
9E
100
AcDbEntity
  8
ASSEMBLY_OUTLINES_TOP
100
AcDbPolyline
 90
        4
 70
         1
 43
0.1
 10
81.4
 20
6.15
 10
81.4
 20
7.45
 10
84.2
 20
7.45
 10
84.2
 20
6.15
  0
LWPOLYLINE
  5
9F
100
AcDbEntity
  8
ASSEMBLY_OUTLINES_TOP
100
AcDbPolyline
 90
        4
 70
         1
 43
0.1
 10
74.35
 20
7.1
 10
74.35
 20
9.9
 10
75.65
 20
9.9
 10
75.65
 20
7.1
  0
LWPOLYLINE
  5
A0
100
AcDbEntity
  8
ASSEMBLY_OUTLINES_TOP
100
AcDbPolyline
 90
        4
 70
         1
 43
0.1
 10
97.65
 20
82.4
 10
97.65
 20
85.2
 10
98.95
 20
85.2
 10
98.95
 20
82.4
  0
LWPOLYLINE
  5
A1
100
AcDbEntity
  8
ASSEMBLY_OUTLINES_TOP
100
AcDbPolyline
 90
        4
 70
         1
 43
0.1
 10
107.2
 20
93.85
 10
107.2
 20
97.15
 10
109.0
 20
97.15
 10
109.0
 20
93.85
  0
LWPOLYLINE
  5
A2
100
AcDbEntity
  8
ASSEMBLY_OUTLINES_TOP
100
AcDbPolyline
 90
        4
 70
         1
 43
0.1
 10
113.15
 20
91.45
 10
113.15
 20
92.75
 10
116.05
 20
92.75
 10
116.05
 20
91.45
  0
LWPOLYLINE
  5
A3
100
AcDbEntity
  8
ASSEMBLY_OUTLINES_TOP
100
AcDbPolyline
 90
        4
 70
         1
 43
0.1
 10
86.15
 20
35.0
 10
86.15
 20
37.8
 10
87.45
 20
37.8
 10
87.45
 20
35.0
  0
LWPOLYLINE
  5
A4
100
AcDbEntity
  8
ASSEMBLY_OUTLINES_TOP
100
AcDbPolyline
 90
        4
 70
         1
 43
0.1
 10
100.95
 20
13.15
 10
100.95
 20
16.05
 10
102.25
 20
16.05
 10
102.25
 20
13.15
  0
LWPOLYLINE
  5
A5
100
AcDbEntity
  8
ASSEMBLY_OUTLINES_TOP
100
AcDbPolyline
 90
        4
 70
         1
 43
0.1
 10
84.9
 20
52.25
 10
84.9
 20
53.55
 10
87.7
 20
53.55
 10
87.7
 20
52.25
  0
LWPOLYLINE
  5
A6
100
AcDbEntity
  8
ASSEMBLY_OUTLINES_TOP
100
AcDbPolyline
 90
        4
 70
         1
 10
72.53
 20
107.92
 10
72.53
 20
116.62
 10
105.53
 20
116.62
 10
105.53
 20
107.92
  0
LWPOLYLINE
  5
A7
100
AcDbEntity
  8
ASSEMBLY_OUTLINES_TOP
100
AcDbPolyline
 90
        4
 70
         1
 10
85.6
 20
107.92
 10
85.6
 20
108.5
 10
92.1
 20
108.5
 10
92.1
 20
107.92
  0
LWPOLYLINE
  5
A8
100
AcDbEntity
  8
ASSEMBLY_OUTLINES_TOP
100
AcDbPolyline
 90
        4
 70
         1
 43
0.1
 10
117.85
 20
98.2
 10
117.85
 20
100.0
 10
121.15
 20
100.0
 10
121.15
 20
98.2
  0
LWPOLYLINE
  5
A9
100
AcDbEntity
  8
ASSEMBLY_OUTLINES_TOP
100
AcDbPolyline
 90
        4
 70
         1
 43
0.1
 10
95.45
 20
21.15
 10
95.45
 20
24.05
 10
96.75
 20
24.05
 10
96.75
 20
21.15
  0
LWPOLYLINE
  5
AA
100
AcDbEntity
  8
ASSEMBLY_OUTLINES_TOP
100
AcDbPolyline
 90
        4
 70
         1
 43
0.1
 10
121.5
 20
66.8
 10
121.5
 20
68.0
 10
122.3
 20
68.0
 10
122.3
 20
66.8
  0
LWPOLYLINE
  5
AB
100
AcDbEntity
  8
ASSEMBLY_OUTLINES_TOP
100
AcDbPolyline
 90
        2
 70
         0
 43
0.1
 10
122.3
 20
66.8
 10
121.5
 20
66.8
  0
LWPOLYLINE
  5
AC
100
AcDbEntity
  8
ASSEMBLY_OUTLINES_TOP
100
AcDbPolyline
 90
        2
 70
         0
 43
0.1
 10
122.3
 20
66.9
 10
121.5
 20
66.9
  0
LWPOLYLINE
  5
AD
100
AcDbEntity
  8
ASSEMBLY_OUTLINES_TOP
100
AcDbPolyline
 90
        2
 70
         0
 43
0.1
 10
122.3
 20
67.0
 10
121.5
 20
67.0
  0
LWPOLYLINE
  5
AE
100
AcDbEntity
  8
ASSEMBLY_OUTLINES_TOP
100
AcDbPolyline
 90
        2
 70
         0
 43
0.1
 10
122.3
 20
67.1
 10
121.5
 20
67.1
  0
LWPOLYLINE
  5
AF
100
AcDbEntity
  8
ASSEMBLY_OUTLINES_TOP
100
AcDbPolyline
 90
        2
 70
         0
 43
0.1
 10
122.3
 20
67.2
 10
121.5
 20
67.2
  0
LWPOLYLINE
  5
B0
100
AcDbEntity
  8
ASSEMBLY_OUTLINES_TOP
100
AcDbPolyline
 90
        2
 70
         0
 43
0.1
 10
122.3
 20
67.3
 10
121.5
 20
67.3
  0
LWPOLYLINE
  5
B1
100
AcDbEntity
  8
ASSEMBLY_OUTLINES_TOP
100
AcDbPolyline
 90
        4
 70
         1
 10
80.8
 20
13.2
 10
80.8
 20
20.2
 10
87.8
 20
20.2
 10
87.8
 20
13.2
  0
LWPOLYLINE
  5
B2
100
AcDbEntity
  8
ASSEMBLY_OUTLINES_TOP
100
AcDbPolyline
 90
        4
 70
         1
 43
0.1
 10
99.45
 20
20.4
 10
99.45
 20
23.2
 10
100.75
 20
23.2
 10
100.75
 20
20.4
  0
LWPOLYLINE
  5
B3
100
AcDbEntity
  8
ASSEMBLY_OUTLINES_TOP
100
AcDbPolyline
 90
        4
 70
         1
 43
0.1
 10
109.55
 20
67.5
 10
109.55
 20
70.3
 10
110.85
 20
70.3
 10
110.85
 20
67.5
  0
CIRCLE
  5
B4
100
AcDbEntity
  8
ASSEMBLY_OUTLINES_TOP
100
AcDbCircle
 10
75.7
 20
76.100002
 30
0.0
 40
2.0
  0
LWPOLYLINE
  5
B5
100
AcDbEntity
  8
ASSEMBLY_OUTLINES_TOP
100
AcDbPolyline
 90
        4
 70
         1
 43
0.1
 10
104.25
 20
82.4
 10
104.25
 20
85.2
 10
105.55
 20
85.2
 10
105.55
 20
82.4
  0
LWPOLYLINE
  5
B6
100
AcDbEntity
  8
ASSEMBLY_OUTLINES_TOP
100
AcDbPolyline
 90
        4
 70
         1
 43
0.1
 10
115.15
 20
79.95
 10
115.15
 20
81.25
 10
118.05
 20
81.25
 10
118.05
 20
79.95
  0
LWPOLYLINE
  5
B7
100
AcDbEntity
  8
ASSEMBLY_OUTLINES_TOP
100
AcDbPolyline
 90
        4
 70
         1
 43
0.1
 10
73.25
 20
64.25
 10
73.25
 20
67.15
 10
74.55
 20
67.15
 10
74.55
 20
64.25
  0
LWPOLYLINE
  5
B8
100
AcDbEntity
  8
ASSEMBLY_OUTLINES_TOP
100
AcDbPolyline
 90
        4
 70
         1
 43
0.1
 10
73.15
 20
72.3
 10
73.15
 20
75.1
 10
74.45
 20
75.1
 10
74.45
 20
72.3
  0
LWPOLYLINE
  5
B9
100
AcDbEntity
  8
ASSEMBLY_OUTLINES_TOP
100
AcDbPolyline
 90
        4
 70
         1
 43
0.1
 10
93.15
 20
94.45
 10
93.15
 20
95.75
 10
96.05
 20
95.75
 10
96.05
 20
94.45
  0
LWPOLYLINE
  5
BA
100
AcDbEntity
  8
ASSEMBLY_OUTLINES_TOP
100
AcDbPolyline
 90
        4
 70
         1
 43
0.1
 10
119.6
 20
45.42
 10
119.6
 20
57.92
 10
133.6
 20
57.92
 10
133.6
 20
45.42
  0
LWPOLYLINE
  5
BB
100
AcDbEntity
  8
ASSEMBLY_OUTLINES_TOP
100
AcDbPolyline
 90
        4
 70
         1
 43
0.1
 10
66.95
 20
6.5
 10
66.95
 20
9.3
 10
68.25
 20
9.3
 10
68.25
 20
6.5
  0
LWPOLYLINE
  5
BC
100
AcDbEntity
  8
ASSEMBLY_OUTLINES_TOP
100
AcDbPolyline
 90
        4
 70
         1
 43
0.1
 10
74.35
 20
10.7
 10
74.35
 20
13.5
 10
75.65
 20
13.5
 10
75.65
 20
10.7
  0
LWPOLYLINE
  5
BD
100
AcDbEntity
  8
ASSEMBLY_OUTLINES_TOP
100
AcDbPolyline
 90
        4
 70
         1
 43
0.1
 10
93.15
 20
92.65
 10
93.15
 20
93.95
 10
96.05
 20
93.95
 10
96.05
 20
92.65
  0
LWPOLYLINE
  5
BE
100
AcDbEntity
  8
ASSEMBLY_OUTLINES_TOP
100
AcDbPolyline
 90
        4
 70
         1
 43
0.1
 10
112.6
 20
4.41
 10
112.6
 20
20.67
 10
133.6
 20
20.67
 10
133.6
 20
4.41
  0
LWPOLYLINE
  5
BF
100
AcDbEntity
  8
ASSEMBLY_OUTLINES_TOP
100
AcDbPolyline
 90
        8
 70
         1
 10
132.6
 20
67.75
 10
131.6
 20
67.75
 10
131.6
 20
66.15
 10
123.6
 20
66.15
 10
123.6
 20
77.05
 10
131.6
 20
77.05
 10
131.6
 20
75.5
 10
132.6
 20
75.5
  0
LWPOLYLINE
  5
C0
100
AcDbEntity
  8
ASSEMBLY_OUTLINES_TOP
100
AcDbPolyline
 90
        4
 70
         1
 43
0.1
 10
69.95
 20
86.95
 10
69.95
 20
89.85
 10
71.25
 20
89.85
 10
71.25
 20
86.95
  0
LWPOLYLINE
  5
C1
100
AcDbEntity
  8
ASSEMBLY_OUTLINES_TOP
100
AcDbPolyline
 90
        4
 70
         1
 43
0.1
 10
69.75
 20
3.55
 10
69.75
 20
4.85
 10
72.65
 20
4.85
 10
72.65
 20
3.55
  0
LWPOLYLINE
  5
C2
100
AcDbEntity
  8
ASSEMBLY_OUTLINES_TOP
100
AcDbPolyline
 90
        4
 70
         1
 43
0.1
 10
87.9
 20
8.7
 10
87.9
 20
10.1
 10
90.9
 20
10.1
 10
90.9
 20
8.7
  0
LWPOLYLINE
  5
C3
100
AcDbEntity
  8
ASSEMBLY_OUTLINES_TOP
100
AcDbPolyline
 90
        2
 70
         0
 43
0.1
 10
90.8
 20
10.1
 10
90.9
 20
10.0
  0
LWPOLYLINE
  5
C4
100
AcDbEntity
  8
ASSEMBLY_OUTLINES_TOP
100
AcDbPolyline
 90
        2
 70
         0
 43
0.1
 10
90.7
 20
10.1
 10
90.9
 20
9.9
  0
LWPOLYLINE
  5
C5
100
AcDbEntity
  8
ASSEMBLY_OUTLINES_TOP
100
AcDbPolyline
 90
        2
 70
         0
 43
0.1
 10
90.6
 20
10.1
 10
90.9
 20
9.8
  0
LWPOLYLINE
  5
C6
100
AcDbEntity
  8
ASSEMBLY_OUTLINES_TOP
100
AcDbPolyline
 90
        2
 70
         0
 43
0.1
 10
90.5
 20
10.1
 10
90.9
 20
9.7
  0
LWPOLYLINE
  5
C7
100
AcDbEntity
  8
ASSEMBLY_OUTLINES_TOP
100
AcDbPolyline
 90
        2
 70
         0
 43
0.1
 10
90.4
 20
10.1
 10
90.9
 20
9.6
  0
LWPOLYLINE
  5
C8
100
AcDbEntity
  8
ASSEMBLY_OUTLINES_TOP
100
AcDbPolyline
 90
        2
 70
         0
 43
0.1
 10
90.3
 20
10.1
 10
90.9
 20
9.5
  0
LWPOLYLINE
  5
C9
100
AcDbEntity
  8
ASSEMBLY_OUTLINES_TOP
100
AcDbPolyline
 90
        4
 70
         1
 43
0.1
 10
99.55
 20
87.85
 10
99.55
 20
90.75
 10
100.85
 20
90.75
 10
100.85
 20
87.85
  0
LWPOLYLINE
  5
CA
100
AcDbEntity
  8
ASSEMBLY_OUTLINES_TOP
100
AcDbPolyline
 90
        4
 70
         1
 43
0.1
 10
83.5
 20
56.0
 10
83.5
 20
80.0
 10
107.5
 20
80.0
 10
107.5
 20
56.0
  0
LWPOLYLINE
  5
CB
100
AcDbEntity
  8
ASSEMBLY_OUTLINES_TOP
100
AcDbPolyline
 90
        2
 70
         1
 43
0.1
 10
84.05
 20
78.95
 42
-1.0
 10
85.05
 20
78.95
 42
-1.0
  0
LWPOLYLINE
  5
CC
100
AcDbEntity
  8
ASSEMBLY_OUTLINES_TOP
100
AcDbPolyline
 90
        4
 70
         1
 43
0.1
 10
119.25
 20
74.75
 10
119.25
 20
77.65
 10
120.55
 20
77.65
 10
120.55
 20
74.75
  0
LWPOLYLINE
  5
CD
100
AcDbEntity
  8
ASSEMBLY_OUTLINES_TOP
100
AcDbPolyline
 90
        4
 70
         1
 43
0.1
 10
109.55
 20
55.0
 10
109.55
 20
57.8
 10
110.85
 20
57.8
 10
110.85
 20
55.0
  0
LWPOLYLINE
  5
CE
100
AcDbEntity
  8
ASSEMBLY_OUTLINES_TOP
100
AcDbPolyline
 90
        4
 70
         1
 43
0.1
 10
113.0
 20
40.9
 10
113.0
 20
43.9
 10
114.4
 20
43.9
 10
114.4
 20
40.9
  0
LWPOLYLINE
  5
CF
100
AcDbEntity
  8
ASSEMBLY_OUTLINES_TOP
100
AcDbPolyline
 90
        2
 70
         0
 43
0.1
 10
114.4
 20
41.0
 10
114.3
 20
40.9
  0
LWPOLYLINE
  5
D0
100
AcDbEntity
  8
ASSEMBLY_OUTLINES_TOP
100
AcDbPolyline
 90
        2
 70
         0
 43
0.1
 10
114.4
 20
41.1
 10
114.2
 20
40.9
  0
LWPOLYLINE
  5
D1
100
AcDbEntity
  8
ASSEMBLY_OUTLINES_TOP
100
AcDbPolyline
 90
        2
 70
         0
 43
0.1
 10
114.4
 20
41.2
 10
114.1
 20
40.9
  0
LWPOLYLINE
  5
D2
100
AcDbEntity
  8
ASSEMBLY_OUTLINES_TOP
100
AcDbPolyline
 90
        2
 70
         0
 43
0.1
 10
114.4
 20
41.3
 10
114.0
 20
40.9
  0
LWPOLYLINE
  5
D3
100
AcDbEntity
  8
ASSEMBLY_OUTLINES_TOP
100
AcDbPolyline
 90
        2
 70
         0
 43
0.1
 10
114.4
 20
41.4
 10
113.9
 20
40.9
  0
LWPOLYLINE
  5
D4
100
AcDbEntity
  8
ASSEMBLY_OUTLINES_TOP
100
AcDbPolyline
 90
        2
 70
         0
 43
0.1
 10
114.4
 20
41.5
 10
113.8
 20
40.9
  0
LWPOLYLINE
  5
D5
100
AcDbEntity
  8
ASSEMBLY_OUTLINES_TOP
100
AcDbPolyline
 90
        2
 70
         0
 10
76.8
 20
69.55
 10
76.8
 20
62.05
  0
LWPOLYLINE
  5
D6
100
AcDbEntity
  8
ASSEMBLY_OUTLINES_TOP
100
AcDbPolyline
 90
        2
 70
         0
 10
80.8
 20
69.55
 10
80.8
 20
62.05
  0
LWPOLYLINE
  5
D7
100
AcDbEntity
  8
ASSEMBLY_OUTLINES_TOP
100
AcDbPolyline
 90
        2
 70
         0
 10
76.8
 20
62.05
 42
1.0
 10
80.8
 20
62.05
  0
LWPOLYLINE
  5
D8
100
AcDbEntity
  8
ASSEMBLY_OUTLINES_TOP
100
AcDbPolyline
 90
        2
 70
         0
 10
80.8
 20
69.55
 42
1.0
 10
76.8
 20
69.55
  0
LWPOLYLINE
  5
D9
100
AcDbEntity
  8
ASSEMBLY_OUTLINES_TOP
100
AcDbPolyline
 90
        4
 70
         1
 43
0.1
 10
72.7
 20
91.5
 10
72.7
 20
94.5
 10
74.1
 20
94.5
 10
74.1
 20
91.5
  0
LWPOLYLINE
  5
DA
100
AcDbEntity
  8
ASSEMBLY_OUTLINES_TOP
100
AcDbPolyline
 90
        2
 70
         0
 43
0.1
 10
72.7
 20
94.4
 10
72.8
 20
94.5
  0
LWPOLYLINE
  5
DB
100
AcDbEntity
  8
ASSEMBLY_OUTLINES_TOP
100
AcDbPolyline
 90
        2
 70
         0
 43
0.1
 10
72.7
 20
94.3
 10
72.9
 20
94.5
  0
LWPOLYLINE
  5
DC
100
AcDbEntity
  8
ASSEMBLY_OUTLINES_TOP
100
AcDbPolyline
 90
        2
 70
         0
 43
0.1
 10
72.7
 20
94.2
 10
73.0
 20
94.5
  0
LWPOLYLINE
  5
DD
100
AcDbEntity
  8
ASSEMBLY_OUTLINES_TOP
100
AcDbPolyline
 90
        2
 70
         0
 43
0.1
 10
72.7
 20
94.1
 10
73.1
 20
94.5
  0
LWPOLYLINE
  5
DE
100
AcDbEntity
  8
ASSEMBLY_OUTLINES_TOP
100
AcDbPolyline
 90
        2
 70
         0
 43
0.1
 10
72.7
 20
94.0
 10
73.2
 20
94.5
  0
LWPOLYLINE
  5
DF
100
AcDbEntity
  8
ASSEMBLY_OUTLINES_TOP
100
AcDbPolyline
 90
        2
 70
         0
 43
0.1
 10
72.7
 20
93.9
 10
73.3
 20
94.5
  0
LWPOLYLINE
  5
E0
100
AcDbEntity
  8
ASSEMBLY_OUTLINES_TOP
100
AcDbPolyline
 90
        4
 70
         1
 43
0.1
 10
68.75
 20
7.75
 10
68.75
 20
12.25
 10
73.85
 20
12.25
 10
73.85
 20
7.75
  0
LWPOLYLINE
  5
E1
100
AcDbEntity
  8
ASSEMBLY_OUTLINES_TOP
100
AcDbPolyline
 90
        2
 70
         1
 43
0.1
 10
72.35
 20
11.25
 42
-1.0
 10
73.35
 20
11.25
 42
-1.0
  0
LWPOLYLINE
  5
E2
100
AcDbEntity
  8
ASSEMBLY_OUTLINES_TOP
100
AcDbPolyline
 90
        4
 70
         1
 43
0.1
 10
113.15
 20
87.85
 10
113.15
 20
89.15
 10
116.05
 20
89.15
 10
116.05
 20
87.85
  0
LWPOLYLINE
  5
E3
100
AcDbEntity
  8
ASSEMBLY_OUTLINES_TOP
100
AcDbPolyline
 90
        4
 70
         1
 10
105.83
 20
112.43
 10
105.83
 20
117.51
 10
108.37
 20
117.51
 10
108.37
 20
112.43
  0
LWPOLYLINE
  5
E4
100
AcDbEntity
  8
ASSEMBLY_OUTLINES_TOP
100
AcDbPolyline
 90
        4
 70
         1
 43
0.1
 10
78.3
 20
71.65
 10
78.3
 20
72.95
 10
81.1
 20
72.95
 10
81.1
 20
71.65
  0
LWPOLYLINE
  5
E5
100
AcDbEntity
  8
ASSEMBLY_OUTLINES_TOP
100
AcDbPolyline
 90
        4
 70
         1
 43
0.1
 10
79.95
 20
57.4
 10
79.95
 20
60.2
 10
81.25
 20
60.2
 10
81.25
 20
57.4
  0
LWPOLYLINE
  5
E6
100
AcDbEntity
  8
ASSEMBLY_OUTLINES_TOP
100
AcDbPolyline
 90
        4
 70
         1
 10
82.63
 20
84.43
 10
82.63
 20
89.51
 10
85.17
 20
89.51
 10
85.17
 20
84.43
  0
LWPOLYLINE
  5
E7
100
AcDbEntity
  8
ASSEMBLY_OUTLINES_TOP
100
AcDbPolyline
 90
        4
 70
         1
 43
0.1
 10
109.4
 20
74.65
 10
109.4
 20
75.95
 10
112.2
 20
75.95
 10
112.2
 20
74.65
  0
LWPOLYLINE
  5
E8
100
AcDbEntity
  8
ASSEMBLY_OUTLINES_TOP
100
AcDbPolyline
 90
        4
 70
         1
 10
105.83
 20
107.29
 10
105.83
 20
112.37
 10
108.37
 20
112.37
 10
108.37
 20
107.29
  0
LWPOLYLINE
  5
E9
100
AcDbEntity
  8
ASSEMBLY_OUTLINES_TOP
100
AcDbPolyline
 90
        4
 70
         1
 43
0.1
 10
97.35
 20
21.15
 10
97.35
 20
24.05
 10
98.65
 20
24.05
 10
98.65
 20
21.15
  0
LWPOLYLINE
  5
EA
100
AcDbEntity
  8
ASSEMBLY_OUTLINES_TOP
100
AcDbPolyline
 90
        4
 70
         1
 43
0.1
 10
77.25
 20
10.25
 10
77.25
 20
11.55
 10
80.15
 20
11.55
 10
80.15
 20
10.25
  0
LWPOLYLINE
  5
EB
100
AcDbEntity
  8
ASSEMBLY_OUTLINES_TOP
100
AcDbPolyline
 90
        4
 70
         1
 43
0.1
 10
77.15
 20
13.35
 10
77.15
 20
14.65
 10
80.05
 20
14.65
 10
80.05
 20
13.35
  0
LWPOLYLINE
  5
EC
100
AcDbEntity
  8
ASSEMBLY_OUTLINES_TOP
100
AcDbPolyline
 90
        4
 70
         1
 43
0.1
 10
93.0
 20
13.75
 10
93.0
 20
15.05
 10
95.8
 20
15.05
 10
95.8
 20
13.75
  0
LWPOLYLINE
  5
ED
100
AcDbEntity
  8
ASSEMBLY_OUTLINES_TOP
100
AcDbPolyline
 90
        4
 70
         1
 43
0.1
 10
74.75
 20
62.8
 10
74.75
 20
65.6
 10
76.05
 20
65.6
 10
76.05
 20
62.8
  0
LWPOLYLINE
  5
EE
100
AcDbEntity
  8
ASSEMBLY_OUTLINES_TOP
100
AcDbPolyline
 90
        4
 70
         1
 43
0.1
 10
77.75
 20
54.65
 10
77.75
 20
57.55
 10
79.05
 20
57.55
 10
79.05
 20
54.65
  0
LWPOLYLINE
  5
EF
100
AcDbEntity
  8
ASSEMBLY_OUTLINES_TOP
100
AcDbPolyline
 90
        4
 70
         1
 43
0.1
 10
115.95
 20
84.7
 10
115.95
 20
87.5
 10
117.25
 20
87.5
 10
117.25
 20
84.7
  0
LWPOLYLINE
  5
F0
100
AcDbEntity
  8
ASSEMBLY_OUTLINES_TOP
100
AcDbPolyline
 90
        4
 70
         1
 43
0.1
 10
109.4
 20
76.25
 10
109.4
 20
77.55
 10
112.2
 20
77.55
 10
112.2
 20
76.25
  0
LWPOLYLINE
  5
F1
100
AcDbEntity
  8
ASSEMBLY_OUTLINES_TOP
100
AcDbPolyline
 90
        4
 70
         1
 43
0.1
 10
113.95
 20
31.15
 10
113.95
 20
34.05
 10
115.25
 20
34.05
 10
115.25
 20
31.15
  0
LWPOLYLINE
  5
F2
100
AcDbEntity
  8
ASSEMBLY_OUTLINES_TOP
100
AcDbPolyline
 90
        4
 70
         1
 43
0.1
 10
107.45
 20
16.5
 10
107.45
 20
19.3
 10
108.75
 20
19.3
 10
108.75
 20
16.5
  0
LWPOLYLINE
  5
F3
100
AcDbEntity
  8
ASSEMBLY_OUTLINES_TOP
100
AcDbPolyline
 90
        4
 70
         1
 43
0.1
 10
92.55
 20
82.4
 10
92.55
 20
85.2
 10
93.85
 20
85.2
 10
93.85
 20
82.4
  0
LWPOLYLINE
  5
F4
100
AcDbEntity
  8
ASSEMBLY_OUTLINES_TOP
100
AcDbPolyline
 90
        4
 70
         1
 43
0.1
 10
104.45
 20
6.85
 10
104.45
 20
9.75
 10
105.75
 20
9.75
 10
105.75
 20
6.85
  0
LWPOLYLINE
  5
F5
100
AcDbEntity
  8
ASSEMBLY_OUTLINES_TOP
100
AcDbPolyline
 90
        4
 70
         1
 43
0.1
 10
86.15
 20
30.5
 10
86.15
 20
33.3
 10
87.45
 20
33.3
 10
87.45
 20
30.5
  0
LWPOLYLINE
  5
F6
100
AcDbEntity
  8
ASSEMBLY_OUTLINES_TOP
100
AcDbPolyline
 90
        4
 70
         1
 43
0.1
 10
102.45
 20
87.85
 10
102.45
 20
90.75
 10
103.75
 20
90.75
 10
103.75
 20
87.85
  0
LWPOLYLINE
  5
F7
100
AcDbEntity
  8
ASSEMBLY_OUTLINES_TOP
100
AcDbPolyline
 90
        4
 70
         1
 43
0.1
 10
74.75
 20
66.0
 10
74.75
 20
68.8
 10
76.05
 20
68.8
 10
76.05
 20
66.0
  0
LWPOLYLINE
  5
F8
100
AcDbEntity
  8
ASSEMBLY_OUTLINES_TOP
100
AcDbPolyline
 90
        4
 70
         1
 10
66.4
 20
100.85
 10
66.4
 20
104.95
 10
106.4
 20
104.95
 10
106.4
 20
100.85
  0
LWPOLYLINE
  5
F9
100
AcDbEntity
  8
ASSEMBLY_OUTLINES_TOP
100
AcDbPolyline
 90
        4
 70
         1
 43
0.1
 10
101.55
 20
28.1
 10
101.55
 20
30.9
 10
102.85
 20
30.9
 10
102.85
 20
28.1
  0
LWPOLYLINE
  5
FA
100
AcDbEntity
  8
ASSEMBLY_OUTLINES_TOP
100
AcDbPolyline
 90
        4
 70
         1
 43
0.1
 10
88.6
 20
3.6
 10
88.6
 20
7.4
 10
94.2
 20
7.4
 10
94.2
 20
3.6
  0
LWPOLYLINE
  5
FB
100
AcDbEntity
  8
ASSEMBLY_OUTLINES_TOP
100
AcDbPolyline
 90
        2
 70
         0
 43
0.1
 10
94.1
 20
7.4
 10
94.1
 20
3.6
  0
LWPOLYLINE
  5
FC
100
AcDbEntity
  8
ASSEMBLY_OUTLINES_TOP
100
AcDbPolyline
 90
        2
 70
         0
 43
0.1
 10
94.0
 20
7.4
 10
94.0
 20
3.6
  0
LWPOLYLINE
  5
FD
100
AcDbEntity
  8
ASSEMBLY_OUTLINES_TOP
100
AcDbPolyline
 90
        2
 70
         0
 43
0.1
 10
93.9
 20
7.4
 10
93.9
 20
3.6
  0
LWPOLYLINE
  5
FE
100
AcDbEntity
  8
ASSEMBLY_OUTLINES_TOP
100
AcDbPolyline
 90
        2
 70
         0
 43
0.1
 10
93.8
 20
7.4
 10
93.8
 20
3.6
  0
LWPOLYLINE
  5
FF
100
AcDbEntity
  8
ASSEMBLY_OUTLINES_TOP
100
AcDbPolyline
 90
        2
 70
         0
 43
0.1
 10
93.7
 20
7.4
 10
93.7
 20
3.6
  0
LWPOLYLINE
  5
100
100
AcDbEntity
  8
ASSEMBLY_OUTLINES_TOP
100
AcDbPolyline
 90
        2
 70
         0
 43
0.1
 10
93.6
 20
7.4
 10
93.6
 20
3.6
  0
LWPOLYLINE
  5
101
100
AcDbEntity
  8
ASSEMBLY_OUTLINES_TOP
100
AcDbPolyline
 90
        2
 70
         0
 43
0.1
 10
93.5
 20
7.4
 10
93.5
 20
3.6
  0
LWPOLYLINE
  5
102
100
AcDbEntity
  8
ASSEMBLY_OUTLINES_TOP
100
AcDbPolyline
 90
        2
 70
         0
 43
0.1
 10
93.4
 20
7.4
 10
93.4
 20
3.6
  0
LWPOLYLINE
  5
103
100
AcDbEntity
  8
ASSEMBLY_OUTLINES_TOP
100
AcDbPolyline
 90
        4
 70
         1
 43
0.1
 10
113.15
 20
89.85
 10
113.15
 20
91.15
 10
116.05
 20
91.15
 10
116.05
 20
89.85
  0
LWPOLYLINE
  5
104
100
AcDbEntity
  8
ASSEMBLY_OUTLINES_TOP
100
AcDbPolyline
 90
        4
 70
         1
 43
0.1
 10
103.95
 20
92.05
 10
103.95
 20
94.95
 10
105.25
 20
94.95
 10
105.25
 20
92.05
  0
LWPOLYLINE
  5
105
100
AcDbEntity
  8
ASSEMBLY_OUTLINES_TOP
100
AcDbPolyline
 90
        4
 70
         1
 10
119.100004
 20
106.1
 10
119.100004
 20
115.1
 10
133.600004
 20
115.1
 10
133.600004
 20
106.1
  0
LWPOLYLINE
  5
106
100
AcDbEntity
  8
ASSEMBLY_OUTLINES_TOP
100
AcDbPolyline
 90
        4
 70
         1
 43
0.1
 10
90.05
 20
88.3
 10
90.05
 20
91.1
 10
91.35
 20
91.1
 10
91.35
 20
88.3
  0
LWPOLYLINE
  5
107
100
AcDbEntity
  8
ASSEMBLY_OUTLINES_TOP
100
AcDbPolyline
 90
        4
 70
         1
 43
0.1
 10
97.65
 20
51.0
 10
97.65
 20
53.8
 10
98.95
 20
53.8
 10
98.95
 20
51.0
  0
LWPOLYLINE
  5
108
100
AcDbEntity
  8
ASSEMBLY_OUTLINES_TOP
100
AcDbPolyline
 90
        4
 70
         1
 43
0.1
 10
109.535
 20
98.198
 10
109.535
 20
104.418
 10
116.265
 20
104.418
 10
116.265
 20
98.198
  0
LWPOLYLINE
  5
109
100
AcDbEntity
  8
ASSEMBLY_OUTLINES_TOP
100
AcDbPolyline
 90
        4
 70
         1
 43
0.1
 10
71.65
 20
73.55
 10
71.65
 20
76.45
 10
72.95
 20
76.45
 10
72.95
 20
73.55
  0
LWPOLYLINE
  5
10A
100
AcDbEntity
  8
ASSEMBLY_OUTLINES_TOP
100
AcDbPolyline
 90
        4
 70
         1
 43
0.1
 10
77.15
 20
11.85
 10
77.15
 20
13.15
 10
80.05
 20
13.15
 10
80.05
 20
11.85
  0
LWPOLYLINE
  5
10B
100
AcDbEntity
  8
ASSEMBLY_OUTLINES_TOP
100
AcDbPolyline
 90
        4
 70
         1
 43
0.1
 10
72.9
 20
86.9
 10
72.9
 20
89.9
 10
74.3
 20
89.9
 10
74.3
 20
86.9
  0
LWPOLYLINE
  5
10C
100
AcDbEntity
  8
ASSEMBLY_OUTLINES_TOP
100
AcDbPolyline
 90
        2
 70
         0
 43
0.1
 10
72.9
 20
89.8
 10
73.0
 20
89.9
  0
LWPOLYLINE
  5
10D
100
AcDbEntity
  8
ASSEMBLY_OUTLINES_TOP
100
AcDbPolyline
 90
        2
 70
         0
 43
0.1
 10
72.9
 20
89.7
 10
73.1
 20
89.9
  0
LWPOLYLINE
  5
10E
100
AcDbEntity
  8
ASSEMBLY_OUTLINES_TOP
100
AcDbPolyline
 90
        2
 70
         0
 43
0.1
 10
72.9
 20
89.6
 10
73.2
 20
89.9
  0
LWPOLYLINE
  5
10F
100
AcDbEntity
  8
ASSEMBLY_OUTLINES_TOP
100
AcDbPolyline
 90
        2
 70
         0
 43
0.1
 10
72.9
 20
89.5
 10
73.3
 20
89.9
  0
LWPOLYLINE
  5
110
100
AcDbEntity
  8
ASSEMBLY_OUTLINES_TOP
100
AcDbPolyline
 90
        2
 70
         0
 43
0.1
 10
72.9
 20
89.4
 10
73.4
 20
89.9
  0
LWPOLYLINE
  5
111
100
AcDbEntity
  8
ASSEMBLY_OUTLINES_TOP
100
AcDbPolyline
 90
        2
 70
         0
 43
0.1
 10
72.9
 20
89.3
 10
73.5
 20
89.9
  0
LWPOLYLINE
  5
112
100
AcDbEntity
  8
ASSEMBLY_OUTLINES_TOP
100
AcDbPolyline
 90
        4
 70
         1
 43
0.1
 10
79.45
 20
88.15
 10
79.45
 20
91.05
 10
80.75
 20
91.05
 10
80.75
 20
88.15
  0
LWPOLYLINE
  5
113
100
AcDbEntity
  8
ASSEMBLY_OUTLINES_TOP
100
AcDbPolyline
 90
        4
 70
         1
 43
0.1
 10
101.5
 20
5.25
 10
101.5
 20
6.55
 10
104.3
 20
6.55
 10
104.3
 20
5.25
  0
LWPOLYLINE
  5
114
100
AcDbEntity
  8
ASSEMBLY_OUTLINES_TOP
100
AcDbPolyline
 90
        4
 70
         1
 43
0.1
 10
89.37
 20
25.95
 10
89.37
 20
48.25
 10
99.63
 20
48.25
 10
99.63
 20
25.95
  0
LWPOLYLINE
  5
115
100
AcDbEntity
  8
ASSEMBLY_OUTLINES_TOP
100
AcDbPolyline
 90
        2
 70
         1
 43
0.1
 10
98.13
 20
26.95
 42
-1.0
 10
99.13
 20
26.95
 42
-1.0
  0
LWPOLYLINE
  5
116
100
AcDbEntity
  8
ASSEMBLY_OUTLINES_TOP
100
AcDbPolyline
 90
        4
 70
         1
 43
0.1
 10
77.15
 20
14.85
 10
77.15
 20
16.15
 10
80.05
 20
16.15
 10
80.05
 20
14.85
  0
LWPOLYLINE
  5
117
100
AcDbEntity
  8
ASSEMBLY_OUTLINES_TOP
100
AcDbPolyline
 90
        4
 70
         1
 43
0.1
 10
102.45
 20
13.15
 10
102.45
 20
16.05
 10
103.75
 20
16.05
 10
103.75
 20
13.15
  0
LWPOLYLINE
  5
118
100
AcDbEntity
  8
ASSEMBLY_OUTLINES_TOP
100
AcDbPolyline
 90
        4
 70
         1
 43
0.1
 10
103.15
 20
18.95
 10
103.15
 20
21.85
 10
104.45
 20
21.85
 10
104.45
 20
18.95
  0
LWPOLYLINE
  5
119
100
AcDbEntity
  8
ASSEMBLY_OUTLINES_TOP
100
AcDbPolyline
 90
        4
 70
         1
 43
0.1
 10
101.05
 20
87.85
 10
101.05
 20
90.75
 10
102.35
 20
90.75
 10
102.35
 20
87.85
  0
LWPOLYLINE
  5
11A
100
AcDbEntity
  8
ASSEMBLY_OUTLINES_TOP
100
AcDbPolyline
 90
        4
 70
         1
 10
85.1
 20
8.3
 10
85.1
 20
11.7
 10
87.1
 20
11.7
 10
87.1
 20
8.3
  0
LWPOLYLINE
  5
11B
100
AcDbEntity
  8
ASSEMBLY_OUTLINES_TOP
100
AcDbPolyline
 90
        4
 70
         1
 43
0.1
 10
80.95
 20
88.95
 10
80.95
 20
91.85
 10
82.25
 20
91.85
 10
82.25
 20
88.95
  0
LWPOLYLINE
  5
11C
100
AcDbEntity
  8
ASSEMBLY_OUTLINES_TOP
100
AcDbPolyline
 90
        4
 70
         1
 10
119.848995
 20
80.851663
 10
119.848995
 20
94.251663
 10
131.948995
 20
94.251663
 10
131.948995
 20
80.851663
  0
LWPOLYLINE
  5
11D
100
AcDbEntity
  8
ASSEMBLY_OUTLINES_TOP
100
AcDbPolyline
 90
        4
 70
         1
 10
131.948995
 20
81.551663
 10
131.948995
 20
92.551663
 10
138.948995
 20
92.551663
 10
138.948995
 20
81.551663
  0
LWPOLYLINE
  5
11E
100
AcDbEntity
  8
ASSEMBLY_OUTLINES_TOP
100
AcDbPolyline
 90
        4
 70
         1
 43
0.1
 10
76.05
 20
55.15
 10
76.05
 20
58.05
 10
77.35
 20
58.05
 10
77.35
 20
55.15
  0
LWPOLYLINE
  5
11F
100
AcDbEntity
  8
ASSEMBLY_OUTLINES_TOP
100
AcDbPolyline
 90
        4
 70
         1
 43
0.1
 10
107.45
 20
12.65
 10
107.45
 20
15.55
 10
108.75
 20
15.55
 10
108.75
 20
12.65
  0
LWPOLYLINE
  5
120
100
AcDbEntity
  8
ASSEMBLY_OUTLINES_TOP
100
AcDbPolyline
 90
        4
 70
         1
 43
0.1
 10
102.95
 20
7.65
 10
102.95
 20
10.55
 10
104.25
 20
10.55
 10
104.25
 20
7.65
  0
LWPOLYLINE
  5
121
100
AcDbEntity
  8
ASSEMBLY_OUTLINES_TOP
100
AcDbPolyline
 90
        4
 70
         1
 43
0.1
 10
103.95
 20
13.15
 10
103.95
 20
16.05
 10
105.25
 20
16.05
 10
105.25
 20
13.15
  0
LWPOLYLINE
  5
122
100
AcDbEntity
  8
ASSEMBLY_OUTLINES_TOP
100
AcDbPolyline
 90
        4
 70
         1
 43
0.1
 10
81.275
 20
9.025
 10
81.275
 20
10.775
 10
84.325
 20
10.775
 10
84.325
 20
9.025
  0
LWPOLYLINE
  5
123
100
AcDbEntity
  8
ASSEMBLY_OUTLINES_TOP
100
AcDbPolyline
 90
        2
 70
         0
 43
0.1
 10
84.225
 20
10.775
 10
84.325
 20
10.675
  0
LWPOLYLINE
  5
124
100
AcDbEntity
  8
ASSEMBLY_OUTLINES_TOP
100
AcDbPolyline
 90
        2
 70
         0
 43
0.1
 10
84.125
 20
10.775
 10
84.325
 20
10.575
  0
LWPOLYLINE
  5
125
100
AcDbEntity
  8
ASSEMBLY_OUTLINES_TOP
100
AcDbPolyline
 90
        2
 70
         0
 43
0.1
 10
84.025
 20
10.775
 10
84.325
 20
10.475
  0
LWPOLYLINE
  5
126
100
AcDbEntity
  8
ASSEMBLY_OUTLINES_TOP
100
AcDbPolyline
 90
        2
 70
         0
 43
0.1
 10
83.925
 20
10.775
 10
84.325
 20
10.375
  0
LWPOLYLINE
  5
127
100
AcDbEntity
  8
ASSEMBLY_OUTLINES_TOP
100
AcDbPolyline
 90
        2
 70
         0
 43
0.1
 10
83.825
 20
10.775
 10
84.325
 20
10.275
  0
LWPOLYLINE
  5
128
100
AcDbEntity
  8
ASSEMBLY_OUTLINES_TOP
100
AcDbPolyline
 90
        2
 70
         0
 43
0.1
 10
83.725
 20
10.775
 10
84.325
 20
10.175
  0
LWPOLYLINE
  5
129
100
AcDbEntity
  8
ASSEMBLY_OUTLINES_TOP
100
AcDbPolyline
 90
        4
 70
         1
 10
106.75
 20
29.3
 10
106.75
 20
34.3
 10
113.05
 20
34.3
 10
113.05
 20
29.3
  0
LWPOLYLINE
  5
12A
100
AcDbEntity
  8
ASSEMBLY_OUTLINES_TOP
100
AcDbPolyline
 90
        4
 70
         1
 43
0.1
 10
85.25
 20
84.45
 10
85.25
 20
87.35
 10
86.55
 20
87.35
 10
86.55
 20
84.45
  0
LWPOLYLINE
  5
12B
100
AcDbEntity
  8
ASSEMBLY_OUTLINES_TOP
100
AcDbPolyline
 90
        4
 70
         1
 43
0.1
 10
110.15
 20
38.65
 10
110.15
 20
41.55
 10
111.45
 20
41.55
 10
111.45
 20
38.65
  0
LWPOLYLINE
  5
12C
100
AcDbEntity
  8
ASSEMBLY_OUTLINES_TOP
100
AcDbPolyline
 90
        4
 70
         1
 43
0.1
 10
73.15
 20
75.2
 10
73.15
 20
78.0
 10
74.45
 20
78.0
 10
74.45
 20
75.2
  0
LWPOLYLINE
  5
12D
100
AcDbEntity
  8
ASSEMBLY_OUTLINES_TOP
100
AcDbPolyline
 90
        4
 70
         1
 43
0.1
 10
91.4
 20
8.7
 10
91.4
 20
10.1
 10
94.4
 20
10.1
 10
94.4
 20
8.7
  0
LWPOLYLINE
  5
12E
100
AcDbEntity
  8
ASSEMBLY_OUTLINES_TOP
100
AcDbPolyline
 90
        2
 70
         0
 43
0.1
 10
94.3
 20
10.1
 10
94.4
 20
10.0
  0
LWPOLYLINE
  5
12F
100
AcDbEntity
  8
ASSEMBLY_OUTLINES_TOP
100
AcDbPolyline
 90
        2
 70
         0
 43
0.1
 10
94.2
 20
10.1
 10
94.4
 20
9.9
  0
LWPOLYLINE
  5
130
100
AcDbEntity
  8
ASSEMBLY_OUTLINES_TOP
100
AcDbPolyline
 90
        2
 70
         0
 43
0.1
 10
94.1
 20
10.1
 10
94.4
 20
9.8
  0
LWPOLYLINE
  5
131
100
AcDbEntity
  8
ASSEMBLY_OUTLINES_TOP
100
AcDbPolyline
 90
        2
 70
         0
 43
0.1
 10
94.0
 20
10.1
 10
94.4
 20
9.7
  0
LWPOLYLINE
  5
132
100
AcDbEntity
  8
ASSEMBLY_OUTLINES_TOP
100
AcDbPolyline
 90
        2
 70
         0
 43
0.1
 10
93.9
 20
10.1
 10
94.4
 20
9.6
  0
LWPOLYLINE
  5
133
100
AcDbEntity
  8
ASSEMBLY_OUTLINES_TOP
100
AcDbPolyline
 90
        2
 70
         0
 43
0.1
 10
93.8
 20
10.1
 10
94.4
 20
9.5
  0
LWPOLYLINE
  5
134
100
AcDbEntity
  8
ASSEMBLY_OUTLINES_TOP
100
AcDbPolyline
 90
        4
 70
         1
 43
0.1
 10
106.8
 20
10.05
 10
106.8
 20
11.35
 10
109.6
 20
11.35
 10
109.6
 20
10.05
  0
LWPOLYLINE
  5
135
100
AcDbEntity
  8
ASSEMBLY_OUTLINES_TOP
100
AcDbPolyline
 90
        4
 70
         1
 43
0.1
 10
109.25
 20
91.45
 10
109.25
 20
92.75
 10
112.15
 20
92.75
 10
112.15
 20
91.45
  0
LWPOLYLINE
  5
136
100
AcDbEntity
  8
ASSEMBLY_OUTLINES_TOP
100
AcDbPolyline
 90
        4
 70
         1
 43
0.1
 10
69.95
 20
91.55
 10
69.95
 20
94.45
 10
71.25
 20
94.45
 10
71.25
 20
91.55
  0
LWPOLYLINE
  5
137
100
AcDbEntity
  8
ASSEMBLY_OUTLINES_TOP
100
AcDbPolyline
 90
        4
 70
         1
 43
0.1
 10
95.7
 20
15.5
 10
95.7
 20
19.5
 10
99.7
 20
19.5
 10
99.7
 20
15.5
  0
LWPOLYLINE
  5
138
100
AcDbEntity
  8
ASSEMBLY_OUTLINES_TOP
100
AcDbPolyline
 90
        2
 70
         0
 43
0.1
 10
99.6
 20
15.5
 10
99.7
 20
15.6
  0
LWPOLYLINE
  5
139
100
AcDbEntity
  8
ASSEMBLY_OUTLINES_TOP
100
AcDbPolyline
 90
        2
 70
         0
 43
0.1
 10
99.5
 20
15.5
 10
99.7
 20
15.7
  0
LWPOLYLINE
  5
13A
100
AcDbEntity
  8
ASSEMBLY_OUTLINES_TOP
100
AcDbPolyline
 90
        2
 70
         0
 43
0.1
 10
99.4
 20
15.5
 10
99.7
 20
15.8
  0
LWPOLYLINE
  5
13B
100
AcDbEntity
  8
ASSEMBLY_OUTLINES_TOP
100
AcDbPolyline
 90
        2
 70
         0
 43
0.1
 10
99.3
 20
15.5
 10
99.7
 20
15.9
  0
LWPOLYLINE
  5
13C
100
AcDbEntity
  8
ASSEMBLY_OUTLINES_TOP
100
AcDbPolyline
 90
        2
 70
         0
 43
0.1
 10
99.2
 20
15.5
 10
99.7
 20
16.0
  0
LWPOLYLINE
  5
13D
100
AcDbEntity
  8
ASSEMBLY_OUTLINES_TOP
100
AcDbPolyline
 90
        2
 70
         0
 43
0.1
 10
99.1
 20
15.5
 10
99.7
 20
16.1
  0
LWPOLYLINE
  5
13E
100
AcDbEntity
  8
ASSEMBLY_OUTLINES_TOP
100
AcDbPolyline
 90
        2
 70
         0
 43
0.1
 10
99.0
 20
15.5
 10
99.7
 20
16.2
  0
LWPOLYLINE
  5
13F
100
AcDbEntity
  8
ASSEMBLY_OUTLINES_TOP
100
AcDbPolyline
 90
        2
 70
         0
 43
0.1
 10
98.9
 20
15.5
 10
99.7
 20
16.3
  0
LWPOLYLINE
  5
140
100
AcDbEntity
  8
ASSEMBLY_OUTLINES_TOP
100
AcDbPolyline
 90
        2
 70
         0
 43
0.1
 10
98.8
 20
15.5
 10
99.7
 20
16.4
  0
LWPOLYLINE
  5
141
100
AcDbEntity
  8
ASSEMBLY_OUTLINES_TOP
100
AcDbPolyline
 90
        2
 70
         0
 43
0.1
 10
98.7
 20
15.5
 10
99.7
 20
16.5
  0
LWPOLYLINE
  5
142
100
AcDbEntity
  8
ASSEMBLY_OUTLINES_TOP
100
AcDbPolyline
 90
        4
 70
         1
 43
0.1
 10
100.95
 20
16.3
 10
100.95
 20
19.1
 10
102.25
 20
19.1
 10
102.25
 20
16.3
  0
LWPOLYLINE
  5
143
100
AcDbEntity
  8
ASSEMBLY_OUTLINES_TOP
100
AcDbPolyline
 90
        4
 70
         1
 43
0.1
 10
114.15
 20
81.85
 10
114.15
 20
83.15
 10
117.05
 20
83.15
 10
117.05
 20
81.85
  0
LWPOLYLINE
  5
144
100
AcDbEntity
  8
ASSEMBLY_OUTLINES_TOP
100
AcDbPolyline
 90
        4
 70
         1
 43
0.1
 10
102.45
 20
51.0
 10
102.45
 20
53.8
 10
103.75
 20
53.8
 10
103.75
 20
51.0
  0
LWPOLYLINE
  5
145
100
AcDbEntity
  8
ASSEMBLY_OUTLINES_TOP
100
AcDbPolyline
 90
        4
 70
         1
 43
0.1
 10
105.95
 20
11.85
 10
105.95
 20
14.75
 10
107.25
 20
14.75
 10
107.25
 20
11.85
  0
LWPOLYLINE
  5
146
100
AcDbEntity
  8
ASSEMBLY_OUTLINES_TOP
100
AcDbPolyline
 90
        4
 70
         1
 43
0.1
 10
93.1
 20
87.3
 10
93.1
 20
92.3
 10
97.1
 20
92.3
 10
97.1
 20
87.3
  0
LWPOLYLINE
  5
147
100
AcDbEntity
  8
ASSEMBLY_OUTLINES_TOP
100
AcDbPolyline
 90
        2
 70
         1
 43
0.1
 10
93.6
 20
91.3
 42
-1.0
 10
94.6
 20
91.3
 42
-1.0
  0
LWPOLYLINE
  5
148
100
AcDbEntity
  8
ASSEMBLY_OUTLINES_TOP
100
AcDbPolyline
 90
        4
 70
         1
 43
0.1
 10
77.35
 20
7.15
 10
77.35
 20
8.45
 10
80.25
 20
8.45
 10
80.25
 20
7.15
  0
TEXT
  5
14A
100
AcDbEntity
  8
ASSEMBLY_REF_DES_TOP
100
AcDbText
 10
101.648275
 20
35.167775
 30
0.0
 40
1.0
  1
C27
 50
270.0
  7
GOST_TYPE_B
 72
         1
 11
102.141775
 21
34.141775
 31
0.0
100
AcDbText
 73
         2
  0
TEXT
  5
14B
100
AcDbEntity
  8
ASSEMBLY_REF_DES_TOP
100
AcDbText
 10
126.8281
 20
102.9106
 30
0.0
 40
1.0
  1
R43
 50
90.0
  7
GOST_TYPE_B
 72
         1
 11
126.3346
 21
104.0346
 31
0.0
100
AcDbText
 73
         2
  0
TEXT
  5
14C
100
AcDbEntity
  8
ASSEMBLY_REF_DES_TOP
100
AcDbText
 10
104.8065
 20
20.077
 30
0.0
 40
1.0
  1
R31
 50
270.0
  7
GOST_TYPE_B
 72
         1
 11
105.3
 21
19.1
 31
0.0
100
AcDbText
 73
         2
  0
TEXT
  5
14D
100
AcDbEntity
  8
ASSEMBLY_REF_DES_TOP
100
AcDbText
 10
93.05455
 20
53.0496
 30
0.0
 40
0.7
  1
C19
 50
270.0
  7
GOST_TYPE_B
 72
         1
 11
93.4
 21
52.4
 31
0.0
100
AcDbText
 73
         2
  0
TEXT
  5
14E
100
AcDbEntity
  8
ASSEMBLY_REF_DES_TOP
100
AcDbText
 10
123.2065
 20
33.57
 30
0.0
 40
1.0
  1
Bat1
 50
270.0
  7
GOST_TYPE_B
 72
         1
 11
123.7
 21
32.3
 31
0.0
100
AcDbText
 73
         2
  0
TEXT
  5
14F
100
AcDbEntity
  8
ASSEMBLY_REF_DES_TOP
100
AcDbText
 10
120.314
 20
96.25325
 30
0.0
 40
0.5
  1
VD5
  7
GOST_TYPE_B
 72
         1
 11
120.9
 21
96.5
 31
0.0
100
AcDbText
 73
         2
  0
TEXT
  5
150
100
AcDbEntity
  8
ASSEMBLY_REF_DES_TOP
100
AcDbText
 10
76.816
 20
78.4065
 30
0.0
 40
1.0
  1
C9
  7
GOST_TYPE_B
 72
         1
 11
77.5
 21
78.9
 31
0.0
100
AcDbText
 73
         2
  0
TEXT
  5
151
100
AcDbEntity
  8
ASSEMBLY_REF_DES_TOP
100
AcDbText
 10
76.98725
 20
53.05455
 30
0.0
 40
0.7
  1
C8
  7
GOST_TYPE_B
 72
         1
 11
77.5
 21
53.4
 31
0.0
100
AcDbText
 73
         2
  0
TEXT
  5
152
100
AcDbEntity
  8
ASSEMBLY_REF_DES_TOP
100
AcDbText
 10
118.016775
 20
72.364725
 30
0.0
 40
1.0
  1
R41
  7
GOST_TYPE_B
 72
         1
 11
119.041775
 21
72.858225
 31
0.0
100
AcDbText
 73
         2
  0
TEXT
  5
154
100
AcDbEntity
  8
ASSEMBLY_REF_DES_TOP
100
AcDbText
 10
81.8725
 20
6.3115
 30
0.0
 40
1.0
  1
C12
  7
GOST_D
 72
         1
 11
82.8
 21
6.8
 31
0.0
100
AcDbText
 73
         2
  0
TEXT
  5
155
100
AcDbEntity
  8
ASSEMBLY_REF_DES_TOP
100
AcDbText
 10
74.5115
 20
9.183
 30
0.0
 40
1.0
  1
C2
 50
270.0
  7
GOST_D
 72
         1
 11
75.0
 21
8.5
 31
0.0
100
AcDbText
 73
         2
  0
TEXT
  5
156
100
AcDbEntity
  8
ASSEMBLY_REF_DES_TOP
100
AcDbText
 10
97.8065
 20
84.826
 30
0.0
 40
1.0
  1
C22
 50
270.0
  7
GOST_TYPE_B
 72
         1
 11
98.3
 21
83.8
 31
0.0
100
AcDbText
 73
         2
  0
TEXT
  5
157
100
AcDbEntity
  8
ASSEMBLY_REF_DES_TOP
100
AcDbText
 10
107.6065
 20
96.526
 30
0.0
 40
1.0
  1
C32
 50
270.0
  7
GOST_TYPE_B
 72
         1
 11
108.1
 21
95.5
 31
0.0
100
AcDbText
 73
         2
  0
TEXT
  5
158
100
AcDbEntity
  8
ASSEMBLY_REF_DES_TOP
100
AcDbText
 10
114.1065
 20
93.224
 30
0.0
 40
1.0
  1
R38
 50
270.0
  7
GOST_TYPE_B
 72
         1
 11
114.6
 21
92.1
 31
0.0
100
AcDbText
 73
         2
  0
TEXT
  5
159
100
AcDbEntity
  8
ASSEMBLY_REF_DES_TOP
100
AcDbText
 10
86.364725
 20
37.386225
 30
0.0
 40
1.0
  1
C15
 50
270.0
  7
GOST_TYPE_B
 72
         1
 11
86.858225
 21
36.458225
 31
0.0
100
AcDbText
 73
         2
  0
TEXT
  5
15A
100
AcDbEntity
  8
ASSEMBLY_REF_DES_TOP
100
AcDbText
 10
101.1065
 20
15.577
 30
0.0
 40
1.0
  1
R21
 50
270.0
  7
GOST_TYPE_B
 72
         1
 11
101.6
 21
14.6
 31
0.0
100
AcDbText
 73
         2
  0
TEXT
  5
15B
100
AcDbEntity
  8
ASSEMBLY_REF_DES_TOP
100
AcDbText
 10
85.372
 20
52.4065
 30
0.0
 40
1.0
  1
C16
  7
GOST_TYPE_B
 72
         1
 11
86.3
 21
52.9
 31
0.0
100
AcDbText
 73
         2
  0
TEXT
  5
15C
100
AcDbEntity
  8
ASSEMBLY_REF_DES_TOP
100
AcDbText
 10
87.987
 20
113.1
 30
0.0
 40
1.0
  1
X3
  7
GOST_TYPE_B
 72
         2
 11
89.55
 21
113.1
 31
0.0
100
AcDbText
 73
         1
  0
TEXT
  5
15D
100
AcDbEntity
  8
ASSEMBLY_REF_DES_TOP
100
AcDbText
 10
118.4255
 20
98.6065
 30
0.0
 40
1.0
  1
C38
  7
GOST_TYPE_B
 72
         1
 11
119.5
 21
99.1
 31
0.0
100
AcDbText
 73
         2
  0
TEXT
  5
15E
100
AcDbEntity
  8
ASSEMBLY_REF_DES_TOP
100
AcDbText
 10
95.6065
 20
23.626
 30
0.0
 40
1.0
  1
R18
 50
270.0
  7
GOST_TYPE_B
 72
         1
 11
96.1
 21
22.6
 31
0.0
100
AcDbText
 73
         2
  0
TEXT
  5
15F
100
AcDbEntity
  8
ASSEMBLY_REF_DES_TOP
100
AcDbText
 10
123.1626
 20
66.9719
 30
0.0
 40
1.0
  1
VD6
  7
GOST_TYPE_B
 72
         1
 11
124.3346
 21
67.4654
 31
0.0
100
AcDbText
 73
         2
  0
TEXT
  5
160
100
AcDbEntity
  8
ASSEMBLY_REF_DES_TOP
100
AcDbText
 10
83.678
 20
15.8
 30
0.0
 40
1.0
  1
L1
  7
GOST_D
 72
         2
 11
84.85
 21
15.8
 31
0.0
100
AcDbText
 73
         1
  0
TEXT
  5
161
100
AcDbEntity
  8
ASSEMBLY_REF_DES_TOP
100
AcDbText
 10
99.75455
 20
22.5182
 30
0.0
 40
0.7
  1
C23
 50
270.0
  7
GOST_TYPE_B
 72
         1
 11
100.1
 21
21.8
 31
0.0
100
AcDbText
 73
         2
  0
TEXT
  5
162
100
AcDbEntity
  8
ASSEMBLY_REF_DES_TOP
100
AcDbText
 10
109.85455
 20
69.6525
 30
0.0
 40
0.7
  1
C34
 50
270.0
  7
GOST_TYPE_B
 72
         1
 11
110.2
 21
68.9
 31
0.0
100
AcDbText
 73
         2
  0
TEXT
  5
163
100
AcDbEntity
  8
ASSEMBLY_REF_DES_TOP
100
AcDbText
 10
75.379825
 20
79.026377
 30
0.0
 40
1.0
  1
ZQ1
 50
90.0
  7
GOST_TYPE_B
 72
         2
 11
75.379825
 21
81.272377
 31
0.0
100
AcDbText
 73
         1
  0
TEXT
  5
164
100
AcDbEntity
  8
ASSEMBLY_REF_DES_TOP
100
AcDbText
 10
104.4065
 20
84.826
 30
0.0
 40
1.0
  1
C29
 50
270.0
  7
GOST_TYPE_B
 72
         1
 11
104.9
 21
83.8
 31
0.0
100
AcDbText
 73
         2
  0
TEXT
  5
165
100
AcDbEntity
  8
ASSEMBLY_REF_DES_TOP
100
AcDbText
 10
115.467275
 20
80.164725
 30
0.0
 40
1.0
  1
R39
  7
GOST_TYPE_B
 72
         1
 11
116.541775
 21
80.658225
 31
0.0
100
AcDbText
 73
         2
  0
TEXT
  5
166
100
AcDbEntity
  8
ASSEMBLY_REF_DES_TOP
100
AcDbText
 10
73.60455
 20
66.1631
 30
0.0
 40
0.7
  1
R5
 50
270.0
  7
GOST_TYPE_B
 72
         1
 11
73.95
 21
65.65
 31
0.0
100
AcDbText
 73
         2
  0
TEXT
  5
167
100
AcDbEntity
  8
ASSEMBLY_REF_DES_TOP
100
AcDbText
 10
73.248275
 20
74.374775
 30
0.0
 40
1.0
  1
C4
 50
270.0
  7
GOST_TYPE_B
 72
         1
 11
73.741775
 21
73.641775
 31
0.0
100
AcDbText
 73
         2
  0
TEXT
  5
168
100
AcDbEntity
  8
ASSEMBLY_REF_DES_TOP
100
AcDbText
 10
93.6235
 20
94.6065
 30
0.0
 40
1.0
  1
R17
  7
GOST_TYPE_B
 72
         1
 11
94.6
 21
95.1
 31
0.0
100
AcDbText
 73
         2
  0
TEXT
  5
169
100
AcDbEntity
  8
ASSEMBLY_REF_DES_TOP
100
AcDbText
 10
121.2065
 20
52.5005
 30
0.0
 40
1.0
  1
X4
 50
270.0
  7
GOST_TYPE_B
 72
         1
 11
121.7
 21
51.67
 31
0.0
100
AcDbText
 73
         2
  0
TEXT
  5
16A
100
AcDbEntity
  8
ASSEMBLY_REF_DES_TOP
100
AcDbText
 10
67.1115
 20
8.486
 30
0.0
 40
1.0
  1
C1
 50
270.0
  7
GOST_D
 72
         1
 11
67.6
 21
7.9
 31
0.0
100
AcDbText
 73
         2
  0
TEXT
  5
16B
100
AcDbEntity
  8
ASSEMBLY_REF_DES_TOP
100
AcDbText
 10
74.5115
 20
12.783
 30
0.0
 40
1.0
  1
C3
 50
270.0
  7
GOST_D
 72
         1
 11
75.0
 21
12.1
 31
0.0
100
AcDbText
 73
         2
  0
TEXT
  5
16C
100
AcDbEntity
  8
ASSEMBLY_REF_DES_TOP
100
AcDbText
 10
93.6235
 20
92.8065
 30
0.0
 40
1.0
  1
R16
  7
GOST_TYPE_B
 72
         1
 11
94.6
 21
93.3
 31
0.0
100
AcDbText
 73
         2
  0
TEXT
  5
16D
100
AcDbEntity
  8
ASSEMBLY_REF_DES_TOP
100
AcDbText
 10
108.2065
 20
8.985
 30
0.0
 40
1.0
  1
T1
 50
270.0
  7
GOST_TYPE_B
 72
         1
 11
108.7
 21
8.35
 31
0.0
100
AcDbText
 73
         2
  0
TEXT
  5
16E
100
AcDbEntity
  8
ASSEMBLY_REF_DES_TOP
100
AcDbText
 10
127.84985
 20
70.79985
 30
0.0
 40
1.0
  1
X7
 50
90.0
  7
VERIBEST_GERBER_0
 72
         2
 11
127.84985
 21
72.68985
 31
0.0
100
AcDbText
 73
         1
  0
TEXT
  5
16F
100
AcDbEntity
  8
ASSEMBLY_REF_DES_TOP
100
AcDbText
 10
70.20455
 20
88.8945
 30
0.0
 40
0.7
  1
R1
 50
270.0
  7
GOST_TYPE_B
 72
         1
 11
70.55
 21
88.45
 31
0.0
100
AcDbText
 73
         2
  0
TEXT
  5
170
100
AcDbEntity
  8
ASSEMBLY_REF_DES_TOP
100
AcDbText
 10
70.4675
 20
3.7115
 30
0.0
 40
1.0
  1
R3
  7
GOST_D
 72
         1
 11
71.2
 21
4.2
 31
0.0
100
AcDbText
 73
         2
  0
TEXT
  5
171
100
AcDbEntity
  8
ASSEMBLY_REF_DES_TOP
100
AcDbText
 10
88.325
 20
8.9115
 30
0.0
 40
1.0
  1
VD1
  7
GOST_D
 72
         1
 11
89.4
 21
9.4
 31
0.0
100
AcDbText
 73
         2
  0
TEXT
  5
172
100
AcDbEntity
  8
ASSEMBLY_REF_DES_TOP
100
AcDbText
 10
99.764725
 20
90.433225
 30
0.0
 40
1.0
  1
R20
 50
270.0
  7
GOST_TYPE_B
 72
         1
 11
100.258225
 21
89.358225
 31
0.0
100
AcDbText
 73
         2
  0
TEXT
  5
173
100
AcDbEntity
  8
ASSEMBLY_REF_DES_TOP
100
AcDbText
 10
96.0281
 20
66.9106
 30
0.0
 40
1.0
  1
DD3
 50
90.0
  7
GOST_TYPE_B
 72
         1
 11
95.5346
 21
68.0346
 31
0.0
100
AcDbText
 73
         2
  0
TEXT
  5
174
100
AcDbEntity
  8
ASSEMBLY_REF_DES_TOP
100
AcDbText
 10
119.499325
 20
77.300375
 30
0.0
 40
1.0
  1
R42
 50
270.0
  7
GOST_TYPE_B
 72
         1
 11
119.992825
 21
76.176375
 31
0.0
100
AcDbText
 73
         2
  0
TEXT
  5
175
100
AcDbEntity
  8
ASSEMBLY_REF_DES_TOP
100
AcDbText
 10
109.85455
 20
57.1182
 30
0.0
 40
0.7
  1
C33
 50
270.0
  7
GOST_TYPE_B
 72
         1
 11
110.2
 21
56.4
 31
0.0
100
AcDbText
 73
         2
  0
TEXT
  5
176
100
AcDbEntity
  8
ASSEMBLY_REF_DES_TOP
100
AcDbText
 10
113.148275
 20
43.779725
 30
0.0
 40
1.0
  1
VD4
 50
270.0
  7
GOST_TYPE_B
 72
         1
 11
113.641775
 21
42.558225
 31
0.0
100
AcDbText
 73
         2
  0
TEXT
  5
177
100
AcDbEntity
  8
ASSEMBLY_REF_DES_TOP
100
AcDbText
 10
79.362275
 20
67.659925
 30
0.0
 40
1.0
  1
ZQ2
 50
90.0
  7
VERIBEST_GERBER_0
 72
         1
 11
78.862275
 21
69.077425
 31
0.0
100
AcDbText
 73
         2
  0
TEXT
  5
178
100
AcDbEntity
  8
ASSEMBLY_REF_DES_TOP
100
AcDbText
 10
73.05455
 20
93.82075
 30
0.0
 40
0.7
  1
VT2
 50
270.0
  7
GOST_TYPE_B
 72
         1
 11
73.4
 21
93.0
 31
0.0
100
AcDbText
 73
         2
  0
TEXT
  5
179
100
AcDbEntity
  8
ASSEMBLY_REF_DES_TOP
100
AcDbText
 10
70.2735
 20
9.5115
 30
0.0
 40
1.0
  1
DD1
  7
GOST_D
 72
         1
 11
71.3
 21
10.0
 31
0.0
100
AcDbText
 73
         2
  0
TEXT
  5
17A
100
AcDbEntity
  8
ASSEMBLY_REF_DES_TOP
100
AcDbText
 10
114.1065
 20
89.575
 30
0.0
 40
1.0
  1
R36
 50
270.0
  7
GOST_TYPE_B
 72
         1
 11
114.6
 21
88.5
 31
0.0
100
AcDbText
 73
         2
  0
TEXT
  5
17B
100
AcDbEntity
  8
ASSEMBLY_REF_DES_TOP
100
AcDbText
 10
107.579825
 20
116.816375
 30
0.0
 40
1.0
  1
J3
 50
270.0
  7
GOST_TYPE_B
 72
         2
 11
107.579825
 21
115.546375
 31
0.0
100
AcDbText
 73
         1
  0
TEXT
  5
17C
100
AcDbEntity
  8
ASSEMBLY_REF_DES_TOP
100
AcDbText
 10
78.87
 20
71.8065
 30
0.0
 40
1.0
  1
C11
  7
GOST_TYPE_B
 72
         1
 11
79.7
 21
72.3
 31
0.0
100
AcDbText
 73
         2
  0
TEXT
  5
17D
100
AcDbEntity
  8
ASSEMBLY_REF_DES_TOP
100
AcDbText
 10
80.25455
 20
59.4496
 30
0.0
 40
0.7
  1
C10
 50
270.0
  7
GOST_TYPE_B
 72
         1
 11
80.6
 21
58.8
 31
0.0
100
AcDbText
 73
         2
  0
TEXT
  5
17E
100
AcDbEntity
  8
ASSEMBLY_REF_DES_TOP
100
AcDbText
 10
83.4565
 20
87.487
 30
0.0
 40
1.0
  1
J1
 50
270.0
  7
GOST_TYPE_B
 72
         1
 11
83.95
 21
86.95
 31
0.0
100
AcDbText
 73
         2
  0
TEXT
  5
17F
100
AcDbEntity
  8
ASSEMBLY_REF_DES_TOP
100
AcDbText
 10
110.0818
 20
74.95455
 30
0.0
 40
0.7
  1
C35
  7
GOST_TYPE_B
 72
         1
 11
110.8
 21
75.3
 31
0.0
100
AcDbText
 73
         2
  0
TEXT
  5
180
100
AcDbEntity
  8
ASSEMBLY_REF_DES_TOP
100
AcDbText
 10
71.4565
 20
41.4335
 30
0.0
 40
1.0
  1
X1
 50
270.0
  7
GOST_TYPE_B
 72
         1
 11
71.95
 21
40.75
 31
0.0
100
AcDbText
 73
         2
  0
TEXT
  5
181
100
AcDbEntity
  8
ASSEMBLY_REF_DES_TOP
100
AcDbText
 10
106.23
 20
109.46
 30
0.0
 40
1.0
  1
J2
  7
GOST_TYPE_B
 72
         2
 11
107.5
 21
109.46
 31
0.0
100
AcDbText
 73
         1
  0
TEXT
  5
182
100
AcDbEntity
  8
ASSEMBLY_REF_DES_TOP
100
AcDbText
 10
97.4565
 20
23.627
 30
0.0
 40
1.0
  1
R19
 50
270.0
  7
GOST_TYPE_B
 72
         1
 11
97.95
 21
22.65
 31
0.0
100
AcDbText
 73
         2
  0
TEXT
  5
183
100
AcDbEntity
  8
ASSEMBLY_REF_DES_TOP
100
AcDbText
 10
77.868
 20
10.3615
 30
0.0
 40
1.0
  1
R8
  7
GOST_D
 72
         1
 11
78.65
 21
10.85
 31
0.0
100
AcDbText
 73
         2
  0
TEXT
  5
184
100
AcDbEntity
  8
ASSEMBLY_REF_DES_TOP
100
AcDbText
 10
77.573
 20
13.4615
 30
0.0
 40
1.0
  1
R10
  7
GOST_D
 72
         1
 11
78.55
 21
13.95
 31
0.0
100
AcDbText
 73
         2
  0
TEXT
  5
185
100
AcDbEntity
  8
ASSEMBLY_REF_DES_TOP
100
AcDbText
 10
93.71645
 20
14.05455
 30
0.0
 40
0.7
  1
C18
  7
GOST_TYPE_B
 72
         1
 11
94.4
 21
14.4
 31
0.0
100
AcDbText
 73
         2
  0
TEXT
  5
186
100
AcDbEntity
  8
ASSEMBLY_REF_DES_TOP
100
AcDbText
 10
74.848275
 20
64.825775
 30
0.0
 40
1.0
  1
C6
 50
270.0
  7
GOST_TYPE_B
 72
         1
 11
75.341775
 21
64.141775
 31
0.0
100
AcDbText
 73
         2
  0
TEXT
  5
187
100
AcDbEntity
  8
ASSEMBLY_REF_DES_TOP
100
AcDbText
 10
77.914725
 20
57.085225
 30
0.0
 40
1.0
  1
R12
 50
270.0
  7
GOST_TYPE_B
 72
         1
 11
78.408225
 21
56.108225
 31
0.0
100
AcDbText
 73
         2
  0
TEXT
  5
188
100
AcDbEntity
  8
ASSEMBLY_REF_DES_TOP
100
AcDbText
 10
116.1065
 20
87.126
 30
0.0
 40
1.0
  1
C37
 50
270.0
  7
GOST_TYPE_B
 72
         1
 11
116.6
 21
86.1
 31
0.0
100
AcDbText
 73
         2
  0
TEXT
  5
189
100
AcDbEntity
  8
ASSEMBLY_REF_DES_TOP
100
AcDbText
 10
110.0818
 20
76.55455
 30
0.0
 40
0.7
  1
C36
  7
GOST_TYPE_B
 72
         1
 11
110.8
 21
76.9
 31
0.0
100
AcDbText
 73
         2
  0
TEXT
  5
18A
100
AcDbEntity
  8
ASSEMBLY_REF_DES_TOP
100
AcDbText
 10
114.048275
 20
33.616775
 30
0.0
 40
1.0
  1
R35
 50
270.0
  7
GOST_TYPE_B
 72
         1
 11
114.541775
 21
32.541775
 31
0.0
100
AcDbText
 73
         2
  0
TEXT
  5
18B
100
AcDbEntity
  8
ASSEMBLY_REF_DES_TOP
100
AcDbText
 10
107.664725
 20
18.886225
 30
0.0
 40
1.0
  1
C31
 50
270.0
  7
GOST_TYPE_B
 72
         1
 11
108.158225
 21
17.958225
 31
0.0
100
AcDbText
 73
         2
  0
TEXT
  5
18C
100
AcDbEntity
  8
ASSEMBLY_REF_DES_TOP
100
AcDbText
 10
92.764725
 20
84.884225
 30
0.0
 40
1.0
  1
C20
 50
270.0
  7
GOST_TYPE_B
 72
         1
 11
93.258225
 21
83.858225
 31
0.0
100
AcDbText
 73
         2
  0
TEXT
  5
18D
100
AcDbEntity
  8
ASSEMBLY_REF_DES_TOP
100
AcDbText
 10
104.6065
 20
9.375
 30
0.0
 40
1.0
  1
R25
 50
270.0
  7
GOST_TYPE_B
 72
         1
 11
105.1
 21
8.3
 31
0.0
100
AcDbText
 73
         2
  0
TEXT
  5
18E
100
AcDbEntity
  8
ASSEMBLY_REF_DES_TOP
100
AcDbText
 10
86.248275
 20
32.818775
 30
0.0
 40
1.0
  1
C14
 50
270.0
  7
GOST_TYPE_B
 72
         1
 11
86.741775
 21
31.841775
 31
0.0
100
AcDbText
 73
         2
  0
TEXT
  5
18F
100
AcDbEntity
  8
ASSEMBLY_REF_DES_TOP
100
AcDbText
 10
102.80455
 20
90.0368
 30
0.0
 40
0.7
  1
R24
 50
270.0
  7
GOST_TYPE_B
 72
         1
 11
103.15
 21
89.25
 31
0.0
100
AcDbText
 73
         2
  0
TEXT
  5
190
100
AcDbEntity
  8
ASSEMBLY_REF_DES_TOP
100
AcDbText
 10
74.964725
 20
68.142225
 30
0.0
 40
1.0
  1
C7
 50
270.0
  7
GOST_TYPE_B
 72
         1
 11
75.458225
 21
67.458225
 31
0.0
100
AcDbText
 73
         2
  0
TEXT
  5
191
100
AcDbEntity
  8
ASSEMBLY_REF_DES_TOP
100
AcDbText
 10
83.537
 20
103.6
 30
0.0
 40
1.0
  1
X2
  7
GOST_TYPE_B
 72
         2
 11
85.1
 21
103.6
 31
0.0
100
AcDbText
 73
         1
  0
TEXT
  5
192
100
AcDbEntity
  8
ASSEMBLY_REF_DES_TOP
100
AcDbText
 10
101.7065
 20
30.526
 30
0.0
 40
1.0
  1
C26
 50
270.0
  7
GOST_TYPE_B
 72
         1
 11
102.2
 21
29.5
 31
0.0
100
AcDbText
 73
         2
  0
TEXT
  5
193
100
AcDbEntity
  8
ASSEMBLY_REF_DES_TOP
100
AcDbText
 10
90.228
 20
5.0115
 30
0.0
 40
1.0
  1
VD2
  7
GOST_D
 72
         1
 11
91.4
 21
5.5
 31
0.0
100
AcDbText
 73
         2
  0
TEXT
  5
194
100
AcDbEntity
  8
ASSEMBLY_REF_DES_TOP
100
AcDbText
 10
114.1065
 20
91.575
 30
0.0
 40
1.0
  1
R37
 50
270.0
  7
GOST_TYPE_B
 72
         1
 11
114.6
 21
90.5
 31
0.0
100
AcDbText
 73
         2
  0
TEXT
  5
195
100
AcDbEntity
  8
ASSEMBLY_REF_DES_TOP
100
AcDbText
 10
104.1065
 20
94.575
 30
0.0
 40
1.0
  1
R29
 50
270.0
  7
GOST_TYPE_B
 72
         1
 11
104.6
 21
93.5
 31
0.0
100
AcDbText
 73
         2
  0
TEXT
  5
196
100
AcDbEntity
  8
ASSEMBLY_REF_DES_TOP
100
AcDbText
 10
120.710004
 20
110.85
 30
0.0
 40
1.0
  1
X6
  7
VERIBEST_GERBER_0
 72
         2
 11
122.600004
 21
110.85
 31
0.0
100
AcDbText
 73
         1
  0
TEXT
  5
197
100
AcDbEntity
  8
ASSEMBLY_REF_DES_TOP
100
AcDbText
 10
90.164725
 20
90.586225
 30
0.0
 40
1.0
  1
C17
 50
270.0
  7
GOST_TYPE_B
 72
         1
 11
90.658225
 21
89.658225
 31
0.0
100
AcDbText
 73
         2
  0
TEXT
  5
198
100
AcDbEntity
  8
ASSEMBLY_REF_DES_TOP
100
AcDbText
 10
97.95455
 20
53.0496
 30
0.0
 40
0.7
  1
C21
 50
270.0
  7
GOST_TYPE_B
 72
         1
 11
98.3
 21
52.4
 31
0.0
100
AcDbText
 73
         2
  0
TEXT
  5
199
100
AcDbEntity
  8
ASSEMBLY_REF_DES_TOP
100
AcDbText
 10
112.4065
 20
101.4725
 30
0.0
 40
1.0
  1
DA3
 50
270.0
  7
GOST_TYPE_B
 72
         1
 11
112.9
 21
100.3
 31
0.0
100
AcDbText
 73
         2
  0
TEXT
  5
19A
100
AcDbEntity
  8
ASSEMBLY_REF_DES_TOP
100
AcDbText
 10
72.00455
 20
75.4974
 30
0.0
 40
0.7
  1
R4
 50
270.0
  7
GOST_TYPE_B
 72
         1
 11
72.35
 21
74.95
 31
0.0
100
AcDbText
 73
         2
  0
TEXT
  5
19B
100
AcDbEntity
  8
ASSEMBLY_REF_DES_TOP
100
AcDbText
 10
77.8175
 20
11.9615
 30
0.0
 40
1.0
  1
R9
  7
GOST_D
 72
         1
 11
78.55
 21
12.45
 31
0.0
100
AcDbText
 73
         2
  0
TEXT
  5
19C
100
AcDbEntity
  8
ASSEMBLY_REF_DES_TOP
100
AcDbText
 10
73.25455
 20
89.15215
 30
0.0
 40
0.7
  1
VT1
 50
270.0
  7
GOST_TYPE_B
 72
         1
 11
73.6
 21
88.4
 31
0.0
100
AcDbText
 73
         2
  0
TEXT
  5
19D
100
AcDbEntity
  8
ASSEMBLY_REF_DES_TOP
100
AcDbText
 10
79.80455
 20
90.2339
 30
0.0
 40
0.7
  1
R13
 50
270.0
  7
GOST_TYPE_B
 72
         1
 11
80.15
 21
89.55
 31
0.0
100
AcDbText
 73
         2
  0
TEXT
  5
19E
100
AcDbEntity
  8
ASSEMBLY_REF_DES_TOP
100
AcDbText
 10
101.767275
 20
5.464725
 30
0.0
 40
1.0
  1
C24
  7
GOST_TYPE_B
 72
         1
 11
102.841775
 21
5.958225
 31
0.0
100
AcDbText
 73
         2
  0
TEXT
  5
19F
100
AcDbEntity
  8
ASSEMBLY_REF_DES_TOP
100
AcDbText
 10
93.377
 20
36.6065
 30
0.0
 40
1.0
  1
DD2
  7
GOST_TYPE_B
 72
         1
 11
94.5
 21
37.1
 31
0.0
100
AcDbText
 73
         2
  0
TEXT
  5
1A0
100
AcDbEntity
  8
ASSEMBLY_REF_DES_TOP
100
AcDbText
 10
77.67
 20
14.9615
 30
0.0
 40
1.0
  1
R11
  7
GOST_D
 72
         1
 11
78.55
 21
15.45
 31
0.0
100
AcDbText
 73
         2
  0
TEXT
  5
1A1
100
AcDbEntity
  8
ASSEMBLY_REF_DES_TOP
100
AcDbText
 10
102.6065
 20
15.675
 30
0.0
 40
1.0
  1
R22
 50
270.0
  7
GOST_TYPE_B
 72
         1
 11
103.1
 21
14.6
 31
0.0
100
AcDbText
 73
         2
  0
TEXT
  5
1A2
100
AcDbEntity
  8
ASSEMBLY_REF_DES_TOP
100
AcDbText
 10
103.248275
 20
21.465775
 30
0.0
 40
1.0
  1
R28
 50
270.0
  7
GOST_TYPE_B
 72
         1
 11
103.741775
 21
20.341775
 31
0.0
100
AcDbText
 73
         2
  0
TEXT
  5
1A3
100
AcDbEntity
  8
ASSEMBLY_REF_DES_TOP
100
AcDbText
 10
101.40455
 20
90.0025
 30
0.0
 40
0.7
  1
R23
 50
270.0
  7
GOST_TYPE_B
 72
         1
 11
101.75
 21
89.25
 31
0.0
100
AcDbText
 73
         2
  0
TEXT
  5
1A4
100
AcDbEntity
  8
ASSEMBLY_REF_DES_TOP
100
AcDbText
 10
85.6115
 20
10.9275
 30
0.0
 40
1.0
  1
C13
 50
270.0
  7
GOST_D
 72
         1
 11
86.1
 21
10.0
 31
0.0
100
AcDbText
 73
         2
  0
TEXT
  5
1A5
100
AcDbEntity
  8
ASSEMBLY_REF_DES_TOP
100
AcDbText
 10
81.30455
 20
91.0682
 30
0.0
 40
0.7
  1
R14
 50
270.0
  7
GOST_TYPE_B
 72
         1
 11
81.65
 21
90.35
 31
0.0
100
AcDbText
 73
         2
  0
TEXT
  5
1A6
100
AcDbEntity
  8
ASSEMBLY_REF_DES_TOP
100
AcDbText
 10
124.11267
 20
88.356788
 30
0.0
 40
1.0
  1
X5
 50
270.0
  7
GOST_TYPE_B
 72
         1
 11
124.60617
 21
87.575288
 31
0.0
100
AcDbText
 73
         2
  0
TEXT
  5
1A7
100
AcDbEntity
  8
ASSEMBLY_REF_DES_TOP
100
AcDbText
 10
76.2565
 20
57.283
 30
0.0
 40
1.0
  1
R6
 50
270.0
  7
GOST_TYPE_B
 72
         1
 11
76.75
 21
56.55
 31
0.0
100
AcDbText
 73
         2
  0
TEXT
  5
1A8
100
AcDbEntity
  8
ASSEMBLY_REF_DES_TOP
100
AcDbText
 10
107.6065
 20
15.175
 30
0.0
 40
1.0
  1
R32
 50
270.0
  7
GOST_TYPE_B
 72
         1
 11
108.1
 21
14.1
 31
0.0
100
AcDbText
 73
         2
  0
TEXT
  5
1A9
100
AcDbEntity
  8
ASSEMBLY_REF_DES_TOP
100
AcDbText
 10
103.1065
 20
10.175
 30
0.0
 40
1.0
  1
R26
 50
270.0
  7
GOST_TYPE_B
 72
         1
 11
103.6
 21
9.1
 31
0.0
100
AcDbText
 73
         2
  0
TEXT
  5
1AA
100
AcDbEntity
  8
ASSEMBLY_REF_DES_TOP
100
AcDbText
 10
104.0565
 20
15.725
 30
0.0
 40
1.0
  1
R27
 50
270.0
  7
GOST_TYPE_B
 72
         1
 11
104.55
 21
14.65
 31
0.0
100
AcDbText
 73
         2
  0
TEXT
  5
1AB
100
AcDbEntity
  8
ASSEMBLY_REF_DES_TOP
100
AcDbText
 10
81.725
 20
9.4115
 30
0.0
 40
1.0
  1
DA1
  7
GOST_D
 72
         1
 11
82.8
 21
9.9
 31
0.0
100
AcDbText
 73
         2
  0
TEXT
  5
1AC
100
AcDbEntity
  8
ASSEMBLY_REF_DES_TOP
100
AcDbText
 10
110.830325
 20
30.875875
 30
0.0
 40
1.0
  1
SW1
 50
90.0
  7
GOST_TYPE_B
 72
         2
 11
110.830325
 21
33.220875
 31
0.0
100
AcDbText
 73
         1
  0
TEXT
  5
1AD
100
AcDbEntity
  8
ASSEMBLY_REF_DES_TOP
100
AcDbText
 10
85.50455
 20
86.6339
 30
0.0
 40
0.7
  1
R15
 50
270.0
  7
GOST_TYPE_B
 72
         1
 11
85.85
 21
85.95
 31
0.0
100
AcDbText
 73
         2
  0
TEXT
  5
1AE
100
AcDbEntity
  8
ASSEMBLY_REF_DES_TOP
100
AcDbText
 10
110.50455
 20
40.8025
 30
0.0
 40
0.7
  1
R33
 50
270.0
  7
GOST_TYPE_B
 72
         1
 11
110.85
 21
40.05
 31
0.0
100
AcDbText
 73
         2
  0
TEXT
  5
1AF
100
AcDbEntity
  8
ASSEMBLY_REF_DES_TOP
100
AcDbText
 10
73.364725
 20
77.342225
 30
0.0
 40
1.0
  1
C5
 50
270.0
  7
GOST_TYPE_B
 72
         1
 11
73.858225
 21
76.658225
 31
0.0
100
AcDbText
 73
         2
  0
TEXT
  5
1B0
100
AcDbEntity
  8
ASSEMBLY_REF_DES_TOP
100
AcDbText
 10
91.728
 20
8.9115
 30
0.0
 40
1.0
  1
VD3
  7
GOST_D
 72
         1
 11
92.9
 21
9.4
 31
0.0
100
AcDbText
 73
         2
  0
TEXT
  5
1B1
100
AcDbEntity
  8
ASSEMBLY_REF_DES_TOP
100
AcDbText
 10
107.4818
 20
10.35455
 30
0.0
 40
0.7
  1
C30
  7
GOST_TYPE_B
 72
         1
 11
108.2
 21
10.7
 31
0.0
100
AcDbText
 73
         2
  0
TEXT
  5
1B2
100
AcDbEntity
  8
ASSEMBLY_REF_DES_TOP
100
AcDbText
 10
110.2065
 20
93.224
 30
0.0
 40
1.0
  1
R34
 50
270.0
  7
GOST_TYPE_B
 72
         1
 11
110.7
 21
92.1
 31
0.0
100
AcDbText
 73
         2
  0
TEXT
  5
1B3
100
AcDbEntity
  8
ASSEMBLY_REF_DES_TOP
100
AcDbText
 10
70.20455
 20
93.5631
 30
0.0
 40
0.7
  1
R2
 50
270.0
  7
GOST_TYPE_B
 72
         1
 11
70.55
 21
93.05
 31
0.0
100
AcDbText
 73
         2
  0
TEXT
  5
1B4
100
AcDbEntity
  8
ASSEMBLY_REF_DES_TOP
100
AcDbText
 10
97.2065
 20
18.673
 30
0.0
 40
1.0
  1
DD4
 50
270.0
  7
GOST_TYPE_B
 72
         1
 11
97.7
 21
17.5
 31
0.0
100
AcDbText
 73
         2
  0
TEXT
  5
1B5
100
AcDbEntity
  8
ASSEMBLY_REF_DES_TOP
100
AcDbText
 10
101.1065
 20
18.726
 30
0.0
 40
1.0
  1
C25
 50
270.0
  7
GOST_TYPE_B
 72
         1
 11
101.6
 21
17.7
 31
0.0
100
AcDbText
 73
         2
  0
TEXT
  5
1B6
100
AcDbEntity
  8
ASSEMBLY_REF_DES_TOP
100
AcDbText
 10
114.477
 20
82.0065
 30
0.0
 40
1.0
  1
R40
  7
GOST_TYPE_B
 72
         1
 11
115.6
 21
82.5
 31
0.0
100
AcDbText
 73
         2
  0
TEXT
  5
1B7
100
AcDbEntity
  8
ASSEMBLY_REF_DES_TOP
100
AcDbText
 10
102.75455
 20
53.1525
 30
0.0
 40
0.7
  1
C28
 50
270.0
  7
GOST_TYPE_B
 72
         1
 11
103.1
 21
52.4
 31
0.0
100
AcDbText
 73
         2
  0
TEXT
  5
1B8
100
AcDbEntity
  8
ASSEMBLY_REF_DES_TOP
100
AcDbText
 10
106.1065
 20
14.375
 30
0.0
 40
1.0
  1
R30
 50
270.0
  7
GOST_TYPE_B
 72
         1
 11
106.6
 21
13.3
 31
0.0
100
AcDbText
 73
         2
  0
TEXT
  5
1B9
100
AcDbEntity
  8
ASSEMBLY_REF_DES_TOP
100
AcDbText
 10
94.7281
 20
87.8621
 30
0.0
 40
1.0
  1
DA2
 50
90.0
  7
GOST_TYPE_B
 72
         1
 11
94.2346
 21
89.0346
 31
0.0
100
AcDbText
 73
         2
  0
TEXT
  5
1BA
100
AcDbEntity
  8
ASSEMBLY_REF_DES_TOP
100
AcDbText
 10
78.1175
 20
7.3615
 30
0.0
 40
1.0
  1
R7
  7
GOST_D
 72
         1
 11
78.85
 21
7.85
 31
0.0
100
AcDbText
 73
         2
  0
LWPOLYLINE
  5
1BB
100
AcDbEntity
  8
BOARD_OUTLINE
100
AcDbPolyline
 90
        4
 70
         1
 43
0.25
 10
65.1
 20
-7.5
 10
65.1
 20
117.5
 10
132.1
 20
117.5
 10
132.1
 20
-7.5
  0
CIRCLE
  5
1BC
100
AcDbEntity
  8
MOUNTING_HOLES_LAYER_TOP
100
AcDbCircle
 10
69.1
 20
-3.5
 30
0.0
 40
1.5
  0
HATCH
  5
1BD
100
AcDbEntity
  8
MOUNTING_HOLES_LAYER_TOP
100
AcDbHatch
 10
0.0
 20
0.0
 30
0.0
210
0.0
220
0.0
230
1.0
  2
SOLID
 70
         1
 71
         1
 91
        1
 92
        1
 93
        1
 72
         2
 10
69.099999999999994
 20
-3.5
 40
1.5
 50
0.0
 51
360.0
 73
         1
 97
        1
330
1BC
 75
         0
 76
         1
 98
        1
 10
0.0
 20
0.0
  0
CIRCLE
  5
1BE
100
AcDbEntity
  8
MOUNTING_HOLES_LAYER_TOP
100
AcDbCircle
 10
128.1
 20
-3.5
 30
0.0
 40
1.5
  0
HATCH
  5
1BF
100
AcDbEntity
  8
MOUNTING_HOLES_LAYER_TOP
100
AcDbHatch
 10
0.0
 20
0.0
 30
0.0
210
0.0
220
0.0
230
1.0
  2
SOLID
 70
         1
 71
         1
 91
        1
 92
        1
 93
        1
 72
         2
 10
128.09999999999999
 20
-3.5
 40
1.5
 50
0.0
 51
360.0
 73
         1
 97
        1
330
1BE
 75
         0
 76
         1
 98
        1
 10
0.0
 20
0.0
  0
CIRCLE
  5
1C0
100
AcDbEntity
  8
MOUNTING_HOLES_LAYER_TOP
100
AcDbCircle
 10
113.1
 20
113.5
 30
0.0
 40
1.5
  0
HATCH
  5
1C1
100
AcDbEntity
  8
MOUNTING_HOLES_LAYER_TOP
100
AcDbHatch
 10
0.0
 20
0.0
 30
0.0
210
0.0
220
0.0
230
1.0
  2
SOLID
 70
         1
 71
         1
 91
        1
 92
        1
 93
        1
 72
         2
 10
113.09999999999999
 20
113.5
 40
1.5
 50
0.0
 51
360.0
 73
         1
 97
        1
330
1C0
 75
         0
 76
         1
 98
        1
 10
0.0
 20
0.0
  0
CIRCLE
  5
1C2
100
AcDbEntity
  8
MOUNTING_HOLES_LAYER_TOP
100
AcDbCircle
 10
69.1
 20
113.5
 30
0.0
 40
1.5
  0
HATCH
  5
1C3
100
AcDbEntity
  8
MOUNTING_HOLES_LAYER_TOP
100
AcDbHatch
 10
0.0
 20
0.0
 30
0.0
210
0.0
220
0.0
230
1.0
  2
SOLID
 70
         1
 71
         1
 91
        1
 92
        1
 93
        1
 72
         2
 10
69.099999999999994
 20
113.5
 40
1.5
 50
0.0
 51
360.0
 73
         1
 97
        1
330
1C2
 75
         0
 76
         1
 98
        1
 10
0.0
 20
0.0
  0
CIRCLE
  5
1C4
100
AcDbEntity
  8
MOUNTING_HOLES_LAYER_TOP
100
AcDbCircle
 10
123.7
 20
28.05
 30
0.0
 40
0.75
  0
HATCH
  5
1C5
100
AcDbEntity
  8
MOUNTING_HOLES_LAYER_TOP
100
AcDbHatch
 10
0.0
 20
0.0
 30
0.0
210
0.0
220
0.0
230
1.0
  2
SOLID
 70
         1
 71
         1
 91
        1
 92
        1
 93
        1
 72
         2
 10
123.7
 20
28.050000000000001
 40
0.75
 50
0.0
 51
360.0
 73
         1
 97
        1
330
1C4
 75
         0
 76
         1
 98
        1
 10
0.0
 20
0.0
  0
CIRCLE
  5
1C6
100
AcDbEntity
  8
MOUNTING_HOLES_LAYER_TOP
100
AcDbCircle
 10
123.7
 20
35.55
 30
0.0
 40
0.75
  0
HATCH
  5
1C7
100
AcDbEntity
  8
MOUNTING_HOLES_LAYER_TOP
100
AcDbHatch
 10
0.0
 20
0.0
 30
0.0
210
0.0
220
0.0
230
1.0
  2
SOLID
 70
         1
 71
         1
 91
        1
 92
        1
 93
        1
 72
         2
 10
123.7
 20
35.549999999999997
 40
0.75
 50
0.0
 51
360.0
 73
         1
 97
        1
330
1C6
 75
         0
 76
         1
 98
        1
 10
0.0
 20
0.0
  0
CIRCLE
  5
1C8
100
AcDbEntity
  8
MOUNTING_HOLES_LAYER_TOP
100
AcDbCircle
 10
123.7
 20
54.17
 30
0.0
 40
0.8
  0
HATCH
  5
1C9
100
AcDbEntity
  8
MOUNTING_HOLES_LAYER_TOP
100
AcDbHatch
 10
0.0
 20
0.0
 30
0.0
210
0.0
220
0.0
230
1.0
  2
SOLID
 70
         1
 71
         1
 91
        1
 92
        1
 93
        1
 72
         2
 10
123.7
 20
54.170000000000002
 40
0.8
 50
0.0
 51
360.0
 73
         1
 97
        1
330
1C8
 75
         0
 76
         1
 98
        1
 10
0.0
 20
0.0
  0
CIRCLE
  5
1CA
100
AcDbEntity
  8
MOUNTING_HOLES_LAYER_TOP
100
AcDbCircle
 10
123.7
 20
49.17
 30
0.0
 40
0.8
  0
HATCH
  5
1CB
100
AcDbEntity
  8
MOUNTING_HOLES_LAYER_TOP
100
AcDbHatch
 10
0.0
 20
0.0
 30
0.0
210
0.0
220
0.0
230
1.0
  2
SOLID
 70
         1
 71
         1
 91
        1
 92
        1
 93
        1
 72
         2
 10
123.7
 20
49.170000000000002
 40
0.8
 50
0.0
 51
360.0
 73
         1
 97
        1
330
1CA
 75
         0
 76
         1
 98
        1
 10
0.0
 20
0.0
  0
CIRCLE
  5
1CC
100
AcDbEntity
  8
MOUNTING_HOLES_LAYER_TOP
100
AcDbCircle
 10
122.81
 20
6.83
 30
0.0
 40
1.65
  0
HATCH
  5
1CD
100
AcDbEntity
  8
MOUNTING_HOLES_LAYER_TOP
100
AcDbHatch
 10
0.0
 20
0.0
 30
0.0
210
0.0
220
0.0
230
1.0
  2
SOLID
 70
         1
 71
         1
 91
        1
 92
        1
 93
        1
 72
         2
 10
122.81
 20
6.8300000000000001
 40
1.6499999999999999
 50
0.0
 51
360.0
 73
         1
 97
        1
330
1CC
 75
         0
 76
         1
 98
        1
 10
0.0
 20
0.0
  0
CIRCLE
  5
1CE
100
AcDbEntity
  8
MOUNTING_HOLES_LAYER_TOP
100
AcDbCircle
 10
122.81
 20
18.26
 30
0.0
 40
1.65
  0
HATCH
  5
1CF
100
AcDbEntity
  8
MOUNTING_HOLES_LAYER_TOP
100
AcDbHatch
 10
0.0
 20
0.0
 30
0.0
210
0.0
220
0.0
230
1.0
  2
SOLID
 70
         1
 71
         1
 91
        1
 92
        1
 93
        1
 72
         2
 10
122.81
 20
18.260000000000002
 40
1.6499999999999999
 50
0.0
 51
360.0
 73
         1
 97
        1
330
1CE
 75
         0
 76
         1
 98
        1
 10
0.0
 20
0.0
  0
CIRCLE
  5
1D0
100
AcDbEntity
  8
MOUNTING_HOLES_LAYER_TOP
100
AcDbCircle
 10
122.448995
 20
82.551663
 30
0.0
 40
0.75
  0
HATCH
  5
1D1
100
AcDbEntity
  8
MOUNTING_HOLES_LAYER_TOP
100
AcDbHatch
 10
0.0
 20
0.0
 30
0.0
210
0.0
220
0.0
230
1.0
  2
SOLID
 70
         1
 71
         1
 91
        1
 92
        1
 93
        1
 72
         2
 10
122.448995
 20
82.551663000000005
 40
0.75
 50
0.0
 51
360.0
 73
         1
 97
        1
330
1D0
 75
         0
 76
         1
 98
        1
 10
0.0
 20
0.0
  0
CIRCLE
  5
1D2
100
AcDbEntity
  8
MOUNTING_HOLES_LAYER_TOP
100
AcDbCircle
 10
122.448995
 20
92.551663
 30
0.0
 40
0.75
  0
HATCH
  5
1D3
100
AcDbEntity
  8
MOUNTING_HOLES_LAYER_TOP
100
AcDbHatch
 10
0.0
 20
0.0
 30
0.0
210
0.0
220
0.0
230
1.0
  2
SOLID
 70
         1
 71
         1
 91
        1
 92
        1
 93
        1
 72
         2
 10
122.448995
 20
92.551663000000005
 40
0.75
 50
0.0
 51
360.0
 73
         1
 97
        1
330
1D2
 75
         0
 76
         1
 98
        1
 10
0.0
 20
0.0
  0
CIRCLE
  5
1D4
100
AcDbEntity
  8
PART_HOLES_LAYER_TOP
100
AcDbCircle
 10
77.6
 20
111.0
 30
0.0
 40
0.45
  0
HATCH
  5
1D5
100
AcDbEntity
  8
PART_HOLES_LAYER_TOP
100
AcDbHatch
 10
0.0
 20
0.0
 30
0.0
210
0.0
220
0.0
230
1.0
  2
SOLID
 70
         1
 71
         1
 91
        1
 92
        1
 93
        1
 72
         2
 10
77.599999999999994
 20
111.0
 40
0.45
 50
0.0
 51
360.0
 73
         1
 97
        1
330
1D4
 75
         0
 76
         1
 98
        1
 10
0.0
 20
0.0
  0
CIRCLE
  5
1D6
100
AcDbEntity
  8
PART_HOLES_LAYER_TOP
100
AcDbCircle
 10
100.46
 20
113.54
 30
0.0
 40
0.45
  0
HATCH
  5
1D7
100
AcDbEntity
  8
PART_HOLES_LAYER_TOP
100
AcDbHatch
 10
0.0
 20
0.0
 30
0.0
210
0.0
220
0.0
230
1.0
  2
SOLID
 70
         1
 71
         1
 91
        1
 92
        1
 93
        1
 72
         2
 10
100.45999999999999
 20
113.54000000000001
 40
0.45
 50
0.0
 51
360.0
 73
         1
 97
        1
330
1D6
 75
         0
 76
         1
 98
        1
 10
0.0
 20
0.0
  0
CIRCLE
  5
1D8
100
AcDbEntity
  8
PART_HOLES_LAYER_TOP
100
AcDbCircle
 10
97.92
 20
113.54
 30
0.0
 40
0.45
  0
HATCH
  5
1D9
100
AcDbEntity
  8
PART_HOLES_LAYER_TOP
100
AcDbHatch
 10
0.0
 20
0.0
 30
0.0
210
0.0
220
0.0
230
1.0
  2
SOLID
 70
         1
 71
         1
 91
        1
 92
        1
 93
        1
 72
         2
 10
97.920000000000002
 20
113.54000000000001
 40
0.45
 50
0.0
 51
360.0
 73
         1
 97
        1
330
1D8
 75
         0
 76
         1
 98
        1
 10
0.0
 20
0.0
  0
CIRCLE
  5
1DA
100
AcDbEntity
  8
PART_HOLES_LAYER_TOP
100
AcDbCircle
 10
95.38
 20
113.54
 30
0.0
 40
0.45
  0
HATCH
  5
1DB
100
AcDbEntity
  8
PART_HOLES_LAYER_TOP
100
AcDbHatch
 10
0.0
 20
0.0
 30
0.0
210
0.0
220
0.0
230
1.0
  2
SOLID
 70
         1
 71
         1
 91
        1
 92
        1
 93
        1
 72
         2
 10
95.379999999999995
 20
113.54000000000001
 40
0.45
 50
0.0
 51
360.0
 73
         1
 97
        1
330
1DA
 75
         0
 76
         1
 98
        1
 10
0.0
 20
0.0
  0
CIRCLE
  5
1DC
100
AcDbEntity
  8
PART_HOLES_LAYER_TOP
100
AcDbCircle
 10
80.14
 20
113.54
 30
0.0
 40
0.45
  0
HATCH
  5
1DD
100
AcDbEntity
  8
PART_HOLES_LAYER_TOP
100
AcDbHatch
 10
0.0
 20
0.0
 30
0.0
210
0.0
220
0.0
230
1.0
  2
SOLID
 70
         1
 71
         1
 91
        1
 92
        1
 93
        1
 72
         2
 10
80.140000000000001
 20
113.54000000000001
 40
0.45
 50
0.0
 51
360.0
 73
         1
 97
        1
330
1DC
 75
         0
 76
         1
 98
        1
 10
0.0
 20
0.0
  0
CIRCLE
  5
1DE
100
AcDbEntity
  8
PART_HOLES_LAYER_TOP
100
AcDbCircle
 10
82.68
 20
113.54
 30
0.0
 40
0.45
  0
HATCH
  5
1DF
100
AcDbEntity
  8
PART_HOLES_LAYER_TOP
100
AcDbHatch
 10
0.0
 20
0.0
 30
0.0
210
0.0
220
0.0
230
1.0
  2
SOLID
 70
         1
 71
         1
 91
        1
 92
        1
 93
        1
 72
         2
 10
82.680000000000007
 20
113.54000000000001
 40
0.45
 50
0.0
 51
360.0
 73
         1
 97
        1
330
1DE
 75
         0
 76
         1
 98
        1
 10
0.0
 20
0.0
  0
CIRCLE
  5
1E0
100
AcDbEntity
  8
PART_HOLES_LAYER_TOP
100
AcDbCircle
 10
85.22
 20
113.54
 30
0.0
 40
0.45
  0
HATCH
  5
1E1
100
AcDbEntity
  8
PART_HOLES_LAYER_TOP
100
AcDbHatch
 10
0.0
 20
0.0
 30
0.0
210
0.0
220
0.0
230
1.0
  2
SOLID
 70
         1
 71
         1
 91
        1
 92
        1
 93
        1
 72
         2
 10
85.219999999999999
 20
113.54000000000001
 40
0.45
 50
0.0
 51
360.0
 73
         1
 97
        1
330
1E0
 75
         0
 76
         1
 98
        1
 10
0.0
 20
0.0
  0
CIRCLE
  5
1E2
100
AcDbEntity
  8
PART_HOLES_LAYER_TOP
100
AcDbCircle
 10
87.76
 20
113.54
 30
0.0
 40
0.45
  0
HATCH
  5
1E3
100
AcDbEntity
  8
PART_HOLES_LAYER_TOP
100
AcDbHatch
 10
0.0
 20
0.0
 30
0.0
210
0.0
220
0.0
230
1.0
  2
SOLID
 70
         1
 71
         1
 91
        1
 92
        1
 93
        1
 72
         2
 10
87.760000000000005
 20
113.54000000000001
 40
0.45
 50
0.0
 51
360.0
 73
         1
 97
        1
330
1E2
 75
         0
 76
         1
 98
        1
 10
0.0
 20
0.0
  0
CIRCLE
  5
1E4
100
AcDbEntity
  8
PART_HOLES_LAYER_TOP
100
AcDbCircle
 10
90.3
 20
113.54
 30
0.0
 40
0.45
  0
HATCH
  5
1E5
100
AcDbEntity
  8
PART_HOLES_LAYER_TOP
100
AcDbHatch
 10
0.0
 20
0.0
 30
0.0
210
0.0
220
0.0
230
1.0
  2
SOLID
 70
         1
 71
         1
 91
        1
 92
        1
 93
        1
 72
         2
 10
90.299999999999997
 20
113.54000000000001
 40
0.45
 50
0.0
 51
360.0
 73
         1
 97
        1
330
1E4
 75
         0
 76
         1
 98
        1
 10
0.0
 20
0.0
  0
CIRCLE
  5
1E6
100
AcDbEntity
  8
PART_HOLES_LAYER_TOP
100
AcDbCircle
 10
90.3
 20
111.0
 30
0.0
 40
0.45
  0
HATCH
  5
1E7
100
AcDbEntity
  8
PART_HOLES_LAYER_TOP
100
AcDbHatch
 10
0.0
 20
0.0
 30
0.0
210
0.0
220
0.0
230
1.0
  2
SOLID
 70
         1
 71
         1
 91
        1
 92
        1
 93
        1
 72
         2
 10
90.299999999999997
 20
111.0
 40
0.45
 50
0.0
 51
360.0
 73
         1
 97
        1
330
1E6
 75
         0
 76
         1
 98
        1
 10
0.0
 20
0.0
  0
CIRCLE
  5
1E8
100
AcDbEntity
  8
PART_HOLES_LAYER_TOP
100
AcDbCircle
 10
77.6
 20
113.54
 30
0.0
 40
0.45
  0
HATCH
  5
1E9
100
AcDbEntity
  8
PART_HOLES_LAYER_TOP
100
AcDbHatch
 10
0.0
 20
0.0
 30
0.0
210
0.0
220
0.0
230
1.0
  2
SOLID
 70
         1
 71
         1
 91
        1
 92
        1
 93
        1
 72
         2
 10
77.599999999999994
 20
113.54000000000001
 40
0.45
 50
0.0
 51
360.0
 73
         1
 97
        1
330
1E8
 75
         0
 76
         1
 98
        1
 10
0.0
 20
0.0
  0
CIRCLE
  5
1EA
100
AcDbEntity
  8
PART_HOLES_LAYER_TOP
100
AcDbCircle
 10
92.84
 20
113.54
 30
0.0
 40
0.45
  0
HATCH
  5
1EB
100
AcDbEntity
  8
PART_HOLES_LAYER_TOP
100
AcDbHatch
 10
0.0
 20
0.0
 30
0.0
210
0.0
220
0.0
230
1.0
  2
SOLID
 70
         1
 71
         1
 91
        1
 92
        1
 93
        1
 72
         2
 10
92.840000000000003
 20
113.54000000000001
 40
0.45
 50
0.0
 51
360.0
 73
         1
 97
        1
330
1EA
 75
         0
 76
         1
 98
        1
 10
0.0
 20
0.0
  0
CIRCLE
  5
1EC
100
AcDbEntity
  8
PART_HOLES_LAYER_TOP
100
AcDbCircle
 10
87.76
 20
111.0
 30
0.0
 40
0.45
  0
HATCH
  5
1ED
100
AcDbEntity
  8
PART_HOLES_LAYER_TOP
100
AcDbHatch
 10
0.0
 20
0.0
 30
0.0
210
0.0
220
0.0
230
1.0
  2
SOLID
 70
         1
 71
         1
 91
        1
 92
        1
 93
        1
 72
         2
 10
87.760000000000005
 20
111.0
 40
0.45
 50
0.0
 51
360.0
 73
         1
 97
        1
330
1EC
 75
         0
 76
         1
 98
        1
 10
0.0
 20
0.0
  0
CIRCLE
  5
1EE
100
AcDbEntity
  8
PART_HOLES_LAYER_TOP
100
AcDbCircle
 10
82.68
 20
111.0
 30
0.0
 40
0.45
  0
HATCH
  5
1EF
100
AcDbEntity
  8
PART_HOLES_LAYER_TOP
100
AcDbHatch
 10
0.0
 20
0.0
 30
0.0
210
0.0
220
0.0
230
1.0
  2
SOLID
 70
         1
 71
         1
 91
        1
 92
        1
 93
        1
 72
         2
 10
82.680000000000007
 20
111.0
 40
0.45
 50
0.0
 51
360.0
 73
         1
 97
        1
330
1EE
 75
         0
 76
         1
 98
        1
 10
0.0
 20
0.0
  0
CIRCLE
  5
1F0
100
AcDbEntity
  8
PART_HOLES_LAYER_TOP
100
AcDbCircle
 10
92.84
 20
111.0
 30
0.0
 40
0.45
  0
HATCH
  5
1F1
100
AcDbEntity
  8
PART_HOLES_LAYER_TOP
100
AcDbHatch
 10
0.0
 20
0.0
 30
0.0
210
0.0
220
0.0
230
1.0
  2
SOLID
 70
         1
 71
         1
 91
        1
 92
        1
 93
        1
 72
         2
 10
92.840000000000003
 20
111.0
 40
0.45
 50
0.0
 51
360.0
 73
         1
 97
        1
330
1F0
 75
         0
 76
         1
 98
        1
 10
0.0
 20
0.0
  0
CIRCLE
  5
1F2
100
AcDbEntity
  8
PART_HOLES_LAYER_TOP
100
AcDbCircle
 10
85.22
 20
111.0
 30
0.0
 40
0.45
  0
HATCH
  5
1F3
100
AcDbEntity
  8
PART_HOLES_LAYER_TOP
100
AcDbHatch
 10
0.0
 20
0.0
 30
0.0
210
0.0
220
0.0
230
1.0
  2
SOLID
 70
         1
 71
         1
 91
        1
 92
        1
 93
        1
 72
         2
 10
85.219999999999999
 20
111.0
 40
0.45
 50
0.0
 51
360.0
 73
         1
 97
        1
330
1F2
 75
         0
 76
         1
 98
        1
 10
0.0
 20
0.0
  0
CIRCLE
  5
1F4
100
AcDbEntity
  8
PART_HOLES_LAYER_TOP
100
AcDbCircle
 10
80.14
 20
111.0
 30
0.0
 40
0.45
  0
HATCH
  5
1F5
100
AcDbEntity
  8
PART_HOLES_LAYER_TOP
100
AcDbHatch
 10
0.0
 20
0.0
 30
0.0
210
0.0
220
0.0
230
1.0
  2
SOLID
 70
         1
 71
         1
 91
        1
 92
        1
 93
        1
 72
         2
 10
80.140000000000001
 20
111.0
 40
0.45
 50
0.0
 51
360.0
 73
         1
 97
        1
330
1F4
 75
         0
 76
         1
 98
        1
 10
0.0
 20
0.0
  0
CIRCLE
  5
1F6
100
AcDbEntity
  8
PART_HOLES_LAYER_TOP
100
AcDbCircle
 10
95.38
 20
111.0
 30
0.0
 40
0.45
  0
HATCH
  5
1F7
100
AcDbEntity
  8
PART_HOLES_LAYER_TOP
100
AcDbHatch
 10
0.0
 20
0.0
 30
0.0
210
0.0
220
0.0
230
1.0
  2
SOLID
 70
         1
 71
         1
 91
        1
 92
        1
 93
        1
 72
         2
 10
95.379999999999995
 20
111.0
 40
0.45
 50
0.0
 51
360.0
 73
         1
 97
        1
330
1F6
 75
         0
 76
         1
 98
        1
 10
0.0
 20
0.0
  0
CIRCLE
  5
1F8
100
AcDbEntity
  8
PART_HOLES_LAYER_TOP
100
AcDbCircle
 10
100.46
 20
111.0
 30
0.0
 40
0.45
  0
HATCH
  5
1F9
100
AcDbEntity
  8
PART_HOLES_LAYER_TOP
100
AcDbHatch
 10
0.0
 20
0.0
 30
0.0
210
0.0
220
0.0
230
1.0
  2
SOLID
 70
         1
 71
         1
 91
        1
 92
        1
 93
        1
 72
         2
 10
100.45999999999999
 20
111.0
 40
0.45
 50
0.0
 51
360.0
 73
         1
 97
        1
330
1F8
 75
         0
 76
         1
 98
        1
 10
0.0
 20
0.0
  0
CIRCLE
  5
1FA
100
AcDbEntity
  8
PART_HOLES_LAYER_TOP
100
AcDbCircle
 10
97.92
 20
111.0
 30
0.0
 40
0.45
  0
HATCH
  5
1FB
100
AcDbEntity
  8
PART_HOLES_LAYER_TOP
100
AcDbHatch
 10
0.0
 20
0.0
 30
0.0
210
0.0
220
0.0
230
1.0
  2
SOLID
 70
         1
 71
         1
 91
        1
 92
        1
 93
        1
 72
         2
 10
97.920000000000002
 20
111.0
 40
0.45
 50
0.0
 51
360.0
 73
         1
 97
        1
330
1FA
 75
         0
 76
         1
 98
        1
 10
0.0
 20
0.0
  0
CIRCLE
  5
1FC
100
AcDbEntity
  8
PART_HOLES_LAYER_TOP
100
AcDbCircle
 10
75.7
 20
77.370002
 30
0.0
 40
0.45
  0
HATCH
  5
1FD
100
AcDbEntity
  8
PART_HOLES_LAYER_TOP
100
AcDbHatch
 10
0.0
 20
0.0
 30
0.0
210
0.0
220
0.0
230
1.0
  2
SOLID
 70
         1
 71
         1
 91
        1
 92
        1
 93
        1
 72
         2
 10
75.700000000000003
 20
77.370001999999999
 40
0.45
 50
0.0
 51
360.0
 73
         1
 97
        1
330
1FC
 75
         0
 76
         1
 98
        1
 10
0.0
 20
0.0
  0
CIRCLE
  5
1FE
100
AcDbEntity
  8
PART_HOLES_LAYER_TOP
100
AcDbCircle
 10
75.7
 20
74.83
 30
0.0
 40
0.45
  0
HATCH
  5
1FF
100
AcDbEntity
  8
PART_HOLES_LAYER_TOP
100
AcDbHatch
 10
0.0
 20
0.0
 30
0.0
210
0.0
220
0.0
230
1.0
  2
SOLID
 70
         1
 71
         1
 91
        1
 92
        1
 93
        1
 72
         2
 10
75.700000000000003
 20
74.829999999999998
 40
0.45
 50
0.0
 51
360.0
 73
         1
 97
        1
330
1FE
 75
         0
 76
         1
 98
        1
 10
0.0
 20
0.0
  0
CIRCLE
  5
200
100
AcDbEntity
  8
PART_HOLES_LAYER_TOP
100
AcDbCircle
 10
127.35
 20
73.8
 30
0.0
 40
0.45
  0
HATCH
  5
201
100
AcDbEntity
  8
PART_HOLES_LAYER_TOP
100
AcDbHatch
 10
0.0
 20
0.0
 30
0.0
210
0.0
220
0.0
230
1.0
  2
SOLID
 70
         1
 71
         1
 91
        1
 92
        1
 93
        1
 72
         2
 10
127.34999999999999
 20
73.799999999999997
 40
0.45
 50
0.0
 51
360.0
 73
         1
 97
        1
330
200
 75
         0
 76
         1
 98
        1
 10
0.0
 20
0.0
  0
CIRCLE
  5
202
100
AcDbEntity
  8
PART_HOLES_LAYER_TOP
100
AcDbCircle
 10
127.35
 20
69.4
 30
0.0
 40
0.45
  0
HATCH
  5
203
100
AcDbEntity
  8
PART_HOLES_LAYER_TOP
100
AcDbHatch
 10
0.0
 20
0.0
 30
0.0
210
0.0
220
0.0
230
1.0
  2
SOLID
 70
         1
 71
         1
 91
        1
 92
        1
 93
        1
 72
         2
 10
127.34999999999999
 20
69.400000000000006
 40
0.45
 50
0.0
 51
360.0
 73
         1
 97
        1
330
202
 75
         0
 76
         1
 98
        1
 10
0.0
 20
0.0
  0
CIRCLE
  5
204
100
AcDbEntity
  8
PART_HOLES_LAYER_TOP
100
AcDbCircle
 10
78.8
 20
68.24
 30
0.0
 40
0.45
  0
HATCH
  5
205
100
AcDbEntity
  8
PART_HOLES_LAYER_TOP
100
AcDbHatch
 10
0.0
 20
0.0
 30
0.0
210
0.0
220
0.0
230
1.0
  2
SOLID
 70
         1
 71
         1
 91
        1
 92
        1
 93
        1
 72
         2
 10
78.799999999999997
 20
68.239999999999995
 40
0.45
 50
0.0
 51
360.0
 73
         1
 97
        1
330
204
 75
         0
 76
         1
 98
        1
 10
0.0
 20
0.0
  0
CIRCLE
  5
206
100
AcDbEntity
  8
PART_HOLES_LAYER_TOP
100
AcDbCircle
 10
78.8
 20
63.36
 30
0.0
 40
0.45
  0
HATCH
  5
207
100
AcDbEntity
  8
PART_HOLES_LAYER_TOP
100
AcDbHatch
 10
0.0
 20
0.0
 30
0.0
210
0.0
220
0.0
230
1.0
  2
SOLID
 70
         1
 71
         1
 91
        1
 92
        1
 93
        1
 72
         2
 10
78.799999999999997
 20
63.359999999999999
 40
0.45
 50
0.0
 51
360.0
 73
         1
 97
        1
330
206
 75
         0
 76
         1
 98
        1
 10
0.0
 20
0.0
  0
CIRCLE
  5
208
100
AcDbEntity
  8
PART_HOLES_LAYER_TOP
100
AcDbCircle
 10
107.1
 20
113.7
 30
0.0
 40
0.45
  0
HATCH
  5
209
100
AcDbEntity
  8
PART_HOLES_LAYER_TOP
100
AcDbHatch
 10
0.0
 20
0.0
 30
0.0
210
0.0
220
0.0
230
1.0
  2
SOLID
 70
         1
 71
         1
 91
        1
 92
        1
 93
        1
 72
         2
 10
107.09999999999999
 20
113.7
 40
0.45
 50
0.0
 51
360.0
 73
         1
 97
        1
330
208
 75
         0
 76
         1
 98
        1
 10
0.0
 20
0.0
  0
CIRCLE
  5
20A
100
AcDbEntity
  8
PART_HOLES_LAYER_TOP
100
AcDbCircle
 10
107.1
 20
116.24
 30
0.0
 40
0.45
  0
HATCH
  5
20B
100
AcDbEntity
  8
PART_HOLES_LAYER_TOP
100
AcDbHatch
 10
0.0
 20
0.0
 30
0.0
210
0.0
220
0.0
230
1.0
  2
SOLID
 70
         1
 71
         1
 91
        1
 92
        1
 93
        1
 72
         2
 10
107.09999999999999
 20
116.23999999999999
 40
0.45
 50
0.0
 51
360.0
 73
         1
 97
        1
330
20A
 75
         0
 76
         1
 98
        1
 10
0.0
 20
0.0
  0
CIRCLE
  5
20C
100
AcDbEntity
  8
PART_HOLES_LAYER_TOP
100
AcDbCircle
 10
83.9
 20
85.7
 30
0.0
 40
0.45
  0
HATCH
  5
20D
100
AcDbEntity
  8
PART_HOLES_LAYER_TOP
100
AcDbHatch
 10
0.0
 20
0.0
 30
0.0
210
0.0
220
0.0
230
1.0
  2
SOLID
 70
         1
 71
         1
 91
        1
 92
        1
 93
        1
 72
         2
 10
83.900000000000006
 20
85.700000000000003
 40
0.45
 50
0.0
 51
360.0
 73
         1
 97
        1
330
20C
 75
         0
 76
         1
 98
        1
 10
0.0
 20
0.0
  0
CIRCLE
  5
20E
100
AcDbEntity
  8
PART_HOLES_LAYER_TOP
100
AcDbCircle
 10
83.9
 20
88.24
 30
0.0
 40
0.45
  0
HATCH
  5
20F
100
AcDbEntity
  8
PART_HOLES_LAYER_TOP
100
AcDbHatch
 10
0.0
 20
0.0
 30
0.0
210
0.0
220
0.0
230
1.0
  2
SOLID
 70
         1
 71
         1
 91
        1
 92
        1
 93
        1
 72
         2
 10
83.900000000000006
 20
88.239999999999995
 40
0.45
 50
0.0
 51
360.0
 73
         1
 97
        1
330
20E
 75
         0
 76
         1
 98
        1
 10
0.0
 20
0.0
  0
CIRCLE
  5
210
100
AcDbEntity
  8
PART_HOLES_LAYER_TOP
100
AcDbCircle
 10
107.1
 20
108.56
 30
0.0
 40
0.45
  0
HATCH
  5
211
100
AcDbEntity
  8
PART_HOLES_LAYER_TOP
100
AcDbHatch
 10
0.0
 20
0.0
 30
0.0
210
0.0
220
0.0
230
1.0
  2
SOLID
 70
         1
 71
         1
 91
        1
 92
        1
 93
        1
 72
         2
 10
107.09999999999999
 20
108.56
 40
0.45
 50
0.0
 51
360.0
 73
         1
 97
        1
330
210
 75
         0
 76
         1
 98
        1
 10
0.0
 20
0.0
  0
CIRCLE
  5
212
100
AcDbEntity
  8
PART_HOLES_LAYER_TOP
100
AcDbCircle
 10
107.1
 20
111.1
 30
0.0
 40
0.45
  0
HATCH
  5
213
100
AcDbEntity
  8
PART_HOLES_LAYER_TOP
100
AcDbHatch
 10
0.0
 20
0.0
 30
0.0
210
0.0
220
0.0
230
1.0
  2
SOLID
 70
         1
 71
         1
 91
        1
 92
        1
 93
        1
 72
         2
 10
107.09999999999999
 20
111.09999999999999
 40
0.45
 50
0.0
 51
360.0
 73
         1
 97
        1
330
212
 75
         0
 76
         1
 98
        1
 10
0.0
 20
0.0
  0
CIRCLE
  5
214
100
AcDbEntity
  8
PART_HOLES_LAYER_TOP
100
AcDbCircle
 10
119.700002
 20
110.4
 30
0.0
 40
1.4
  0
HATCH
  5
215
100
AcDbEntity
  8
PART_HOLES_LAYER_TOP
100
AcDbHatch
 10
0.0
 20
0.0
 30
0.0
210
0.0
220
0.0
230
1.0
  2
SOLID
 70
         1
 71
         1
 91
        1
 92
        1
 93
        1
 72
         2
 10
119.700002
 20
110.40000000000001
 40
1.3999999999999999
 50
0.0
 51
360.0
 73
         1
 97
        1
330
214
 75
         0
 76
         1
 98
        1
 10
0.0
 20
0.0
  0
CIRCLE
  5
216
100
AcDbEntity
  8
PART_HOLES_LAYER_TOP
100
AcDbCircle
 10
125.900002
 20
110.4
 30
0.0
 40
1.4
  0
HATCH
  5
217
100
AcDbEntity
  8
PART_HOLES_LAYER_TOP
100
AcDbHatch
 10
0.0
 20
0.0
 30
0.0
210
0.0
220
0.0
230
1.0
  2
SOLID
 70
         1
 71
         1
 91
        1
 92
        1
 93
        1
 72
         2
 10
125.900002
 20
110.40000000000001
 40
1.3999999999999999
 50
0.0
 51
360.0
 73
         1
 97
        1
330
216
 75
         0
 76
         1
 98
        1
 10
0.0
 20
0.0
  0
CIRCLE
  5
218
100
AcDbEntity
  8
PART_HOLES_LAYER_TOP
100
AcDbCircle
 10
122.900004
 20
115.1
 30
0.0
 40
1.4
  0
HATCH
  5
219
100
AcDbEntity
  8
PART_HOLES_LAYER_TOP
100
AcDbHatch
 10
0.0
 20
0.0
 30
0.0
210
0.0
220
0.0
230
1.0
  2
SOLID
 70
         1
 71
         1
 91
        1
 92
        1
 93
        1
 72
         2
 10
122.900004
 20
115.09999999999999
 40
1.3999999999999999
 50
0.0
 51
360.0
 73
         1
 97
        1
330
218
 75
         0
 76
         1
 98
        1
 10
0.0
 20
0.0
  0
ENDSEC
  0
SECTION
  2
OBJECTS
  0
DICTIONARY
  5
19
100
AcDbDictionary
  3
ACAD_GROUP
350
1A
  3
ACAD_MLINESTYLE
350
1B
  0
DICTIONARY
  5
1A
102
{ACAD_REACTORS
330
19
102
}
100
AcDbDictionary
  0
DICTIONARY
  5
1B
102
{ACAD_REACTORS
330
19
102
}
100
AcDbDictionary
  3
STANDARD
350
1C
  0
MLINESTYLE
  5
1C
102
{ACAD_REACTORS
330
1B
102
}
100
AcDbMlineStyle
  2
STANDARD
 70
         0
  3

 62
         0
 51
90.0
 52
90.0
 71
         2
 49
0.5
 62
       256
  6
BYLAYER
 49
-0.5
 62
       256
  6
BYLAYER
  0
DICTIONARY
  5
22
102
{ACAD_REACTORS
330
19
102
}
100
AcDbDictionary
  0
ENDSEC
  0
EOF
