  0
SECTION
  2
HEADER
  9
$ACADVER
  1
AC1014
  9
$ACADMAINTVER
 70
         0
  9
$DWGCODEPAGE
  3
ANSI_1252
  9
$INSBASE
 10
0.0
 20
0.0
 30
0.0
  9
$EXTMIN
 10
0.0
 20
0.0
 30
0.0
  9
$EXTMAX
 10
203.0
 20
142.0
 30
0.0
  9
$LIMMIN
 10
0.0
 20
0.0
  9
$LIMMAX
 10
0.0
 20
0.0
  9
$ORTHOMODE
 70
         0
  9
$REGENMODE
 70
         1
  9
$FILLMODE
 70
         1
  9
$QTEXTMODE
 70
         0
  9
$MIRRTEXT
 70
         1
  9
$DRAGMODE
 70
         2
  9
$LTSCALE
 40
1.0
  9
$OSMODE
 70
         0
  9
$ATTMODE
 70
         1
  9
$TEXTSIZE
 40
0.2
  9
$TRACEWID
 40
0.05
  9
$TEXTSTYLE
  7
STANDARD
  9
$CLAYER
  8
0
  9
$CELTYPE
  6
CONTINUOUS
  9
$CECOLOR
 62
       256
  9
$CELTSCALE
 40
1.0
  9
$DELOBJ
 70
         1
  9
$DISPSILH
 70
         0
  9
$DIMSCALE
 40
1.0
  9
$DIMASZ
 40
0.18
  9
$DIMEXO
 40
0.0625
  9
$DIMDLI
 40
0.38
  9
$DIMRND
 40
0.0
  9
$DIMDLE
 40
0.0
  9
$DIMEXE
 40
0.18
  9
$DIMTP
 40
0.0
  9
$DIMTM
 40
0.0
  9
$DIMTXT
 40
0.18
  9
$DIMCEN
 40
0.09
  9
$DIMTSZ
 40
0.0
  9
$DIMTOL
 70
         0
  9
$DIMLIM
 70
         0
  9
$DIMTIH
 70
         1
  9
$DIMTOH
 70
         1
  9
$DIMSE1
 70
         0
  9
$DIMSE2
 70
         0
  9
$DIMTAD
 70
         0
  9
$DIMZIN
 70
         0
  9
$DIMBLK
  1

  9
$DIMASO
 70
         1
  9
$DIMSHO
 70
         1
  9
$DIMPOST
  1

  9
$DIMAPOST
  1

  9
$DIMALT
 70
         0
  9
$DIMALTD
 70
         2
  9
$DIMALTF
 40
25.4
  9
$DIMLFAC
 40
1.0
  9
$DIMTOFL
 70
         0
  9
$DIMTVP
 40
0.0
  9
$DIMTIX
 70
         0
  9
$DIMSOXD
 70
         0
  9
$DIMSAH
 70
         0
  9
$DIMBLK1
  1

  9
$DIMBLK2
  1

  9
$DIMSTYLE
  2
STANDARD
  9
$DIMCLRD
 70
         0
  9
$DIMCLRE
 70
         0
  9
$DIMCLRT
 70
         0
  9
$DIMTFAC
 40
1.0
  9
$DIMGAP
 40
0.09
  9
$DIMJUST
 70
         0
  9
$DIMSD1
 70
         0
  9
$DIMSD2
 70
         0
  9
$DIMTOLJ
 70
         1
  9
$DIMTZIN
 70
         0
  9
$DIMALTZ
 70
         0
  9
$DIMALTTZ
 70
         0
  9
$DIMFIT
 70
         3
  9
$DIMUPT
 70
         0
  9
$DIMUNIT
 70
         2
  9
$DIMDEC
 70
         4
  9
$DIMTDEC
 70
         4
  9
$DIMALTU
 70
         2
  9
$DIMALTTD
 70
         2
  9
$DIMTXSTY
  7
STANDARD
  9
$DIMAUNIT
 70
         0
  9
$LUNITS
 70
         2
  9
$LUPREC
 70
         4
  9
$SKETCHINC
 40
0.1
  9
$FILLETRAD
 40
0.0
  9
$AUNITS
 70
         0
  9
$AUPREC
 70
         0
  9
$MENU
  1
acad
  9
$ELEVATION
 40
0.0
  9
$PELEVATION
 40
0.0
  9
$THICKNESS
 40
0.0
  9
$LIMCHECK
 70
         0
  9
$BLIPMODE
 70
         1
  9
$CHAMFERA
 40
0.0
  9
$CHAMFERB
 40
0.0
  9
$CHAMFERC
 40
0.0
  9
$CHAMFERD
 40
0.0
  9
$SKPOLY
 70
         0
  9
$TDCREATE
 40
2456261.775821759
  9
$TDUPDATE
 40
0.000000000
  9
$TDINDWG
 40
0.0000000000
  9
$TDUSRTIMER
 40
0.0000000000
  9
$USRTIMER
 70
         1
  9
$ANGBASE
 50
0.0
  9
$ANGDIR
 70
         0
  9
$PDMODE
 70
         0
  9
$PDSIZE
 40
0.0
  9
$PLINEWID
 40
0.0
  9
$COORDS
 70
         0
  9
$SPLFRAME
 70
         0
  9
$SPLINETYPE
 70
         6
  9
$SPLINESEGS
 70
         8
  9
$ATTDIA
 70
         0
  9
$ATTREQ
 70
         1
  9
$HANDLING
 70
         1
  9
$HANDSEED
  5
2A4
  9
$SURFTAB1
 70
         6
  9
$SURFTAB2
 70
         6
  9
$SURFTYPE
 70
         6
  9
$SURFU
 70
         6
  9
$SURFV
 70
         6
  9
$UCSNAME
  2

  9
$UCSORG
 10
0.0
 20
0.0
 30
0.0
  9
$UCSXDIR
 10
1.0
 20
0.0
 30
0.0
  9
$UCSYDIR
 10
0.0
 20
1.0
 30
0.0
  9
$PUCSNAME
  2

  9
$PUCSORG
 10
0.0
 20
0.0
 30
0.0
  9
$PUCSXDIR
 10
1.0
 20
0.0
 30
0.0
  9
$PUCSYDIR
 10
0.0
 20
1.0
 30
0.0
  9
$USERI1
 70
        -3
  9
$USERI2
 70
         0
  9
$USERI3
 70
         0
  9
$USERI4
 70
         0
  9
$USERI5
 70
         0
  9
$USERR1
 40
0.0
  9
$USERR2
 40
0.0
  9
$USERR3
 40
0.0
  9
$USERR4
 40
0.0
  9
$USERR5
 40
0.0
  9
$WORLDVIEW
 70
         1
  9
$SHADEDGE
 70
         3
  9
$SHADEDIF
 70
        70
  9
$TILEMODE
 70
         1
  9
$MAXACTVP
 70
        16
  9
$PINSBASE
 10
0.0
 20
0.0
 30
0.0
  9
$PLIMCHECK
 70
         0
  9
$PEXTMIN
 10
1.0000000000E+20
 20
1.0000000000E+20
 30
1.0000000000E+20
  9
$PEXTMAX
 10
-1.0000000000E+20
 20
-1.0000000000E+20
 30
-1.0000000000E+20
  9
$PLIMMIN
 10
0.0
 20
0.0
  9
$PLIMMAX
 10
12.0
 20
9.0
  9
$UNITMODE
 70
         0
  9
$VISRETAIN
 70
         0
  9
$PLINEGEN
 70
         1
  9
$PSLTSCALE
 70
         0
  9
$TREEDEPTH
 70
      3020
  9
$PICKSTYLE
 70
         1
  9
$CMLSTYLE
  2
STANDARD
  9
$CMLJUST
 70
         0
  9
$CMLSCALE
 40
1.0
  9
$PROXYGRAPHICS
 70
         0
  9
$MEASUREMENT
 70
         0
  0
ENDSEC
  0
SECTION
  2
CLASSES
  0
CLASS
  1
LWPOLYLINE
  2
AcDbPolyline
  3
"AutoCAD"
 90
        0
280
         0
281
         1
  0
CLASS
  1
IMAGE
  2
AcDbRasterImage
  3
ISM
 90
      127
280
         0
281
         1
  0
CLASS
  1
OLE2FRAME
  2
AcDbOle2Frame
  3
""
 90
        0
280
         0
281
         1
  0
CLASS
  1
HATCH
  2
AcDbHatch
  3
"ACAD_SEDONA"
 90
        0
280
         0
281
         1
  0
CLASS
  1
DICTIONARYVAR
  2
AcDbDictionaryVar
  3
"AutoCAD"
 90
        0
280
         0
281
         0
  0
CLASS
  1
RASTERVARIABLES
  2
AcDbRasterVariables
  3
ISM
 90
        0
280
         0
281
         0
  0
CLASS
  1
IMAGEDEF
  2
AcDbRasterImageDef
  3
ISM
 90
        0
280
         0
281
         0
  0
CLASS
  1
IMAGEDEF_REACTOR
  2
AcDbRasterImageDefReactor
  3
ISM
 90
        1
280
         0
281
         0
  0
CLASS
  1
IDBUFFER
  2
AcDbIdBuffer
  3
"Acad"
 90
        0
280
         0
281
         0
  0
CLASS
  1
SPATIAL_FILTER
  2
AcDbSpatialFilter
  3
"Acad"
 90
        0
280
         0
281
         0
  0
CLASS
  1
XRECORD
  2
AcDbXrecord
  3
"<Built In>"
 90
        0
280
         0
281
         0
  0
CLASS
  1
SORTENTSTABLE
  2
AcDbSortentsTable
  3
"AutoCAD"
 90
        0
280
         0
281
         0
  0
CLASS
  1
LAYER_INDEX
  2
AcDbLayerIndex
  3
"Acad"
 90
        0
280
         0
281
         0
  0
CLASS
  1
SPATIAL_INDEX
  2
AcDbSpatialIndex
  3
"Acad"
 90
        0
280
         0
281
         0
  0
CLASS
  1
OBJECT_PTR
  2
CAseDLPNTableRecord
  3
"ASE-LPNTableRecord"
 90
        1
280
         0
281
         0
  0
CLASS
  1
LAYOUT
  2
AcDbLayout
  3
"AutoCAD 2000"
 90
        0
280
         0
281
         0
  0
CLASS
  1
PLOTSETTINGS
  2
AcDbPlotSettings
  3
"AutoCAD 2000"
 90
        0
280
         0
281
         0
  0
CLASS
  1
ACDBDICTIONARYWDFLT
  2
AcDbDictionaryWithDefault
  3
"AutoCAD 2000"
 90
        0
280
         0
281
         0
  0
CLASS
  1
ACDBPLACEHOLDER
  2
AcDbPlaceHolder
  3
"AutoCAD 2000"
 90
        0
280
         0
281
         0
  0
CLASS
  1
VBA_PROJECT
  2
AcDbVbaProject
  3
"acadvba"
 90
        0
280
         0
281
         0
  0
CLASS
  1
WIPEOUT
  2
AcDbWipeout
  3
WipeOut|AutoCAD Express Tool|expresstools@autodesk.com
 90
      127
280
         0
281
         1
  0
CLASS
  1
WIPEOUTVARIABLES
  2
AcDbWipeoutVariables
  3
WipeOut|AutoCAD Express Tool|expresstools@autodesk.com
 90
        0
280
         0
281
         0
  0
CLASS
  1
RTEXT
  2
RText
  3
RText|AutoCAD Express Tool|expresstools@autodesk.com
 90
        0
280
         0
281
         1
  0
CLASS
  1
ARCALIGNEDTEXT
  2
AcDbArcAlignedText
  3
ATEXT|AutoCAD Express Tool|expresstools@autodesk.com
 90
        0
280
         0
281
         1
  0
ENDSEC
  0
SECTION
  2
TABLES
  0
TABLE
  2
VPORT
  5
7
100
AcDbSymbolTable
 70
         1
  0
VPORT
  5
15
100
AcDbSymbolTableRecord
100
AcDbViewportTableRecord
  2
*ACTIVE
 70
         0
 10
0.0
 20
0.0
 11
1.0
 21
1.0
 12
6.591288
 22
4.579184
 13
0.0
 23
0.0
 14
1.0
 24
1.0
 15
0.0
 25
0.0
 16
0.0
 26
0.0
 36
1.0
 17
0.0
 27
0.0
 37
0.0
 40
9.158369
 41
0.688564
 42
50.0
 43
0.0
 44
0.0
 50
0.0
 51
0.0
 71
         0
 72
       100
 73
         1
 74
         1
 75
         0
 76
         0
 77
         0
 78
         0
  0
ENDTAB
  0
TABLE
  2
LTYPE
  5
4
100
AcDbSymbolTable
 70
         3
  0
LTYPE
  5
11
100
AcDbSymbolTableRecord
100
AcDbLinetypeTableRecord
  2
BYBLOCK
 70
        64
  3

 72
        65
 73
         0
 40
0.0
  0
LTYPE
  5
12
100
AcDbSymbolTableRecord
100
AcDbLinetypeTableRecord
  2
BYLAYER
 70
        64
  3

 72
        65
 73
         0
 40
0.0
  0
LTYPE
  5
13
100
AcDbSymbolTableRecord
100
AcDbLinetypeTableRecord
  2
CONTINUOUS
 70
        64
  3
Solid line
 72
        65
 73
         0
 40
0.0
  0
ENDTAB
  0
TABLE
  2
LAYER
  5
2
100
AcDbSymbolTable
 70
         7
  0
LAYER
  5
14
100
AcDbSymbolTableRecord
100
AcDbLayerTableRecord
  2
0
 70
         0
 62
         7
  6
CONTINUOUS
  0
LAYER
  5
24
100
AcDbSymbolTableRecord
100
AcDbLayerTableRecord
  2
ASSEMBLY_OUTLINES_BTM
 70
         0
 62
       191
  6
CONTINUOUS
  0
LAYER
  5
25
100
AcDbSymbolTableRecord
100
AcDbLayerTableRecord
  2
ASSEMBLY_OUTLINES_TOP
 70
         0
 62
       102
  6
CONTINUOUS
  0
LAYER
  5
26
100
AcDbSymbolTableRecord
100
AcDbLayerTableRecord
  2
ASSEMBLY_REF_DES_BTM
 70
         0
 62
       191
  6
CONTINUOUS
  0
LAYER
  5
27
100
AcDbSymbolTableRecord
100
AcDbLayerTableRecord
  2
ASSEMBLY_REF_DES_TOP
 70
         0
 62
       102
  6
CONTINUOUS
  0
LAYER
  5
28
100
AcDbSymbolTableRecord
100
AcDbLayerTableRecord
  2
BOARD_OUTLINE
 70
         0
 62
        10
  6
CONTINUOUS
  0
LAYER
  5
29
100
AcDbSymbolTableRecord
100
AcDbLayerTableRecord
  2
MOUNTING_HOLES_LAYER_TOP
 70
         0
 62
        42
  6
CONTINUOUS
  0
ENDTAB
  0
TABLE
  2
STYLE
  5
3
100
AcDbSymbolTable
 70
         3
  0
STYLE
  5
17
100
AcDbSymbolTableRecord
100
AcDbTextStyleTableRecord
  2
STANDARD
 70
         0
 40
0.0
 41
1.0
 50
0.0
 71
         0
 42
0.0
  3
txt
  4

  0
STYLE
  5
1F1
100
AcDbSymbolTableRecord
100
AcDbTextStyleTableRecord
  2
GOST_TYPE_B
 70
         0
 40
0.0
 41
1.0
 50
0.0
 71
         0
 42
0.0
  3
gost_0.ttf
  4

  0
STYLE
  5
23C
100
AcDbSymbolTableRecord
100
AcDbTextStyleTableRecord
  2
VERIBEST_GERBER_0
 70
         0
 40
0.0
 41
1.0
 50
0.0
 71
         0
 42
0.0
  3
gost_0.ttf
  4

  0
ENDTAB
  0
TABLE
  2
VIEW
  5
5
100
AcDbSymbolTable
 70
         0
  0
ENDTAB
  0
TABLE
  2
UCS
  5
6
100
AcDbSymbolTable
 70
         0
  0
ENDTAB
  0
TABLE
  2
APPID
  5
8
100
AcDbSymbolTable
 70
         1
  0
APPID
  5
16
100
AcDbSymbolTableRecord
100
AcDbRegAppTableRecord
  2
ACAD
 70
         0
  0
ENDTAB
  0
TABLE
  2
DIMSTYLE
  5
9
100
AcDbSymbolTable
 70
         1
  0
DIMSTYLE
105
18
100
AcDbSymbolTableRecord
100
AcDbDimStyleTableRecord
  2
STANDARD
 70
         0
  3

  4

  5

  6

  7

 40
1.0
 41
0.18
 42
0.0625
 43
0.38
 44
0.18
 45
0.0
 46
0.0
 47
0.0
 48
0.0
 71
         0
 72
         0
 73
         1
 74
         1
 75
         0
 76
         0
 77
         0
 78
         0
140
0.18
141
0.09
142
0.0
143
25.4
144
1.0
145
0.0
146
1.0
147
0.09
170
         0
171
         2
172
         0
173
         0
174
         0
175
         0
176
         0
177
         0
178
         0
270
         2
271
         4
272
         4
273
         2
274
         2
275
         0
280
         0
281
         0
282
         0
283
         1
284
         0
285
         0
286
         0
287
         3
288
         0
340
17
  0
ENDTAB
  0
TABLE
  2
BLOCK_RECORD
  5
1
100
AcDbSymbolTable
 70
         0
  0
BLOCK_RECORD
  5
A
100
AcDbSymbolTableRecord
100
AcDbBlockTableRecord
  2
*MODEL_SPACE
  0
BLOCK_RECORD
  5
B
100
AcDbSymbolTableRecord
100
AcDbBlockTableRecord
  2
*PAPER_SPACE
  0
ENDTAB
  0
ENDSEC
  0
SECTION
  2
BLOCKS
  0
BLOCK
  5
D
100
AcDbEntity
  8
0
100
AcDbBlockBegin
  2
*MODEL_SPACE
 70
         0
 10
0.0
 20
0.0
 30
0.0
  3
*MODEL_SPACE
  1

  0
ENDBLK
  5
E
100
AcDbEntity
  8
0
100
AcDbBlockEnd
  0
BLOCK
  5
F
100
AcDbEntity
 67
         1
  8
0
100
AcDbBlockBegin
  2
*PAPER_SPACE
 70
         0
 10
0.0
 20
0.0
 30
0.0
  3
*PAPER_SPACE
  1

  0
ENDBLK
  5
10
100
AcDbEntity
 67
         1
  8
0
100
AcDbBlockEnd
  0
ENDSEC
  0
SECTION
  2
ENTITIES
  0
LWPOLYLINE
  5
2A
100
AcDbEntity
  8
ASSEMBLY_OUTLINES_BTM
100
AcDbPolyline
 90
        4
 70
         1
 43
0.1
 10
96.3
 20
18.25
 10
96.3
 20
22.35
 10
122.3
 20
22.35
 10
122.3
 20
18.25
  0
LWPOLYLINE
  5
2B
100
AcDbEntity
  8
ASSEMBLY_OUTLINES_BTM
100
AcDbPolyline
 90
        2
 70
         0
 43
0.2
 10
100.8
 20
17.6
 10
104.0004
 20
17.6
  0
LWPOLYLINE
  5
2C
100
AcDbEntity
  8
ASSEMBLY_OUTLINES_BTM
100
AcDbPolyline
 90
        2
 70
         0
 43
0.2
 10
105.0005
 20
17.6
 10
108.2009
 20
17.6
  0
LWPOLYLINE
  5
2D
100
AcDbEntity
  8
ASSEMBLY_OUTLINES_BTM
100
AcDbPolyline
 90
        2
 70
         0
 43
0.2
 10
109.201
 20
17.6
 10
112.4014
 20
17.6
  0
LWPOLYLINE
  5
2E
100
AcDbEntity
  8
ASSEMBLY_OUTLINES_BTM
100
AcDbPolyline
 90
        2
 70
         0
 43
0.2
 10
113.4015
 20
17.6
 10
116.6019
 20
17.6
  0
LWPOLYLINE
  5
2F
100
AcDbEntity
  8
ASSEMBLY_OUTLINES_BTM
100
AcDbPolyline
 90
        2
 70
         0
 43
0.2
 10
117.602
 20
17.6
 10
118.3
 20
17.6
  0
LWPOLYLINE
  5
30
100
AcDbEntity
  8
ASSEMBLY_OUTLINES_BTM
100
AcDbPolyline
 90
        2
 70
         0
 43
0.2
 10
119.0
 20
17.3
 10
119.0
 20
18.2
  0
LWPOLYLINE
  5
31
100
AcDbEntity
  8
ASSEMBLY_OUTLINES_BTM
100
AcDbPolyline
 90
        2
 70
         0
 43
0.2
 10
119.8
 20
17.3
 10
119.8
 20
18.2
  0
LWPOLYLINE
  5
32
100
AcDbEntity
  8
ASSEMBLY_OUTLINES_BTM
100
AcDbPolyline
 90
        2
 70
         0
 43
0.2
 10
120.6
 20
17.3
 10
120.6
 20
18.2
  0
LWPOLYLINE
  5
33
100
AcDbEntity
  8
ASSEMBLY_OUTLINES_BTM
100
AcDbPolyline
 90
        2
 70
         0
 43
0.2
 10
100.1
 20
17.3
 10
100.1
 20
18.2
  0
LWPOLYLINE
  5
34
100
AcDbEntity
  8
ASSEMBLY_OUTLINES_BTM
100
AcDbPolyline
 90
        2
 70
         0
 43
0.2
 10
99.3
 20
17.3
 10
99.3
 20
18.2
  0
LWPOLYLINE
  5
35
100
AcDbEntity
  8
ASSEMBLY_OUTLINES_BTM
100
AcDbPolyline
 90
        2
 70
         0
 43
0.2
 10
98.5
 20
17.3
 10
98.5
 20
18.2
  0
LWPOLYLINE
  5
36
100
AcDbEntity
  8
ASSEMBLY_OUTLINES_BTM
100
AcDbPolyline
 90
        4
 70
         1
 43
0.1
 10
20.1
 20
10.9
 10
20.1
 20
15.9
 10
24.1
 20
15.9
 10
24.1
 20
10.9
  0
LWPOLYLINE
  5
37
100
AcDbEntity
  8
ASSEMBLY_OUTLINES_BTM
100
AcDbPolyline
 90
        2
 70
         1
 43
0.1
 10
22.6
 20
14.9
 42
-1.0
 10
23.6
 20
14.9
 42
-1.0
  0
LWPOLYLINE
  5
38
100
AcDbEntity
  8
ASSEMBLY_OUTLINES_BTM
100
AcDbPolyline
 90
        4
 70
         1
 43
0.1
 10
26.1
 20
9.95
 10
26.1
 20
13.25
 10
27.9
 20
13.25
 10
27.9
 20
9.95
  0
LWPOLYLINE
  5
39
100
AcDbEntity
  8
ASSEMBLY_OUTLINES_BTM
100
AcDbPolyline
 90
        4
 70
         1
 43
0.1
 10
29.5
 20
14.5
 10
29.5
 20
15.9
 10
32.5
 20
15.9
 10
32.5
 20
14.5
  0
LWPOLYLINE
  5
3A
100
AcDbEntity
  8
ASSEMBLY_OUTLINES_BTM
100
AcDbPolyline
 90
        2
 70
         0
 43
0.1
 10
29.6
 20
15.9
 10
29.5
 20
15.8
  0
LWPOLYLINE
  5
3B
100
AcDbEntity
  8
ASSEMBLY_OUTLINES_BTM
100
AcDbPolyline
 90
        2
 70
         0
 43
0.1
 10
29.7
 20
15.9
 10
29.5
 20
15.7
  0
LWPOLYLINE
  5
3C
100
AcDbEntity
  8
ASSEMBLY_OUTLINES_BTM
100
AcDbPolyline
 90
        2
 70
         0
 43
0.1
 10
29.8
 20
15.9
 10
29.5
 20
15.6
  0
LWPOLYLINE
  5
3D
100
AcDbEntity
  8
ASSEMBLY_OUTLINES_BTM
100
AcDbPolyline
 90
        2
 70
         0
 43
0.1
 10
29.9
 20
15.9
 10
29.5
 20
15.5
  0
LWPOLYLINE
  5
3E
100
AcDbEntity
  8
ASSEMBLY_OUTLINES_BTM
100
AcDbPolyline
 90
        2
 70
         0
 43
0.1
 10
30.0
 20
15.9
 10
29.5
 20
15.4
  0
LWPOLYLINE
  5
3F
100
AcDbEntity
  8
ASSEMBLY_OUTLINES_BTM
100
AcDbPolyline
 90
        2
 70
         0
 43
0.1
 10
30.1
 20
15.9
 10
29.5
 20
15.3
  0
LWPOLYLINE
  5
40
100
AcDbEntity
  8
ASSEMBLY_OUTLINES_BTM
100
AcDbPolyline
 90
        4
 70
         1
 43
0.1
 10
64.25
 20
18.8
 10
64.25
 20
21.8
 10
67.95
 20
21.8
 10
67.95
 20
18.8
  0
LWPOLYLINE
  5
41
100
AcDbEntity
  8
ASSEMBLY_OUTLINES_BTM
100
AcDbPolyline
 90
        2
 70
         0
 43
0.1
 10
64.35
 20
21.8
 10
64.35
 20
18.8
  0
LWPOLYLINE
  5
42
100
AcDbEntity
  8
ASSEMBLY_OUTLINES_BTM
100
AcDbPolyline
 90
        2
 70
         0
 43
0.1
 10
64.45
 20
21.8
 10
64.45
 20
18.8
  0
LWPOLYLINE
  5
43
100
AcDbEntity
  8
ASSEMBLY_OUTLINES_BTM
100
AcDbPolyline
 90
        2
 70
         0
 43
0.1
 10
64.55
 20
21.8
 10
64.55
 20
18.8
  0
LWPOLYLINE
  5
44
100
AcDbEntity
  8
ASSEMBLY_OUTLINES_BTM
100
AcDbPolyline
 90
        2
 70
         0
 43
0.1
 10
64.65
 20
21.8
 10
64.65
 20
18.8
  0
LWPOLYLINE
  5
45
100
AcDbEntity
  8
ASSEMBLY_OUTLINES_BTM
100
AcDbPolyline
 90
        2
 70
         0
 43
0.1
 10
64.75
 20
21.8
 10
64.75
 20
18.8
  0
LWPOLYLINE
  5
46
100
AcDbEntity
  8
ASSEMBLY_OUTLINES_BTM
100
AcDbPolyline
 90
        2
 70
         0
 43
0.1
 10
64.85
 20
21.8
 10
64.85
 20
18.8
  0
LWPOLYLINE
  5
47
100
AcDbEntity
  8
ASSEMBLY_OUTLINES_BTM
100
AcDbPolyline
 90
        2
 70
         0
 43
0.1
 10
64.95
 20
21.8
 10
64.95
 20
18.8
  0
LWPOLYLINE
  5
48
100
AcDbEntity
  8
ASSEMBLY_OUTLINES_BTM
100
AcDbPolyline
 90
        2
 70
         0
 43
0.1
 10
65.05
 20
21.8
 10
65.05
 20
18.8
  0
LWPOLYLINE
  5
49
100
AcDbEntity
  8
ASSEMBLY_OUTLINES_BTM
100
AcDbPolyline
 90
        4
 70
         1
 43
0.1
 10
67.35
 20
35.6
 10
67.35
 20
37.4
 10
70.65
 20
37.4
 10
70.65
 20
35.6
  0
LWPOLYLINE
  5
4A
100
AcDbEntity
  8
ASSEMBLY_OUTLINES_BTM
100
AcDbPolyline
 90
        4
 70
         1
 43
0.1
 10
25.25
 20
26.1
 10
25.25
 20
27.9
 10
28.55
 20
27.9
 10
28.55
 20
26.1
  0
LWPOLYLINE
  5
4B
100
AcDbEntity
  8
ASSEMBLY_OUTLINES_BTM
100
AcDbPolyline
 90
        4
 70
         1
 43
0.1
 10
43.9
 20
50.95
 10
43.9
 20
54.25
 10
45.7
 20
54.25
 10
45.7
 20
50.95
  0
LWPOLYLINE
  5
4C
100
AcDbEntity
  8
ASSEMBLY_OUTLINES_BTM
100
AcDbPolyline
 90
        4
 70
         1
 43
0.1
 10
16.0
 20
14.15
 10
16.0
 20
17.45
 10
17.8
 20
17.45
 10
17.8
 20
14.15
  0
LWPOLYLINE
  5
4D
100
AcDbEntity
  8
ASSEMBLY_OUTLINES_BTM
100
AcDbPolyline
 90
        4
 70
         1
 43
0.1
 10
14.1
 20
14.15
 10
14.1
 20
17.45
 10
15.9
 20
17.45
 10
15.9
 20
14.15
  0
LWPOLYLINE
  5
4E
100
AcDbEntity
  8
ASSEMBLY_OUTLINES_BTM
100
AcDbPolyline
 90
        4
 70
         1
 43
0.1
 10
63.1
 20
45.95
 10
63.1
 20
49.25
 10
64.9
 20
49.25
 10
64.9
 20
45.95
  0
LWPOLYLINE
  5
4F
100
AcDbEntity
  8
ASSEMBLY_OUTLINES_BTM
100
AcDbPolyline
 90
        4
 70
         1
 43
0.1
 10
63.55
 20
43.3
 10
63.55
 20
45.1
 10
66.85
 20
45.1
 10
66.85
 20
43.3
  0
LWPOLYLINE
  5
50
100
AcDbEntity
  8
ASSEMBLY_OUTLINES_BTM
100
AcDbPolyline
 90
        4
 70
         1
 43
0.1
 10
98.85
 20
46.2
 10
98.85
 20
48.0
 10
102.15
 20
48.0
 10
102.15
 20
46.2
  0
LWPOLYLINE
  5
51
100
AcDbEntity
  8
ASSEMBLY_OUTLINES_BTM
100
AcDbPolyline
 90
        4
 70
         1
 43
0.1
 10
102.1
 20
98.85
 10
102.1
 20
102.15
 10
103.9
 20
102.15
 10
103.9
 20
98.85
  0
LWPOLYLINE
  5
52
100
AcDbEntity
  8
ASSEMBLY_OUTLINES_BTM
100
AcDbPolyline
 90
        4
 70
         1
 43
0.1
 10
17.15
 20
48.4
 10
17.15
 20
50.2
 10
20.45
 20
50.2
 10
20.45
 20
48.4
  0
LWPOLYLINE
  5
53
100
AcDbEntity
  8
ASSEMBLY_OUTLINES_BTM
100
AcDbPolyline
 90
        4
 70
         1
 43
0.1
 10
21.55
 20
26.1
 10
21.55
 20
27.9
 10
24.85
 20
27.9
 10
24.85
 20
26.1
  0
LWPOLYLINE
  5
54
100
AcDbEntity
  8
ASSEMBLY_OUTLINES_BTM
100
AcDbPolyline
 90
        4
 70
         1
 43
0.1
 10
186.65
 20
16.8
 10
186.65
 20
18.6
 10
189.95
 20
18.6
 10
189.95
 20
16.8
  0
LWPOLYLINE
  5
55
100
AcDbEntity
  8
ASSEMBLY_OUTLINES_BTM
100
AcDbPolyline
 90
        4
 70
         1
 43
0.1
 10
129.2
 20
50.45
 10
129.2
 20
53.75
 10
131.0
 20
53.75
 10
131.0
 20
50.45
  0
LWPOLYLINE
  5
56
100
AcDbEntity
  8
ASSEMBLY_OUTLINES_BTM
100
AcDbPolyline
 90
        4
 70
         1
 43
0.1
 10
147.05
 20
45.8
 10
147.05
 20
47.6
 10
150.35
 20
47.6
 10
150.35
 20
45.8
  0
LWPOLYLINE
  5
57
100
AcDbEntity
  8
ASSEMBLY_OUTLINES_BTM
100
AcDbPolyline
 90
        6
 70
         1
 43
0.1
 10
31.65
 20
56.7
 10
30.0
 20
55.05
 10
30.0
 20
50.1
 10
36.6
 20
50.1
 10
36.6
 20
55.05
 10
34.95
 20
56.7
  0
LWPOLYLINE
  5
58
100
AcDbEntity
  8
ASSEMBLY_OUTLINES_BTM
100
AcDbPolyline
 90
        4
 70
         1
 43
0.1
 10
16.8
 20
33.25
 10
16.8
 20
36.55
 10
18.6
 20
36.55
 10
18.6
 20
33.25
  0
LWPOLYLINE
  5
59
100
AcDbEntity
  8
ASSEMBLY_OUTLINES_BTM
100
AcDbPolyline
 90
        6
 70
         1
 43
0.1
 10
35.75
 20
32.7
 10
37.4
 20
34.35
 10
37.4
 20
39.3
 10
30.8
 20
39.3
 10
30.8
 20
34.35
 10
32.45
 20
32.7
  0
LWPOLYLINE
  5
5A
100
AcDbEntity
  8
ASSEMBLY_OUTLINES_BTM
100
AcDbPolyline
 90
        4
 70
         1
 43
0.1
 10
20.8
 20
50.8
 10
20.8
 20
55.8
 10
24.8
 20
55.8
 10
24.8
 20
50.8
  0
LWPOLYLINE
  5
5B
100
AcDbEntity
  8
ASSEMBLY_OUTLINES_BTM
100
AcDbPolyline
 90
        2
 70
         1
 43
0.1
 10
23.3
 20
54.8
 42
-1.0
 10
24.3
 20
54.8
 42
-1.0
  0
LWPOLYLINE
  5
5C
100
AcDbEntity
  8
ASSEMBLY_OUTLINES_BTM
100
AcDbPolyline
 90
        4
 70
         1
 43
0.1
 10
112.3
 20
122.65
 10
112.3
 20
125.95
 10
114.1
 20
125.95
 10
114.1
 20
122.65
  0
LWPOLYLINE
  5
5D
100
AcDbEntity
  8
ASSEMBLY_OUTLINES_BTM
100
AcDbPolyline
 90
        4
 70
         1
 43
0.1
 10
97.15
 20
11.7
 10
97.15
 20
13.5
 10
100.45
 20
13.5
 10
100.45
 20
11.7
  0
LWPOLYLINE
  5
5E
100
AcDbEntity
  8
ASSEMBLY_OUTLINES_BTM
100
AcDbPolyline
 90
        4
 70
         1
 43
0.1
 10
21.4
 20
29.7
 10
21.4
 20
34.7
 10
25.4
 20
34.7
 10
25.4
 20
29.7
  0
LWPOLYLINE
  5
5F
100
AcDbEntity
  8
ASSEMBLY_OUTLINES_BTM
100
AcDbPolyline
 90
        2
 70
         1
 43
0.1
 10
23.9
 20
33.7
 42
-1.0
 10
24.9
 20
33.7
 42
-1.0
  0
LWPOLYLINE
  5
60
100
AcDbEntity
  8
ASSEMBLY_OUTLINES_BTM
100
AcDbPolyline
 90
        4
 70
         1
 43
0.1
 10
130.8
 20
43.15
 10
130.8
 20
46.45
 10
132.6
 20
46.45
 10
132.6
 20
43.15
  0
LWPOLYLINE
  5
61
100
AcDbEntity
  8
ASSEMBLY_OUTLINES_BTM
100
AcDbPolyline
 90
        4
 70
         1
 43
0.1
 10
189.65
 20
52.3
 10
189.65
 20
54.1
 10
192.95
 20
54.1
 10
192.95
 20
52.3
  0
LWPOLYLINE
  5
62
100
AcDbEntity
  8
ASSEMBLY_OUTLINES_BTM
100
AcDbPolyline
 90
        2
 70
         0
 43
0.1
 10
105.6
 20
10.1
 10
105.7
 20
10.0
  0
LWPOLYLINE
  5
63
100
AcDbEntity
  8
ASSEMBLY_OUTLINES_BTM
100
AcDbPolyline
 90
        2
 70
         0
 43
0.1
 10
105.6
 20
10.2
 10
105.8
 20
10.0
  0
LWPOLYLINE
  5
64
100
AcDbEntity
  8
ASSEMBLY_OUTLINES_BTM
100
AcDbPolyline
 90
        2
 70
         0
 43
0.1
 10
105.6
 20
10.3
 10
105.9
 20
10.0
  0
LWPOLYLINE
  5
65
100
AcDbEntity
  8
ASSEMBLY_OUTLINES_BTM
100
AcDbPolyline
 90
        2
 70
         0
 43
0.1
 10
105.6
 20
10.4
 10
106.0
 20
10.0
  0
LWPOLYLINE
  5
66
100
AcDbEntity
  8
ASSEMBLY_OUTLINES_BTM
100
AcDbPolyline
 90
        2
 70
         0
 43
0.1
 10
105.6
 20
10.5
 10
106.1
 20
10.0
  0
LWPOLYLINE
  5
67
100
AcDbEntity
  8
ASSEMBLY_OUTLINES_BTM
100
AcDbPolyline
 90
        2
 70
         0
 43
0.1
 10
105.6
 20
10.6
 10
106.2
 20
10.0
  0
LWPOLYLINE
  5
68
100
AcDbEntity
  8
ASSEMBLY_OUTLINES_BTM
100
AcDbPolyline
 90
        4
 70
         1
 43
0.1
 10
105.6
 20
10.0
 10
105.6
 20
13.0
 10
107.0
 20
13.0
 10
107.0
 20
10.0
  0
LWPOLYLINE
  5
69
100
AcDbEntity
  8
ASSEMBLY_OUTLINES_BTM
100
AcDbPolyline
 90
        4
 70
         1
 43
0.1
 10
108.25
 20
46.2
 10
108.25
 20
48.0
 10
111.55
 20
48.0
 10
111.55
 20
46.2
  0
LWPOLYLINE
  5
6A
100
AcDbEntity
  8
ASSEMBLY_OUTLINES_BTM
100
AcDbPolyline
 90
        6
 70
         1
 43
0.1
 10
88.35
 20
53.2
 10
90.0
 20
54.85
 10
90.0
 20
59.8
 10
83.4
 20
59.8
 10
83.4
 20
54.85
 10
85.05
 20
53.2
  0
LWPOLYLINE
  5
6B
100
AcDbEntity
  8
ASSEMBLY_OUTLINES_BTM
100
AcDbPolyline
 90
        4
 70
         1
 43
0.1
 10
14.55
 20
6.3
 10
14.55
 20
8.1
 10
17.85
 20
8.1
 10
17.85
 20
6.3
  0
LWPOLYLINE
  5
6C
100
AcDbEntity
  8
ASSEMBLY_OUTLINES_BTM
100
AcDbPolyline
 90
        4
 70
         1
 43
0.1
 10
42.2
 20
28.75
 10
42.2
 20
32.45
 10
45.2
 20
32.45
 10
45.2
 20
28.75
  0
LWPOLYLINE
  5
6D
100
AcDbEntity
  8
ASSEMBLY_OUTLINES_BTM
100
AcDbPolyline
 90
        2
 70
         0
 43
0.1
 10
42.2
 20
28.85
 10
45.2
 20
28.85
  0
LWPOLYLINE
  5
6E
100
AcDbEntity
  8
ASSEMBLY_OUTLINES_BTM
100
AcDbPolyline
 90
        2
 70
         0
 43
0.1
 10
42.2
 20
28.95
 10
45.2
 20
28.95
  0
LWPOLYLINE
  5
6F
100
AcDbEntity
  8
ASSEMBLY_OUTLINES_BTM
100
AcDbPolyline
 90
        2
 70
         0
 43
0.1
 10
42.2
 20
29.05
 10
45.2
 20
29.05
  0
LWPOLYLINE
  5
70
100
AcDbEntity
  8
ASSEMBLY_OUTLINES_BTM
100
AcDbPolyline
 90
        2
 70
         0
 43
0.1
 10
42.2
 20
29.15
 10
45.2
 20
29.15
  0
LWPOLYLINE
  5
71
100
AcDbEntity
  8
ASSEMBLY_OUTLINES_BTM
100
AcDbPolyline
 90
        2
 70
         0
 43
0.1
 10
42.2
 20
29.25
 10
45.2
 20
29.25
  0
LWPOLYLINE
  5
72
100
AcDbEntity
  8
ASSEMBLY_OUTLINES_BTM
100
AcDbPolyline
 90
        2
 70
         0
 43
0.1
 10
42.2
 20
29.35
 10
45.2
 20
29.35
  0
LWPOLYLINE
  5
73
100
AcDbEntity
  8
ASSEMBLY_OUTLINES_BTM
100
AcDbPolyline
 90
        2
 70
         0
 43
0.1
 10
42.2
 20
29.45
 10
45.2
 20
29.45
  0
LWPOLYLINE
  5
74
100
AcDbEntity
  8
ASSEMBLY_OUTLINES_BTM
100
AcDbPolyline
 90
        2
 70
         0
 43
0.1
 10
42.2
 20
29.55
 10
45.2
 20
29.55
  0
LWPOLYLINE
  5
75
100
AcDbEntity
  8
ASSEMBLY_OUTLINES_BTM
100
AcDbPolyline
 90
        4
 70
         1
 43
0.1
 10
23.75
 20
6.9
 10
23.75
 20
8.7
 10
27.05
 20
8.7
 10
27.05
 20
6.9
  0
LWPOLYLINE
  5
76
100
AcDbEntity
  8
ASSEMBLY_OUTLINES_BTM
100
AcDbPolyline
 90
        6
 70
         1
 43
0.1
 10
15.15
 20
55.3
 10
16.8
 20
56.95
 10
16.8
 20
61.9
 10
10.2
 20
61.9
 10
10.2
 20
56.95
 10
11.85
 20
55.3
  0
LWPOLYLINE
  5
77
100
AcDbEntity
  8
ASSEMBLY_OUTLINES_BTM
100
AcDbPolyline
 90
        4
 70
         1
 43
0.1
 10
136.85
 20
11.0
 10
136.85
 20
12.8
 10
140.15
 20
12.8
 10
140.15
 20
11.0
  0
LWPOLYLINE
  5
78
100
AcDbEntity
  8
ASSEMBLY_OUTLINES_BTM
100
AcDbPolyline
 90
        4
 70
         1
 43
0.1
 10
98.65
 20
89.7
 10
98.65
 20
95.9
 10
112.75
 20
95.9
 10
112.75
 20
89.7
  0
LWPOLYLINE
  5
79
100
AcDbEntity
  8
ASSEMBLY_OUTLINES_BTM
100
AcDbPolyline
 90
        2
 70
         1
 43
0.1
 10
99.15
 20
94.9
 42
-1.0
 10
100.15
 20
94.9
 42
-1.0
  0
LWPOLYLINE
  5
7A
100
AcDbEntity
  8
ASSEMBLY_OUTLINES_BTM
100
AcDbPolyline
 90
        4
 70
         1
 43
0.1
 10
141.55
 20
13.0
 10
141.55
 20
14.8
 10
144.85
 20
14.8
 10
144.85
 20
13.0
  0
LWPOLYLINE
  5
7B
100
AcDbEntity
  8
ASSEMBLY_OUTLINES_BTM
100
AcDbPolyline
 90
        2
 70
         0
 43
0.1
 10
27.4
 20
34.7
 10
27.3
 20
34.6
  0
LWPOLYLINE
  5
7C
100
AcDbEntity
  8
ASSEMBLY_OUTLINES_BTM
100
AcDbPolyline
 90
        2
 70
         0
 43
0.1
 10
27.5
 20
34.7
 10
27.3
 20
34.5
  0
LWPOLYLINE
  5
7D
100
AcDbEntity
  8
ASSEMBLY_OUTLINES_BTM
100
AcDbPolyline
 90
        2
 70
         0
 43
0.1
 10
27.6
 20
34.7
 10
27.3
 20
34.4
  0
LWPOLYLINE
  5
7E
100
AcDbEntity
  8
ASSEMBLY_OUTLINES_BTM
100
AcDbPolyline
 90
        2
 70
         0
 43
0.1
 10
27.7
 20
34.7
 10
27.3
 20
34.3
  0
LWPOLYLINE
  5
7F
100
AcDbEntity
  8
ASSEMBLY_OUTLINES_BTM
100
AcDbPolyline
 90
        2
 70
         0
 43
0.1
 10
27.8
 20
34.7
 10
27.3
 20
34.2
  0
LWPOLYLINE
  5
80
100
AcDbEntity
  8
ASSEMBLY_OUTLINES_BTM
100
AcDbPolyline
 90
        2
 70
         0
 43
0.1
 10
27.9
 20
34.7
 10
27.3
 20
34.1
  0
LWPOLYLINE
  5
81
100
AcDbEntity
  8
ASSEMBLY_OUTLINES_BTM
100
AcDbPolyline
 90
        4
 70
         1
 43
0.1
 10
27.3
 20
33.3
 10
27.3
 20
34.7
 10
30.3
 20
34.7
 10
30.3
 20
33.3
  0
LWPOLYLINE
  5
82
100
AcDbEntity
  8
ASSEMBLY_OUTLINES_BTM
100
AcDbPolyline
 90
        4
 70
         1
 43
0.1
 10
103.35
 20
46.2
 10
103.35
 20
48.0
 10
106.65
 20
48.0
 10
106.65
 20
46.2
  0
LWPOLYLINE
  5
83
100
AcDbEntity
  8
ASSEMBLY_OUTLINES_BTM
100
AcDbPolyline
 90
        4
 70
         1
 43
0.1
 10
128.7
 20
43.15
 10
128.7
 20
46.45
 10
130.5
 20
46.45
 10
130.5
 20
43.15
  0
LWPOLYLINE
  5
84
100
AcDbEntity
  8
ASSEMBLY_OUTLINES_BTM
100
AcDbPolyline
 90
        4
 70
         1
 43
0.1
 10
59.35
 20
58.0
 10
59.35
 20
59.8
 10
62.65
 20
59.8
 10
62.65
 20
58.0
  0
LWPOLYLINE
  5
85
100
AcDbEntity
  8
ASSEMBLY_OUTLINES_BTM
100
AcDbPolyline
 90
        4
 70
         1
 43
0.1
 10
16.35
 20
28.2
 10
16.35
 20
30.0
 10
19.65
 20
30.0
 10
19.65
 20
28.2
  0
LWPOLYLINE
  5
86
100
AcDbEntity
  8
ASSEMBLY_OUTLINES_BTM
100
AcDbPolyline
 90
        4
 70
         1
 43
0.1
 10
96.1
 20
94.15
 10
96.1
 20
97.45
 10
97.9
 20
97.45
 10
97.9
 20
94.15
  0
LWPOLYLINE
  5
87
100
AcDbEntity
  8
ASSEMBLY_OUTLINES_BTM
100
AcDbPolyline
 90
        4
 70
         1
 43
0.1
 10
159.55
 20
44.4
 10
159.55
 20
46.2
 10
162.85
 20
46.2
 10
162.85
 20
44.4
  0
LWPOLYLINE
  5
88
100
AcDbEntity
  8
ASSEMBLY_OUTLINES_BTM
100
AcDbPolyline
 90
        4
 70
         1
 43
0.1
 10
63.75
 20
35.6
 10
63.75
 20
37.4
 10
67.05
 20
37.4
 10
67.05
 20
35.6
  0
LWPOLYLINE
  5
89
100
AcDbEntity
  8
ASSEMBLY_OUTLINES_BTM
100
AcDbPolyline
 90
        4
 70
         1
 43
0.1
 10
13.35
 20
43.2
 10
13.35
 20
46.2
 10
17.05
 20
46.2
 10
17.05
 20
43.2
  0
LWPOLYLINE
  5
8A
100
AcDbEntity
  8
ASSEMBLY_OUTLINES_BTM
100
AcDbPolyline
 90
        2
 70
         0
 43
0.1
 10
13.45
 20
46.2
 10
13.45
 20
43.2
  0
LWPOLYLINE
  5
8B
100
AcDbEntity
  8
ASSEMBLY_OUTLINES_BTM
100
AcDbPolyline
 90
        2
 70
         0
 43
0.1
 10
13.55
 20
46.2
 10
13.55
 20
43.2
  0
LWPOLYLINE
  5
8C
100
AcDbEntity
  8
ASSEMBLY_OUTLINES_BTM
100
AcDbPolyline
 90
        2
 70
         0
 43
0.1
 10
13.65
 20
46.2
 10
13.65
 20
43.2
  0
LWPOLYLINE
  5
8D
100
AcDbEntity
  8
ASSEMBLY_OUTLINES_BTM
100
AcDbPolyline
 90
        2
 70
         0
 43
0.1
 10
13.75
 20
46.2
 10
13.75
 20
43.2
  0
LWPOLYLINE
  5
8E
100
AcDbEntity
  8
ASSEMBLY_OUTLINES_BTM
100
AcDbPolyline
 90
        2
 70
         0
 43
0.1
 10
13.85
 20
46.2
 10
13.85
 20
43.2
  0
LWPOLYLINE
  5
8F
100
AcDbEntity
  8
ASSEMBLY_OUTLINES_BTM
100
AcDbPolyline
 90
        2
 70
         0
 43
0.1
 10
13.95
 20
46.2
 10
13.95
 20
43.2
  0
LWPOLYLINE
  5
90
100
AcDbEntity
  8
ASSEMBLY_OUTLINES_BTM
100
AcDbPolyline
 90
        2
 70
         0
 43
0.1
 10
14.05
 20
46.2
 10
14.05
 20
43.2
  0
LWPOLYLINE
  5
91
100
AcDbEntity
  8
ASSEMBLY_OUTLINES_BTM
100
AcDbPolyline
 90
        2
 70
         0
 43
0.1
 10
14.15
 20
46.2
 10
14.15
 20
43.2
  0
LWPOLYLINE
  5
92
100
AcDbEntity
  8
ASSEMBLY_OUTLINES_BTM
100
AcDbPolyline
 90
        4
 70
         1
 43
0.1
 10
28.85
 20
26.1
 10
28.85
 20
27.9
 10
32.15
 20
27.9
 10
32.15
 20
26.1
  0
LWPOLYLINE
  5
93
100
AcDbEntity
  8
ASSEMBLY_OUTLINES_BTM
100
AcDbPolyline
 90
        4
 70
         1
 10
93.7
 20
68.145
 10
93.7
 20
73.225
 10
119.15
 20
73.225
 10
119.15
 20
68.145
  0
LWPOLYLINE
  5
94
100
AcDbEntity
  8
ASSEMBLY_OUTLINES_BTM
100
AcDbPolyline
 90
        4
 70
         1
 43
0.1
 10
112.3
 20
109.95
 10
112.3
 20
113.25
 10
114.1
 20
113.25
 10
114.1
 20
109.95
  0
LWPOLYLINE
  5
95
100
AcDbEntity
  8
ASSEMBLY_OUTLINES_BTM
100
AcDbPolyline
 90
        4
 70
         1
 43
0.1
 10
62.4
 20
30.0
 10
62.4
 20
35.0
 10
66.4
 20
35.0
 10
66.4
 20
30.0
  0
LWPOLYLINE
  5
96
100
AcDbEntity
  8
ASSEMBLY_OUTLINES_BTM
100
AcDbPolyline
 90
        2
 70
         1
 43
0.1
 10
62.9
 20
31.0
 42
-1.0
 10
63.9
 20
31.0
 42
-1.0
  0
LWPOLYLINE
  5
97
100
AcDbEntity
  8
ASSEMBLY_OUTLINES_BTM
100
AcDbPolyline
 90
        4
 70
         1
 43
0.1
 10
154.95
 20
47.8
 10
154.95
 20
49.6
 10
158.25
 20
49.6
 10
158.25
 20
47.8
  0
LWPOLYLINE
  5
98
100
AcDbEntity
  8
ASSEMBLY_OUTLINES_BTM
100
AcDbPolyline
 90
        4
 70
         1
 43
0.1
 10
61.4
 20
50.45
 10
61.4
 20
54.15
 10
64.4
 20
54.15
 10
64.4
 20
50.45
  0
LWPOLYLINE
  5
99
100
AcDbEntity
  8
ASSEMBLY_OUTLINES_BTM
100
AcDbPolyline
 90
        2
 70
         0
 43
0.1
 10
61.4
 20
50.55
 10
64.4
 20
50.55
  0
LWPOLYLINE
  5
9A
100
AcDbEntity
  8
ASSEMBLY_OUTLINES_BTM
100
AcDbPolyline
 90
        2
 70
         0
 43
0.1
 10
61.4
 20
50.65
 10
64.4
 20
50.65
  0
LWPOLYLINE
  5
9B
100
AcDbEntity
  8
ASSEMBLY_OUTLINES_BTM
100
AcDbPolyline
 90
        2
 70
         0
 43
0.1
 10
61.4
 20
50.75
 10
64.4
 20
50.75
  0
LWPOLYLINE
  5
9C
100
AcDbEntity
  8
ASSEMBLY_OUTLINES_BTM
100
AcDbPolyline
 90
        2
 70
         0
 43
0.1
 10
61.4
 20
50.85
 10
64.4
 20
50.85
  0
LWPOLYLINE
  5
9D
100
AcDbEntity
  8
ASSEMBLY_OUTLINES_BTM
100
AcDbPolyline
 90
        2
 70
         0
 43
0.1
 10
61.4
 20
50.95
 10
64.4
 20
50.95
  0
LWPOLYLINE
  5
9E
100
AcDbEntity
  8
ASSEMBLY_OUTLINES_BTM
100
AcDbPolyline
 90
        2
 70
         0
 43
0.1
 10
61.4
 20
51.05
 10
64.4
 20
51.05
  0
LWPOLYLINE
  5
9F
100
AcDbEntity
  8
ASSEMBLY_OUTLINES_BTM
100
AcDbPolyline
 90
        2
 70
         0
 43
0.1
 10
61.4
 20
51.15
 10
64.4
 20
51.15
  0
LWPOLYLINE
  5
A0
100
AcDbEntity
  8
ASSEMBLY_OUTLINES_BTM
100
AcDbPolyline
 90
        2
 70
         0
 43
0.1
 10
61.4
 20
51.25
 10
64.4
 20
51.25
  0
LWPOLYLINE
  5
A1
100
AcDbEntity
  8
ASSEMBLY_OUTLINES_BTM
100
AcDbPolyline
 90
        4
 70
         1
 43
0.1
 10
13.85
 20
24.5
 10
13.85
 20
27.5
 10
17.55
 20
27.5
 10
17.55
 20
24.5
  0
LWPOLYLINE
  5
A2
100
AcDbEntity
  8
ASSEMBLY_OUTLINES_BTM
100
AcDbPolyline
 90
        2
 70
         0
 43
0.1
 10
13.95
 20
27.5
 10
13.95
 20
24.5
  0
LWPOLYLINE
  5
A3
100
AcDbEntity
  8
ASSEMBLY_OUTLINES_BTM
100
AcDbPolyline
 90
        2
 70
         0
 43
0.1
 10
14.05
 20
27.5
 10
14.05
 20
24.5
  0
LWPOLYLINE
  5
A4
100
AcDbEntity
  8
ASSEMBLY_OUTLINES_BTM
100
AcDbPolyline
 90
        2
 70
         0
 43
0.1
 10
14.15
 20
27.5
 10
14.15
 20
24.5
  0
LWPOLYLINE
  5
A5
100
AcDbEntity
  8
ASSEMBLY_OUTLINES_BTM
100
AcDbPolyline
 90
        2
 70
         0
 43
0.1
 10
14.25
 20
27.5
 10
14.25
 20
24.5
  0
LWPOLYLINE
  5
A6
100
AcDbEntity
  8
ASSEMBLY_OUTLINES_BTM
100
AcDbPolyline
 90
        2
 70
         0
 43
0.1
 10
14.35
 20
27.5
 10
14.35
 20
24.5
  0
LWPOLYLINE
  5
A7
100
AcDbEntity
  8
ASSEMBLY_OUTLINES_BTM
100
AcDbPolyline
 90
        2
 70
         0
 43
0.1
 10
14.45
 20
27.5
 10
14.45
 20
24.5
  0
LWPOLYLINE
  5
A8
100
AcDbEntity
  8
ASSEMBLY_OUTLINES_BTM
100
AcDbPolyline
 90
        2
 70
         0
 43
0.1
 10
14.55
 20
27.5
 10
14.55
 20
24.5
  0
LWPOLYLINE
  5
A9
100
AcDbEntity
  8
ASSEMBLY_OUTLINES_BTM
100
AcDbPolyline
 90
        2
 70
         0
 43
0.1
 10
14.65
 20
27.5
 10
14.65
 20
24.5
  0
LWPOLYLINE
  5
AA
100
AcDbEntity
  8
ASSEMBLY_OUTLINES_BTM
100
AcDbPolyline
 90
        4
 70
         1
 43
0.1
 10
10.05
 20
123.4
 10
10.05
 20
125.2
 10
13.35
 20
125.2
 10
13.35
 20
123.4
  0
LWPOLYLINE
  5
AB
100
AcDbEntity
  8
ASSEMBLY_OUTLINES_BTM
100
AcDbPolyline
 90
        4
 70
         1
 43
0.1
 10
110.6
 20
98.65
 10
110.6
 20
101.95
 10
112.4
 20
101.95
 10
112.4
 20
98.65
  0
LWPOLYLINE
  5
AC
100
AcDbEntity
  8
ASSEMBLY_OUTLINES_BTM
100
AcDbPolyline
 90
        4
 70
         1
 43
0.1
 10
130.8
 20
35.85
 10
130.8
 20
39.15
 10
132.6
 20
39.15
 10
132.6
 20
35.85
  0
LWPOLYLINE
  5
AD
100
AcDbEntity
  8
ASSEMBLY_OUTLINES_BTM
100
AcDbPolyline
 90
        4
 70
         1
 10
59.230001
 20
115.28
 10
59.230001
 20
120.36
 10
71.95
 20
120.36
 10
71.95
 20
115.28
  0
LWPOLYLINE
  5
AE
100
AcDbEntity
  8
ASSEMBLY_OUTLINES_BTM
100
AcDbPolyline
 90
        4
 70
         1
 43
0.1
 10
12.75
 20
8.5
 10
12.75
 20
10.3
 10
16.05
 20
10.3
 10
16.05
 20
8.5
  0
LWPOLYLINE
  5
AF
100
AcDbEntity
  8
ASSEMBLY_OUTLINES_BTM
100
AcDbPolyline
 90
        4
 70
         1
 43
0.1
 10
65.9
 20
45.95
 10
65.9
 20
49.25
 10
67.7
 20
49.25
 10
67.7
 20
45.95
  0
LWPOLYLINE
  5
B0
100
AcDbEntity
  8
ASSEMBLY_OUTLINES_BTM
100
AcDbPolyline
 90
        4
 70
         1
 43
0.1
 10
18.7
 20
56.1
 10
18.7
 20
63.1
 10
25.7
 20
63.1
 10
25.7
 20
56.1
  0
LWPOLYLINE
  5
B1
100
AcDbEntity
  8
ASSEMBLY_OUTLINES_BTM
100
AcDbPolyline
 90
        4
 70
         1
 43
0.1
 10
35.65
 20
9.5
 10
35.65
 20
12.5
 10
39.35
 20
12.5
 10
39.35
 20
9.5
  0
LWPOLYLINE
  5
B2
100
AcDbEntity
  8
ASSEMBLY_OUTLINES_BTM
100
AcDbPolyline
 90
        2
 70
         0
 43
0.1
 10
39.25
 20
9.5
 10
39.25
 20
12.5
  0
LWPOLYLINE
  5
B3
100
AcDbEntity
  8
ASSEMBLY_OUTLINES_BTM
100
AcDbPolyline
 90
        2
 70
         0
 43
0.1
 10
39.15
 20
9.5
 10
39.15
 20
12.5
  0
LWPOLYLINE
  5
B4
100
AcDbEntity
  8
ASSEMBLY_OUTLINES_BTM
100
AcDbPolyline
 90
        2
 70
         0
 43
0.1
 10
39.05
 20
9.5
 10
39.05
 20
12.5
  0
LWPOLYLINE
  5
B5
100
AcDbEntity
  8
ASSEMBLY_OUTLINES_BTM
100
AcDbPolyline
 90
        2
 70
         0
 43
0.1
 10
38.95
 20
9.5
 10
38.95
 20
12.5
  0
LWPOLYLINE
  5
B6
100
AcDbEntity
  8
ASSEMBLY_OUTLINES_BTM
100
AcDbPolyline
 90
        2
 70
         0
 43
0.1
 10
38.85
 20
9.5
 10
38.85
 20
12.5
  0
LWPOLYLINE
  5
B7
100
AcDbEntity
  8
ASSEMBLY_OUTLINES_BTM
100
AcDbPolyline
 90
        2
 70
         0
 43
0.1
 10
38.75
 20
9.5
 10
38.75
 20
12.5
  0
LWPOLYLINE
  5
B8
100
AcDbEntity
  8
ASSEMBLY_OUTLINES_BTM
100
AcDbPolyline
 90
        2
 70
         0
 43
0.1
 10
38.65
 20
9.5
 10
38.65
 20
12.5
  0
LWPOLYLINE
  5
B9
100
AcDbEntity
  8
ASSEMBLY_OUTLINES_BTM
100
AcDbPolyline
 90
        2
 70
         0
 43
0.1
 10
38.55
 20
9.5
 10
38.55
 20
12.5
  0
LWPOLYLINE
  5
BA
100
AcDbEntity
  8
ASSEMBLY_OUTLINES_BTM
100
AcDbPolyline
 90
        4
 70
         1
 43
0.1
 10
10.05
 20
87.9
 10
10.05
 20
89.7
 10
13.35
 20
89.7
 10
13.35
 20
87.9
  0
LWPOLYLINE
  5
BB
100
AcDbEntity
  8
ASSEMBLY_OUTLINES_BTM
100
AcDbPolyline
 90
        4
 70
         1
 43
0.1
 10
14.7
 20
33.25
 10
14.7
 20
36.55
 10
16.5
 20
36.55
 10
16.5
 20
33.25
  0
LWPOLYLINE
  5
BC
100
AcDbEntity
  8
ASSEMBLY_OUTLINES_BTM
100
AcDbPolyline
 90
        2
 70
         0
 43
0.1
 10
26.1
 20
15.9
 10
26.0
 20
15.8
  0
LWPOLYLINE
  5
BD
100
AcDbEntity
  8
ASSEMBLY_OUTLINES_BTM
100
AcDbPolyline
 90
        2
 70
         0
 43
0.1
 10
26.2
 20
15.9
 10
26.0
 20
15.7
  0
LWPOLYLINE
  5
BE
100
AcDbEntity
  8
ASSEMBLY_OUTLINES_BTM
100
AcDbPolyline
 90
        2
 70
         0
 43
0.1
 10
26.3
 20
15.9
 10
26.0
 20
15.6
  0
LWPOLYLINE
  5
BF
100
AcDbEntity
  8
ASSEMBLY_OUTLINES_BTM
100
AcDbPolyline
 90
        2
 70
         0
 43
0.1
 10
26.4
 20
15.9
 10
26.0
 20
15.5
  0
LWPOLYLINE
  5
C0
100
AcDbEntity
  8
ASSEMBLY_OUTLINES_BTM
100
AcDbPolyline
 90
        2
 70
         0
 43
0.1
 10
26.5
 20
15.9
 10
26.0
 20
15.4
  0
LWPOLYLINE
  5
C1
100
AcDbEntity
  8
ASSEMBLY_OUTLINES_BTM
100
AcDbPolyline
 90
        2
 70
         0
 43
0.1
 10
26.6
 20
15.9
 10
26.0
 20
15.3
  0
LWPOLYLINE
  5
C2
100
AcDbEntity
  8
ASSEMBLY_OUTLINES_BTM
100
AcDbPolyline
 90
        4
 70
         1
 43
0.1
 10
26.0
 20
14.5
 10
26.0
 20
15.9
 10
29.0
 20
15.9
 10
29.0
 20
14.5
  0
LWPOLYLINE
  5
C3
100
AcDbEntity
  8
ASSEMBLY_OUTLINES_BTM
100
AcDbPolyline
 90
        4
 70
         1
 43
0.1
 10
31.45
 20
6.2
 10
31.45
 20
9.2
 10
35.15
 20
9.2
 10
35.15
 20
6.2
  0
LWPOLYLINE
  5
C4
100
AcDbEntity
  8
ASSEMBLY_OUTLINES_BTM
100
AcDbPolyline
 90
        2
 70
         0
 43
0.1
 10
35.05
 20
6.2
 10
35.05
 20
9.2
  0
LWPOLYLINE
  5
C5
100
AcDbEntity
  8
ASSEMBLY_OUTLINES_BTM
100
AcDbPolyline
 90
        2
 70
         0
 43
0.1
 10
34.95
 20
6.2
 10
34.95
 20
9.2
  0
LWPOLYLINE
  5
C6
100
AcDbEntity
  8
ASSEMBLY_OUTLINES_BTM
100
AcDbPolyline
 90
        2
 70
         0
 43
0.1
 10
34.85
 20
6.2
 10
34.85
 20
9.2
  0
LWPOLYLINE
  5
C7
100
AcDbEntity
  8
ASSEMBLY_OUTLINES_BTM
100
AcDbPolyline
 90
        2
 70
         0
 43
0.1
 10
34.75
 20
6.2
 10
34.75
 20
9.2
  0
LWPOLYLINE
  5
C8
100
AcDbEntity
  8
ASSEMBLY_OUTLINES_BTM
100
AcDbPolyline
 90
        2
 70
         0
 43
0.1
 10
34.65
 20
6.2
 10
34.65
 20
9.2
  0
LWPOLYLINE
  5
C9
100
AcDbEntity
  8
ASSEMBLY_OUTLINES_BTM
100
AcDbPolyline
 90
        2
 70
         0
 43
0.1
 10
34.55
 20
6.2
 10
34.55
 20
9.2
  0
LWPOLYLINE
  5
CA
100
AcDbEntity
  8
ASSEMBLY_OUTLINES_BTM
100
AcDbPolyline
 90
        2
 70
         0
 43
0.1
 10
34.45
 20
6.2
 10
34.45
 20
9.2
  0
LWPOLYLINE
  5
CB
100
AcDbEntity
  8
ASSEMBLY_OUTLINES_BTM
100
AcDbPolyline
 90
        2
 70
         0
 43
0.1
 10
34.35
 20
6.2
 10
34.35
 20
9.2
  0
LWPOLYLINE
  5
CC
100
AcDbEntity
  8
ASSEMBLY_OUTLINES_BTM
100
AcDbPolyline
 90
        4
 70
         1
 43
0.1
 10
189.65
 20
123.3
 10
189.65
 20
125.1
 10
192.95
 20
125.1
 10
192.95
 20
123.3
  0
LWPOLYLINE
  5
CD
100
AcDbEntity
  8
ASSEMBLY_OUTLINES_BTM
100
AcDbPolyline
 90
        4
 70
         1
 43
0.1
 10
130.8
 20
32.15
 10
130.8
 20
35.45
 10
132.6
 20
35.45
 10
132.6
 20
32.15
  0
LWPOLYLINE
  5
CE
100
AcDbEntity
  8
ASSEMBLY_OUTLINES_BTM
100
AcDbPolyline
 90
        4
 70
         1
 43
0.1
 10
19.8
 20
35.1
 10
19.8
 20
42.1
 10
26.8
 20
42.1
 10
26.8
 20
35.1
  0
LWPOLYLINE
  5
CF
100
AcDbEntity
  8
ASSEMBLY_OUTLINES_BTM
100
AcDbPolyline
 90
        4
 70
         1
 43
0.1
 10
101.25
 20
43.7
 10
101.25
 20
45.5
 10
104.55
 20
45.5
 10
104.55
 20
43.7
  0
LWPOLYLINE
  5
D0
100
AcDbEntity
  8
ASSEMBLY_OUTLINES_BTM
100
AcDbPolyline
 90
        2
 70
         0
 43
0.1
 10
30.1
 20
57.4
 10
30.2
 20
57.5
  0
LWPOLYLINE
  5
D1
100
AcDbEntity
  8
ASSEMBLY_OUTLINES_BTM
100
AcDbPolyline
 90
        2
 70
         0
 43
0.1
 10
30.0
 20
57.4
 10
30.2
 20
57.6
  0
LWPOLYLINE
  5
D2
100
AcDbEntity
  8
ASSEMBLY_OUTLINES_BTM
100
AcDbPolyline
 90
        2
 70
         0
 43
0.1
 10
29.9
 20
57.4
 10
30.2
 20
57.7
  0
LWPOLYLINE
  5
D3
100
AcDbEntity
  8
ASSEMBLY_OUTLINES_BTM
100
AcDbPolyline
 90
        2
 70
         0
 43
0.1
 10
29.8
 20
57.4
 10
30.2
 20
57.8
  0
LWPOLYLINE
  5
D4
100
AcDbEntity
  8
ASSEMBLY_OUTLINES_BTM
100
AcDbPolyline
 90
        2
 70
         0
 43
0.1
 10
29.7
 20
57.4
 10
30.2
 20
57.9
  0
LWPOLYLINE
  5
D5
100
AcDbEntity
  8
ASSEMBLY_OUTLINES_BTM
100
AcDbPolyline
 90
        2
 70
         0
 43
0.1
 10
29.6
 20
57.4
 10
30.2
 20
58.0
  0
LWPOLYLINE
  5
D6
100
AcDbEntity
  8
ASSEMBLY_OUTLINES_BTM
100
AcDbPolyline
 90
        4
 70
         1
 43
0.1
 10
27.2
 20
57.4
 10
27.2
 20
58.8
 10
30.2
 20
58.8
 10
30.2
 20
57.4
  0
LWPOLYLINE
  5
D7
100
AcDbEntity
  8
ASSEMBLY_OUTLINES_BTM
100
AcDbPolyline
 90
        4
 70
         1
 43
0.1
 10
122.85
 20
110.9
 10
122.85
 20
112.7
 10
126.15
 20
112.7
 10
126.15
 20
110.9
  0
LWPOLYLINE
  5
D8
100
AcDbEntity
  8
ASSEMBLY_OUTLINES_BTM
100
AcDbPolyline
 90
        4
 70
         1
 43
0.1
 10
91.2
 20
47.55
 10
91.2
 20
50.85
 10
93.0
 20
50.85
 10
93.0
 20
47.55
  0
LWPOLYLINE
  5
D9
100
AcDbEntity
  8
ASSEMBLY_OUTLINES_BTM
100
AcDbPolyline
 90
        4
 70
         1
 10
81.5
 20
115.485
 10
81.5
 20
120.565
 10
132.3
 20
120.565
 10
132.3
 20
115.485
  0
CIRCLE
  5
DA
100
AcDbEntity
  8
ASSEMBLY_OUTLINES_BTM
100
AcDbCircle
 10
82.768225
 20
119.30544
 30
0.0
 40
0.45
  0
HATCH
  5
DB
100
AcDbEntity
  8
ASSEMBLY_OUTLINES_BTM
100
AcDbHatch
 10
0.0
 20
0.0
 30
0.0
210
0.0
220
0.0
230
1.0
  2
SOLID
 70
         1
 71
         1
 91
        1
 92
        1
 93
        1
 72
         2
 10
82.768225000000001
 20
119.30544
 40
0.45
 50
0.0
 51
360.0
 73
         1
 97
        1
330
DA
 75
         0
 76
         1
 98
        1
 10
0.0
 20
0.0
  0
CIRCLE
  5
DC
100
AcDbEntity
  8
ASSEMBLY_OUTLINES_BTM
100
AcDbCircle
 10
85.308225
 20
119.30544
 30
0.0
 40
0.45
  0
HATCH
  5
DD
100
AcDbEntity
  8
ASSEMBLY_OUTLINES_BTM
100
AcDbHatch
 10
0.0
 20
0.0
 30
0.0
210
0.0
220
0.0
230
1.0
  2
SOLID
 70
         1
 71
         1
 91
        1
 92
        1
 93
        1
 72
         2
 10
85.308224999999993
 20
119.30544
 40
0.45
 50
0.0
 51
360.0
 73
         1
 97
        1
330
DC
 75
         0
 76
         1
 98
        1
 10
0.0
 20
0.0
  0
CIRCLE
  5
DE
100
AcDbEntity
  8
ASSEMBLY_OUTLINES_BTM
100
AcDbCircle
 10
87.848225
 20
119.30544
 30
0.0
 40
0.45
  0
HATCH
  5
DF
100
AcDbEntity
  8
ASSEMBLY_OUTLINES_BTM
100
AcDbHatch
 10
0.0
 20
0.0
 30
0.0
210
0.0
220
0.0
230
1.0
  2
SOLID
 70
         1
 71
         1
 91
        1
 92
        1
 93
        1
 72
         2
 10
87.848224999999999
 20
119.30544
 40
0.45
 50
0.0
 51
360.0
 73
         1
 97
        1
330
DE
 75
         0
 76
         1
 98
        1
 10
0.0
 20
0.0
  0
CIRCLE
  5
E0
100
AcDbEntity
  8
ASSEMBLY_OUTLINES_BTM
100
AcDbCircle
 10
90.388225
 20
119.30544
 30
0.0
 40
0.45
  0
HATCH
  5
E1
100
AcDbEntity
  8
ASSEMBLY_OUTLINES_BTM
100
AcDbHatch
 10
0.0
 20
0.0
 30
0.0
210
0.0
220
0.0
230
1.0
  2
SOLID
 70
         1
 71
         1
 91
        1
 92
        1
 93
        1
 72
         2
 10
90.388225000000006
 20
119.30544
 40
0.45
 50
0.0
 51
360.0
 73
         1
 97
        1
330
E0
 75
         0
 76
         1
 98
        1
 10
0.0
 20
0.0
  0
CIRCLE
  5
E2
100
AcDbEntity
  8
ASSEMBLY_OUTLINES_BTM
100
AcDbCircle
 10
92.928225
 20
119.30544
 30
0.0
 40
0.45
  0
HATCH
  5
E3
100
AcDbEntity
  8
ASSEMBLY_OUTLINES_BTM
100
AcDbHatch
 10
0.0
 20
0.0
 30
0.0
210
0.0
220
0.0
230
1.0
  2
SOLID
 70
         1
 71
         1
 91
        1
 92
        1
 93
        1
 72
         2
 10
92.928224999999998
 20
119.30544
 40
0.45
 50
0.0
 51
360.0
 73
         1
 97
        1
330
E2
 75
         0
 76
         1
 98
        1
 10
0.0
 20
0.0
  0
CIRCLE
  5
E4
100
AcDbEntity
  8
ASSEMBLY_OUTLINES_BTM
100
AcDbCircle
 10
95.468225
 20
119.30544
 30
0.0
 40
0.45
  0
HATCH
  5
E5
100
AcDbEntity
  8
ASSEMBLY_OUTLINES_BTM
100
AcDbHatch
 10
0.0
 20
0.0
 30
0.0
210
0.0
220
0.0
230
1.0
  2
SOLID
 70
         1
 71
         1
 91
        1
 92
        1
 93
        1
 72
         2
 10
95.468225000000004
 20
119.30544
 40
0.45
 50
0.0
 51
360.0
 73
         1
 97
        1
330
E4
 75
         0
 76
         1
 98
        1
 10
0.0
 20
0.0
  0
CIRCLE
  5
E6
100
AcDbEntity
  8
ASSEMBLY_OUTLINES_BTM
100
AcDbCircle
 10
98.008225
 20
119.30544
 30
0.0
 40
0.45
  0
HATCH
  5
E7
100
AcDbEntity
  8
ASSEMBLY_OUTLINES_BTM
100
AcDbHatch
 10
0.0
 20
0.0
 30
0.0
210
0.0
220
0.0
230
1.0
  2
SOLID
 70
         1
 71
         1
 91
        1
 92
        1
 93
        1
 72
         2
 10
98.008224999999996
 20
119.30544
 40
0.45
 50
0.0
 51
360.0
 73
         1
 97
        1
330
E6
 75
         0
 76
         1
 98
        1
 10
0.0
 20
0.0
  0
CIRCLE
  5
E8
100
AcDbEntity
  8
ASSEMBLY_OUTLINES_BTM
100
AcDbCircle
 10
100.548225
 20
119.30544
 30
0.0
 40
0.45
  0
HATCH
  5
E9
100
AcDbEntity
  8
ASSEMBLY_OUTLINES_BTM
100
AcDbHatch
 10
0.0
 20
0.0
 30
0.0
210
0.0
220
0.0
230
1.0
  2
SOLID
 70
         1
 71
         1
 91
        1
 92
        1
 93
        1
 72
         2
 10
100.548225
 20
119.30544
 40
0.45
 50
0.0
 51
360.0
 73
         1
 97
        1
330
E8
 75
         0
 76
         1
 98
        1
 10
0.0
 20
0.0
  0
CIRCLE
  5
EA
100
AcDbEntity
  8
ASSEMBLY_OUTLINES_BTM
100
AcDbCircle
 10
103.088225
 20
119.30544
 30
0.0
 40
0.45
  0
HATCH
  5
EB
100
AcDbEntity
  8
ASSEMBLY_OUTLINES_BTM
100
AcDbHatch
 10
0.0
 20
0.0
 30
0.0
210
0.0
220
0.0
230
1.0
  2
SOLID
 70
         1
 71
         1
 91
        1
 92
        1
 93
        1
 72
         2
 10
103.08822499999999
 20
119.30544
 40
0.45
 50
0.0
 51
360.0
 73
         1
 97
        1
330
EA
 75
         0
 76
         1
 98
        1
 10
0.0
 20
0.0
  0
CIRCLE
  5
EC
100
AcDbEntity
  8
ASSEMBLY_OUTLINES_BTM
100
AcDbCircle
 10
105.628225
 20
119.30544
 30
0.0
 40
0.45
  0
HATCH
  5
ED
100
AcDbEntity
  8
ASSEMBLY_OUTLINES_BTM
100
AcDbHatch
 10
0.0
 20
0.0
 30
0.0
210
0.0
220
0.0
230
1.0
  2
SOLID
 70
         1
 71
         1
 91
        1
 92
        1
 93
        1
 72
         2
 10
105.628225
 20
119.30544
 40
0.45
 50
0.0
 51
360.0
 73
         1
 97
        1
330
EC
 75
         0
 76
         1
 98
        1
 10
0.0
 20
0.0
  0
CIRCLE
  5
EE
100
AcDbEntity
  8
ASSEMBLY_OUTLINES_BTM
100
AcDbCircle
 10
108.171774
 20
119.31456
 30
0.0
 40
0.45
  0
HATCH
  5
EF
100
AcDbEntity
  8
ASSEMBLY_OUTLINES_BTM
100
AcDbHatch
 10
0.0
 20
0.0
 30
0.0
210
0.0
220
0.0
230
1.0
  2
SOLID
 70
         1
 71
         1
 91
        1
 92
        1
 93
        1
 72
         2
 10
108.171774
 20
119.31456
 40
0.45
 50
0.0
 51
360.0
 73
         1
 97
        1
330
EE
 75
         0
 76
         1
 98
        1
 10
0.0
 20
0.0
  0
CIRCLE
  5
F0
100
AcDbEntity
  8
ASSEMBLY_OUTLINES_BTM
100
AcDbCircle
 10
110.711774
 20
119.31456
 30
0.0
 40
0.45
  0
HATCH
  5
F1
100
AcDbEntity
  8
ASSEMBLY_OUTLINES_BTM
100
AcDbHatch
 10
0.0
 20
0.0
 30
0.0
210
0.0
220
0.0
230
1.0
  2
SOLID
 70
         1
 71
         1
 91
        1
 92
        1
 93
        1
 72
         2
 10
110.71177400000001
 20
119.31456
 40
0.45
 50
0.0
 51
360.0
 73
         1
 97
        1
330
F0
 75
         0
 76
         1
 98
        1
 10
0.0
 20
0.0
  0
CIRCLE
  5
F2
100
AcDbEntity
  8
ASSEMBLY_OUTLINES_BTM
100
AcDbCircle
 10
113.251774
 20
119.31456
 30
0.0
 40
0.45
  0
HATCH
  5
F3
100
AcDbEntity
  8
ASSEMBLY_OUTLINES_BTM
100
AcDbHatch
 10
0.0
 20
0.0
 30
0.0
210
0.0
220
0.0
230
1.0
  2
SOLID
 70
         1
 71
         1
 91
        1
 92
        1
 93
        1
 72
         2
 10
113.251774
 20
119.31456
 40
0.45
 50
0.0
 51
360.0
 73
         1
 97
        1
330
F2
 75
         0
 76
         1
 98
        1
 10
0.0
 20
0.0
  0
CIRCLE
  5
F4
100
AcDbEntity
  8
ASSEMBLY_OUTLINES_BTM
100
AcDbCircle
 10
115.791774
 20
119.31456
 30
0.0
 40
0.45
  0
HATCH
  5
F5
100
AcDbEntity
  8
ASSEMBLY_OUTLINES_BTM
100
AcDbHatch
 10
0.0
 20
0.0
 30
0.0
210
0.0
220
0.0
230
1.0
  2
SOLID
 70
         1
 71
         1
 91
        1
 92
        1
 93
        1
 72
         2
 10
115.791774
 20
119.31456
 40
0.45
 50
0.0
 51
360.0
 73
         1
 97
        1
330
F4
 75
         0
 76
         1
 98
        1
 10
0.0
 20
0.0
  0
CIRCLE
  5
F6
100
AcDbEntity
  8
ASSEMBLY_OUTLINES_BTM
100
AcDbCircle
 10
118.331774
 20
119.31456
 30
0.0
 40
0.45
  0
HATCH
  5
F7
100
AcDbEntity
  8
ASSEMBLY_OUTLINES_BTM
100
AcDbHatch
 10
0.0
 20
0.0
 30
0.0
210
0.0
220
0.0
230
1.0
  2
SOLID
 70
         1
 71
         1
 91
        1
 92
        1
 93
        1
 72
         2
 10
118.331774
 20
119.31456
 40
0.45
 50
0.0
 51
360.0
 73
         1
 97
        1
330
F6
 75
         0
 76
         1
 98
        1
 10
0.0
 20
0.0
  0
CIRCLE
  5
F8
100
AcDbEntity
  8
ASSEMBLY_OUTLINES_BTM
100
AcDbCircle
 10
120.871774
 20
119.31456
 30
0.0
 40
0.45
  0
HATCH
  5
F9
100
AcDbEntity
  8
ASSEMBLY_OUTLINES_BTM
100
AcDbHatch
 10
0.0
 20
0.0
 30
0.0
210
0.0
220
0.0
230
1.0
  2
SOLID
 70
         1
 71
         1
 91
        1
 92
        1
 93
        1
 72
         2
 10
120.871774
 20
119.31456
 40
0.45
 50
0.0
 51
360.0
 73
         1
 97
        1
330
F8
 75
         0
 76
         1
 98
        1
 10
0.0
 20
0.0
  0
CIRCLE
  5
FA
100
AcDbEntity
  8
ASSEMBLY_OUTLINES_BTM
100
AcDbCircle
 10
123.411774
 20
119.31456
 30
0.0
 40
0.45
  0
HATCH
  5
FB
100
AcDbEntity
  8
ASSEMBLY_OUTLINES_BTM
100
AcDbHatch
 10
0.0
 20
0.0
 30
0.0
210
0.0
220
0.0
230
1.0
  2
SOLID
 70
         1
 71
         1
 91
        1
 92
        1
 93
        1
 72
         2
 10
123.41177399999999
 20
119.31456
 40
0.45
 50
0.0
 51
360.0
 73
         1
 97
        1
330
FA
 75
         0
 76
         1
 98
        1
 10
0.0
 20
0.0
  0
CIRCLE
  5
FC
100
AcDbEntity
  8
ASSEMBLY_OUTLINES_BTM
100
AcDbCircle
 10
125.951774
 20
119.31456
 30
0.0
 40
0.45
  0
HATCH
  5
FD
100
AcDbEntity
  8
ASSEMBLY_OUTLINES_BTM
100
AcDbHatch
 10
0.0
 20
0.0
 30
0.0
210
0.0
220
0.0
230
1.0
  2
SOLID
 70
         1
 71
         1
 91
        1
 92
        1
 93
        1
 72
         2
 10
125.951774
 20
119.31456
 40
0.45
 50
0.0
 51
360.0
 73
         1
 97
        1
330
FC
 75
         0
 76
         1
 98
        1
 10
0.0
 20
0.0
  0
CIRCLE
  5
FE
100
AcDbEntity
  8
ASSEMBLY_OUTLINES_BTM
100
AcDbCircle
 10
128.491774
 20
119.31456
 30
0.0
 40
0.45
  0
HATCH
  5
FF
100
AcDbEntity
  8
ASSEMBLY_OUTLINES_BTM
100
AcDbHatch
 10
0.0
 20
0.0
 30
0.0
210
0.0
220
0.0
230
1.0
  2
SOLID
 70
         1
 71
         1
 91
        1
 92
        1
 93
        1
 72
         2
 10
128.49177399999999
 20
119.31456
 40
0.45
 50
0.0
 51
360.0
 73
         1
 97
        1
330
FE
 75
         0
 76
         1
 98
        1
 10
0.0
 20
0.0
  0
CIRCLE
  5
100
100
AcDbEntity
  8
ASSEMBLY_OUTLINES_BTM
100
AcDbCircle
 10
131.031774
 20
119.31456
 30
0.0
 40
0.45
  0
HATCH
  5
101
100
AcDbEntity
  8
ASSEMBLY_OUTLINES_BTM
100
AcDbHatch
 10
0.0
 20
0.0
 30
0.0
210
0.0
220
0.0
230
1.0
  2
SOLID
 70
         1
 71
         1
 91
        1
 92
        1
 93
        1
 72
         2
 10
131.03177400000001
 20
119.31456
 40
0.45
 50
0.0
 51
360.0
 73
         1
 97
        1
330
100
 75
         0
 76
         1
 98
        1
 10
0.0
 20
0.0
  0
CIRCLE
  5
102
100
AcDbEntity
  8
ASSEMBLY_OUTLINES_BTM
100
AcDbCircle
 10
82.77
 20
116.77
 30
0.0
 40
0.45
  0
HATCH
  5
103
100
AcDbEntity
  8
ASSEMBLY_OUTLINES_BTM
100
AcDbHatch
 10
0.0
 20
0.0
 30
0.0
210
0.0
220
0.0
230
1.0
  2
SOLID
 70
         1
 71
         1
 91
        1
 92
        1
 93
        1
 72
         2
 10
82.769999999999996
 20
116.77
 40
0.45
 50
0.0
 51
360.0
 73
         1
 97
        1
330
102
 75
         0
 76
         1
 98
        1
 10
0.0
 20
0.0
  0
CIRCLE
  5
104
100
AcDbEntity
  8
ASSEMBLY_OUTLINES_BTM
100
AcDbCircle
 10
85.31
 20
116.77
 30
0.0
 40
0.45
  0
HATCH
  5
105
100
AcDbEntity
  8
ASSEMBLY_OUTLINES_BTM
100
AcDbHatch
 10
0.0
 20
0.0
 30
0.0
210
0.0
220
0.0
230
1.0
  2
SOLID
 70
         1
 71
         1
 91
        1
 92
        1
 93
        1
 72
         2
 10
85.310000000000002
 20
116.77
 40
0.45
 50
0.0
 51
360.0
 73
         1
 97
        1
330
104
 75
         0
 76
         1
 98
        1
 10
0.0
 20
0.0
  0
CIRCLE
  5
106
100
AcDbEntity
  8
ASSEMBLY_OUTLINES_BTM
100
AcDbCircle
 10
87.85
 20
116.77
 30
0.0
 40
0.45
  0
HATCH
  5
107
100
AcDbEntity
  8
ASSEMBLY_OUTLINES_BTM
100
AcDbHatch
 10
0.0
 20
0.0
 30
0.0
210
0.0
220
0.0
230
1.0
  2
SOLID
 70
         1
 71
         1
 91
        1
 92
        1
 93
        1
 72
         2
 10
87.849999999999994
 20
116.77
 40
0.45
 50
0.0
 51
360.0
 73
         1
 97
        1
330
106
 75
         0
 76
         1
 98
        1
 10
0.0
 20
0.0
  0
CIRCLE
  5
108
100
AcDbEntity
  8
ASSEMBLY_OUTLINES_BTM
100
AcDbCircle
 10
90.39
 20
116.77
 30
0.0
 40
0.45
  0
HATCH
  5
109
100
AcDbEntity
  8
ASSEMBLY_OUTLINES_BTM
100
AcDbHatch
 10
0.0
 20
0.0
 30
0.0
210
0.0
220
0.0
230
1.0
  2
SOLID
 70
         1
 71
         1
 91
        1
 92
        1
 93
        1
 72
         2
 10
90.390000000000001
 20
116.77
 40
0.45
 50
0.0
 51
360.0
 73
         1
 97
        1
330
108
 75
         0
 76
         1
 98
        1
 10
0.0
 20
0.0
  0
CIRCLE
  5
10A
100
AcDbEntity
  8
ASSEMBLY_OUTLINES_BTM
100
AcDbCircle
 10
92.93
 20
116.77
 30
0.0
 40
0.45
  0
HATCH
  5
10B
100
AcDbEntity
  8
ASSEMBLY_OUTLINES_BTM
100
AcDbHatch
 10
0.0
 20
0.0
 30
0.0
210
0.0
220
0.0
230
1.0
  2
SOLID
 70
         1
 71
         1
 91
        1
 92
        1
 93
        1
 72
         2
 10
92.930000000000007
 20
116.77
 40
0.45
 50
0.0
 51
360.0
 73
         1
 97
        1
330
10A
 75
         0
 76
         1
 98
        1
 10
0.0
 20
0.0
  0
CIRCLE
  5
10C
100
AcDbEntity
  8
ASSEMBLY_OUTLINES_BTM
100
AcDbCircle
 10
95.47
 20
116.77
 30
0.0
 40
0.45
  0
HATCH
  5
10D
100
AcDbEntity
  8
ASSEMBLY_OUTLINES_BTM
100
AcDbHatch
 10
0.0
 20
0.0
 30
0.0
210
0.0
220
0.0
230
1.0
  2
SOLID
 70
         1
 71
         1
 91
        1
 92
        1
 93
        1
 72
         2
 10
95.469999999999999
 20
116.77
 40
0.45
 50
0.0
 51
360.0
 73
         1
 97
        1
330
10C
 75
         0
 76
         1
 98
        1
 10
0.0
 20
0.0
  0
CIRCLE
  5
10E
100
AcDbEntity
  8
ASSEMBLY_OUTLINES_BTM
100
AcDbCircle
 10
98.01
 20
116.77
 30
0.0
 40
0.45
  0
HATCH
  5
10F
100
AcDbEntity
  8
ASSEMBLY_OUTLINES_BTM
100
AcDbHatch
 10
0.0
 20
0.0
 30
0.0
210
0.0
220
0.0
230
1.0
  2
SOLID
 70
         1
 71
         1
 91
        1
 92
        1
 93
        1
 72
         2
 10
98.010000000000005
 20
116.77
 40
0.45
 50
0.0
 51
360.0
 73
         1
 97
        1
330
10E
 75
         0
 76
         1
 98
        1
 10
0.0
 20
0.0
  0
CIRCLE
  5
110
100
AcDbEntity
  8
ASSEMBLY_OUTLINES_BTM
100
AcDbCircle
 10
100.55
 20
116.77
 30
0.0
 40
0.45
  0
HATCH
  5
111
100
AcDbEntity
  8
ASSEMBLY_OUTLINES_BTM
100
AcDbHatch
 10
0.0
 20
0.0
 30
0.0
210
0.0
220
0.0
230
1.0
  2
SOLID
 70
         1
 71
         1
 91
        1
 92
        1
 93
        1
 72
         2
 10
100.55
 20
116.77
 40
0.45
 50
0.0
 51
360.0
 73
         1
 97
        1
330
110
 75
         0
 76
         1
 98
        1
 10
0.0
 20
0.0
  0
CIRCLE
  5
112
100
AcDbEntity
  8
ASSEMBLY_OUTLINES_BTM
100
AcDbCircle
 10
103.09
 20
116.77
 30
0.0
 40
0.45
  0
HATCH
  5
113
100
AcDbEntity
  8
ASSEMBLY_OUTLINES_BTM
100
AcDbHatch
 10
0.0
 20
0.0
 30
0.0
210
0.0
220
0.0
230
1.0
  2
SOLID
 70
         1
 71
         1
 91
        1
 92
        1
 93
        1
 72
         2
 10
103.09
 20
116.77
 40
0.45
 50
0.0
 51
360.0
 73
         1
 97
        1
330
112
 75
         0
 76
         1
 98
        1
 10
0.0
 20
0.0
  0
CIRCLE
  5
114
100
AcDbEntity
  8
ASSEMBLY_OUTLINES_BTM
100
AcDbCircle
 10
105.63
 20
116.77
 30
0.0
 40
0.45
  0
HATCH
  5
115
100
AcDbEntity
  8
ASSEMBLY_OUTLINES_BTM
100
AcDbHatch
 10
0.0
 20
0.0
 30
0.0
210
0.0
220
0.0
230
1.0
  2
SOLID
 70
         1
 71
         1
 91
        1
 92
        1
 93
        1
 72
         2
 10
105.63
 20
116.77
 40
0.45
 50
0.0
 51
360.0
 73
         1
 97
        1
330
114
 75
         0
 76
         1
 98
        1
 10
0.0
 20
0.0
  0
CIRCLE
  5
116
100
AcDbEntity
  8
ASSEMBLY_OUTLINES_BTM
100
AcDbCircle
 10
108.173549
 20
116.76912
 30
0.0
 40
0.45
  0
HATCH
  5
117
100
AcDbEntity
  8
ASSEMBLY_OUTLINES_BTM
100
AcDbHatch
 10
0.0
 20
0.0
 30
0.0
210
0.0
220
0.0
230
1.0
  2
SOLID
 70
         1
 71
         1
 91
        1
 92
        1
 93
        1
 72
         2
 10
108.17354899999999
 20
116.76912
 40
0.45
 50
0.0
 51
360.0
 73
         1
 97
        1
330
116
 75
         0
 76
         1
 98
        1
 10
0.0
 20
0.0
  0
CIRCLE
  5
118
100
AcDbEntity
  8
ASSEMBLY_OUTLINES_BTM
100
AcDbCircle
 10
110.713549
 20
116.76912
 30
0.0
 40
0.45
  0
HATCH
  5
119
100
AcDbEntity
  8
ASSEMBLY_OUTLINES_BTM
100
AcDbHatch
 10
0.0
 20
0.0
 30
0.0
210
0.0
220
0.0
230
1.0
  2
SOLID
 70
         1
 71
         1
 91
        1
 92
        1
 93
        1
 72
         2
 10
110.713549
 20
116.76912
 40
0.45
 50
0.0
 51
360.0
 73
         1
 97
        1
330
118
 75
         0
 76
         1
 98
        1
 10
0.0
 20
0.0
  0
CIRCLE
  5
11A
100
AcDbEntity
  8
ASSEMBLY_OUTLINES_BTM
100
AcDbCircle
 10
113.253549
 20
116.76912
 30
0.0
 40
0.45
  0
HATCH
  5
11B
100
AcDbEntity
  8
ASSEMBLY_OUTLINES_BTM
100
AcDbHatch
 10
0.0
 20
0.0
 30
0.0
210
0.0
220
0.0
230
1.0
  2
SOLID
 70
         1
 71
         1
 91
        1
 92
        1
 93
        1
 72
         2
 10
113.25354900000001
 20
116.76912
 40
0.45
 50
0.0
 51
360.0
 73
         1
 97
        1
330
11A
 75
         0
 76
         1
 98
        1
 10
0.0
 20
0.0
  0
CIRCLE
  5
11C
100
AcDbEntity
  8
ASSEMBLY_OUTLINES_BTM
100
AcDbCircle
 10
115.793549
 20
116.76912
 30
0.0
 40
0.45
  0
HATCH
  5
11D
100
AcDbEntity
  8
ASSEMBLY_OUTLINES_BTM
100
AcDbHatch
 10
0.0
 20
0.0
 30
0.0
210
0.0
220
0.0
230
1.0
  2
SOLID
 70
         1
 71
         1
 91
        1
 92
        1
 93
        1
 72
         2
 10
115.793549
 20
116.76912
 40
0.45
 50
0.0
 51
360.0
 73
         1
 97
        1
330
11C
 75
         0
 76
         1
 98
        1
 10
0.0
 20
0.0
  0
CIRCLE
  5
11E
100
AcDbEntity
  8
ASSEMBLY_OUTLINES_BTM
100
AcDbCircle
 10
118.333549
 20
116.76912
 30
0.0
 40
0.45
  0
HATCH
  5
11F
100
AcDbEntity
  8
ASSEMBLY_OUTLINES_BTM
100
AcDbHatch
 10
0.0
 20
0.0
 30
0.0
210
0.0
220
0.0
230
1.0
  2
SOLID
 70
         1
 71
         1
 91
        1
 92
        1
 93
        1
 72
         2
 10
118.333549
 20
116.76912
 40
0.45
 50
0.0
 51
360.0
 73
         1
 97
        1
330
11E
 75
         0
 76
         1
 98
        1
 10
0.0
 20
0.0
  0
CIRCLE
  5
120
100
AcDbEntity
  8
ASSEMBLY_OUTLINES_BTM
100
AcDbCircle
 10
120.873549
 20
116.76912
 30
0.0
 40
0.45
  0
HATCH
  5
121
100
AcDbEntity
  8
ASSEMBLY_OUTLINES_BTM
100
AcDbHatch
 10
0.0
 20
0.0
 30
0.0
210
0.0
220
0.0
230
1.0
  2
SOLID
 70
         1
 71
         1
 91
        1
 92
        1
 93
        1
 72
         2
 10
120.873549
 20
116.76912
 40
0.45
 50
0.0
 51
360.0
 73
         1
 97
        1
330
120
 75
         0
 76
         1
 98
        1
 10
0.0
 20
0.0
  0
CIRCLE
  5
122
100
AcDbEntity
  8
ASSEMBLY_OUTLINES_BTM
100
AcDbCircle
 10
123.413549
 20
116.76912
 30
0.0
 40
0.45
  0
HATCH
  5
123
100
AcDbEntity
  8
ASSEMBLY_OUTLINES_BTM
100
AcDbHatch
 10
0.0
 20
0.0
 30
0.0
210
0.0
220
0.0
230
1.0
  2
SOLID
 70
         1
 71
         1
 91
        1
 92
        1
 93
        1
 72
         2
 10
123.413549
 20
116.76912
 40
0.45
 50
0.0
 51
360.0
 73
         1
 97
        1
330
122
 75
         0
 76
         1
 98
        1
 10
0.0
 20
0.0
  0
CIRCLE
  5
124
100
AcDbEntity
  8
ASSEMBLY_OUTLINES_BTM
100
AcDbCircle
 10
125.953549
 20
116.76912
 30
0.0
 40
0.45
  0
HATCH
  5
125
100
AcDbEntity
  8
ASSEMBLY_OUTLINES_BTM
100
AcDbHatch
 10
0.0
 20
0.0
 30
0.0
210
0.0
220
0.0
230
1.0
  2
SOLID
 70
         1
 71
         1
 91
        1
 92
        1
 93
        1
 72
         2
 10
125.953549
 20
116.76912
 40
0.45
 50
0.0
 51
360.0
 73
         1
 97
        1
330
124
 75
         0
 76
         1
 98
        1
 10
0.0
 20
0.0
  0
CIRCLE
  5
126
100
AcDbEntity
  8
ASSEMBLY_OUTLINES_BTM
100
AcDbCircle
 10
128.493549
 20
116.76912
 30
0.0
 40
0.45
  0
HATCH
  5
127
100
AcDbEntity
  8
ASSEMBLY_OUTLINES_BTM
100
AcDbHatch
 10
0.0
 20
0.0
 30
0.0
210
0.0
220
0.0
230
1.0
  2
SOLID
 70
         1
 71
         1
 91
        1
 92
        1
 93
        1
 72
         2
 10
128.493549
 20
116.76912
 40
0.45
 50
0.0
 51
360.0
 73
         1
 97
        1
330
126
 75
         0
 76
         1
 98
        1
 10
0.0
 20
0.0
  0
CIRCLE
  5
128
100
AcDbEntity
  8
ASSEMBLY_OUTLINES_BTM
100
AcDbCircle
 10
131.033549
 20
116.76912
 30
0.0
 40
0.45
  0
HATCH
  5
129
100
AcDbEntity
  8
ASSEMBLY_OUTLINES_BTM
100
AcDbHatch
 10
0.0
 20
0.0
 30
0.0
210
0.0
220
0.0
230
1.0
  2
SOLID
 70
         1
 71
         1
 91
        1
 92
        1
 93
        1
 72
         2
 10
131.03354899999999
 20
116.76912
 40
0.45
 50
0.0
 51
360.0
 73
         1
 97
        1
330
128
 75
         0
 76
         1
 98
        1
 10
0.0
 20
0.0
  0
LWPOLYLINE
  5
12A
100
AcDbEntity
  8
ASSEMBLY_OUTLINES_BTM
100
AcDbPolyline
 90
        4
 70
         1
 43
0.1
 10
136.85
 20
13.0
 10
136.85
 20
14.8
 10
140.15
 20
14.8
 10
140.15
 20
13.0
  0
LWPOLYLINE
  5
12B
100
AcDbEntity
  8
ASSEMBLY_OUTLINES_BTM
100
AcDbPolyline
 90
        4
 70
         1
 43
0.1
 10
20.15
 20
6.9
 10
20.15
 20
8.7
 10
23.45
 20
8.7
 10
23.45
 20
6.9
  0
LWPOLYLINE
  5
12C
100
AcDbEntity
  8
ASSEMBLY_OUTLINES_BTM
100
AcDbPolyline
 90
        4
 70
         1
 43
0.1
 10
128.7
 20
39.55
 10
128.7
 20
42.85
 10
130.5
 20
42.85
 10
130.5
 20
39.55
  0
LWPOLYLINE
  5
12D
100
AcDbEntity
  8
ASSEMBLY_OUTLINES_BTM
100
AcDbPolyline
 90
        4
 70
         1
 43
0.1
 10
40.6
 20
50.85
 10
40.6
 20
54.55
 10
43.6
 20
54.55
 10
43.6
 20
50.85
  0
LWPOLYLINE
  5
12E
100
AcDbEntity
  8
ASSEMBLY_OUTLINES_BTM
100
AcDbPolyline
 90
        2
 70
         0
 43
0.1
 10
40.6
 20
50.95
 10
43.6
 20
50.95
  0
LWPOLYLINE
  5
12F
100
AcDbEntity
  8
ASSEMBLY_OUTLINES_BTM
100
AcDbPolyline
 90
        2
 70
         0
 43
0.1
 10
40.6
 20
51.05
 10
43.6
 20
51.05
  0
LWPOLYLINE
  5
130
100
AcDbEntity
  8
ASSEMBLY_OUTLINES_BTM
100
AcDbPolyline
 90
        2
 70
         0
 43
0.1
 10
40.6
 20
51.15
 10
43.6
 20
51.15
  0
LWPOLYLINE
  5
131
100
AcDbEntity
  8
ASSEMBLY_OUTLINES_BTM
100
AcDbPolyline
 90
        2
 70
         0
 43
0.1
 10
40.6
 20
51.25
 10
43.6
 20
51.25
  0
LWPOLYLINE
  5
132
100
AcDbEntity
  8
ASSEMBLY_OUTLINES_BTM
100
AcDbPolyline
 90
        2
 70
         0
 43
0.1
 10
40.6
 20
51.35
 10
43.6
 20
51.35
  0
LWPOLYLINE
  5
133
100
AcDbEntity
  8
ASSEMBLY_OUTLINES_BTM
100
AcDbPolyline
 90
        2
 70
         0
 43
0.1
 10
40.6
 20
51.45
 10
43.6
 20
51.45
  0
LWPOLYLINE
  5
134
100
AcDbEntity
  8
ASSEMBLY_OUTLINES_BTM
100
AcDbPolyline
 90
        2
 70
         0
 43
0.1
 10
40.6
 20
51.55
 10
43.6
 20
51.55
  0
LWPOLYLINE
  5
135
100
AcDbEntity
  8
ASSEMBLY_OUTLINES_BTM
100
AcDbPolyline
 90
        2
 70
         0
 43
0.1
 10
40.6
 20
51.65
 10
43.6
 20
51.65
  0
LWPOLYLINE
  5
136
100
AcDbEntity
  8
ASSEMBLY_OUTLINES_BTM
100
AcDbPolyline
 90
        4
 70
         1
 43
0.1
 10
27.25
 20
6.9
 10
27.25
 20
8.7
 10
30.55
 20
8.7
 10
30.55
 20
6.9
  0
LWPOLYLINE
  5
137
100
AcDbEntity
  8
ASSEMBLY_OUTLINES_BTM
100
AcDbPolyline
 90
        4
 70
         1
 43
0.1
 10
56.35
 20
32.7
 10
56.35
 20
34.5
 10
59.65
 20
34.5
 10
59.65
 20
32.7
  0
LWPOLYLINE
  5
138
100
AcDbEntity
  8
ASSEMBLY_OUTLINES_BTM
100
AcDbPolyline
 90
        4
 70
         1
 43
0.1
 10
99.85
 20
9.5
 10
99.85
 20
11.3
 10
103.15
 20
11.3
 10
103.15
 20
9.5
  0
LWPOLYLINE
  5
139
100
AcDbEntity
  8
ASSEMBLY_OUTLINES_BTM
100
AcDbPolyline
 90
        4
 70
         1
 43
0.1
 10
38.9
 20
28.75
 10
38.9
 20
32.45
 10
41.9
 20
32.45
 10
41.9
 20
28.75
  0
LWPOLYLINE
  5
13A
100
AcDbEntity
  8
ASSEMBLY_OUTLINES_BTM
100
AcDbPolyline
 90
        2
 70
         0
 43
0.1
 10
38.9
 20
28.85
 10
41.9
 20
28.85
  0
LWPOLYLINE
  5
13B
100
AcDbEntity
  8
ASSEMBLY_OUTLINES_BTM
100
AcDbPolyline
 90
        2
 70
         0
 43
0.1
 10
38.9
 20
28.95
 10
41.9
 20
28.95
  0
LWPOLYLINE
  5
13C
100
AcDbEntity
  8
ASSEMBLY_OUTLINES_BTM
100
AcDbPolyline
 90
        2
 70
         0
 43
0.1
 10
38.9
 20
29.05
 10
41.9
 20
29.05
  0
LWPOLYLINE
  5
13D
100
AcDbEntity
  8
ASSEMBLY_OUTLINES_BTM
100
AcDbPolyline
 90
        2
 70
         0
 43
0.1
 10
38.9
 20
29.15
 10
41.9
 20
29.15
  0
LWPOLYLINE
  5
13E
100
AcDbEntity
  8
ASSEMBLY_OUTLINES_BTM
100
AcDbPolyline
 90
        2
 70
         0
 43
0.1
 10
38.9
 20
29.25
 10
41.9
 20
29.25
  0
LWPOLYLINE
  5
13F
100
AcDbEntity
  8
ASSEMBLY_OUTLINES_BTM
100
AcDbPolyline
 90
        2
 70
         0
 43
0.1
 10
38.9
 20
29.35
 10
41.9
 20
29.35
  0
LWPOLYLINE
  5
140
100
AcDbEntity
  8
ASSEMBLY_OUTLINES_BTM
100
AcDbPolyline
 90
        2
 70
         0
 43
0.1
 10
38.9
 20
29.45
 10
41.9
 20
29.45
  0
LWPOLYLINE
  5
141
100
AcDbEntity
  8
ASSEMBLY_OUTLINES_BTM
100
AcDbPolyline
 90
        2
 70
         0
 43
0.1
 10
38.9
 20
29.55
 10
41.9
 20
29.55
  0
LWPOLYLINE
  5
142
100
AcDbEntity
  8
ASSEMBLY_OUTLINES_BTM
100
AcDbPolyline
 90
        4
 70
         1
 43
0.1
 10
159.55
 20
42.4
 10
159.55
 20
44.2
 10
162.85
 20
44.2
 10
162.85
 20
42.4
  0
LWPOLYLINE
  5
143
100
AcDbEntity
  8
ASSEMBLY_OUTLINES_BTM
100
AcDbPolyline
 90
        4
 70
         1
 43
0.1
 10
38.9
 20
34.85
 10
38.9
 20
38.55
 10
41.9
 20
38.55
 10
41.9
 20
34.85
  0
LWPOLYLINE
  5
144
100
AcDbEntity
  8
ASSEMBLY_OUTLINES_BTM
100
AcDbPolyline
 90
        2
 70
         0
 43
0.1
 10
38.9
 20
34.95
 10
41.9
 20
34.95
  0
LWPOLYLINE
  5
145
100
AcDbEntity
  8
ASSEMBLY_OUTLINES_BTM
100
AcDbPolyline
 90
        2
 70
         0
 43
0.1
 10
38.9
 20
35.05
 10
41.9
 20
35.05
  0
LWPOLYLINE
  5
146
100
AcDbEntity
  8
ASSEMBLY_OUTLINES_BTM
100
AcDbPolyline
 90
        2
 70
         0
 43
0.1
 10
38.9
 20
35.15
 10
41.9
 20
35.15
  0
LWPOLYLINE
  5
147
100
AcDbEntity
  8
ASSEMBLY_OUTLINES_BTM
100
AcDbPolyline
 90
        2
 70
         0
 43
0.1
 10
38.9
 20
35.25
 10
41.9
 20
35.25
  0
LWPOLYLINE
  5
148
100
AcDbEntity
  8
ASSEMBLY_OUTLINES_BTM
100
AcDbPolyline
 90
        2
 70
         0
 43
0.1
 10
38.9
 20
35.35
 10
41.9
 20
35.35
  0
LWPOLYLINE
  5
149
100
AcDbEntity
  8
ASSEMBLY_OUTLINES_BTM
100
AcDbPolyline
 90
        2
 70
         0
 43
0.1
 10
38.9
 20
35.45
 10
41.9
 20
35.45
  0
LWPOLYLINE
  5
14A
100
AcDbEntity
  8
ASSEMBLY_OUTLINES_BTM
100
AcDbPolyline
 90
        2
 70
         0
 43
0.1
 10
38.9
 20
35.55
 10
41.9
 20
35.55
  0
LWPOLYLINE
  5
14B
100
AcDbEntity
  8
ASSEMBLY_OUTLINES_BTM
100
AcDbPolyline
 90
        2
 70
         0
 43
0.1
 10
38.9
 20
35.65
 10
41.9
 20
35.65
  0
LWPOLYLINE
  5
14C
100
AcDbEntity
  8
ASSEMBLY_OUTLINES_BTM
100
AcDbPolyline
 90
        4
 70
         1
 43
0.1
 10
56.55
 20
35.6
 10
56.55
 20
37.4
 10
59.85
 20
37.4
 10
59.85
 20
35.6
  0
LWPOLYLINE
  5
14D
100
AcDbEntity
  8
ASSEMBLY_OUTLINES_BTM
100
AcDbPolyline
 90
        4
 70
         1
 43
0.1
 10
159.55
 20
46.5
 10
159.55
 20
48.3
 10
162.85
 20
48.3
 10
162.85
 20
46.5
  0
LWPOLYLINE
  5
14E
100
AcDbEntity
  8
ASSEMBLY_OUTLINES_BTM
100
AcDbPolyline
 90
        4
 70
         1
 43
0.1
 10
21.15
 20
48.4
 10
21.15
 20
50.2
 10
24.45
 20
50.2
 10
24.45
 20
48.4
  0
LWPOLYLINE
  5
14F
100
AcDbEntity
  8
ASSEMBLY_OUTLINES_BTM
100
AcDbPolyline
 90
        4
 70
         1
 43
0.1
 10
109.75
 20
85.3
 10
109.75
 20
87.1
 10
113.05
 20
87.1
 10
113.05
 20
85.3
  0
LWPOLYLINE
  5
150
100
AcDbEntity
  8
ASSEMBLY_OUTLINES_BTM
100
AcDbPolyline
 90
        4
 70
         1
 43
0.1
 10
55.75
 20
27.1
 10
55.75
 20
30.1
 10
59.45
 20
30.1
 10
59.45
 20
27.1
  0
LWPOLYLINE
  5
151
100
AcDbEntity
  8
ASSEMBLY_OUTLINES_BTM
100
AcDbPolyline
 90
        2
 70
         0
 43
0.1
 10
59.35
 20
27.1
 10
59.35
 20
30.1
  0
LWPOLYLINE
  5
152
100
AcDbEntity
  8
ASSEMBLY_OUTLINES_BTM
100
AcDbPolyline
 90
        2
 70
         0
 43
0.1
 10
59.25
 20
27.1
 10
59.25
 20
30.1
  0
LWPOLYLINE
  5
153
100
AcDbEntity
  8
ASSEMBLY_OUTLINES_BTM
100
AcDbPolyline
 90
        2
 70
         0
 43
0.1
 10
59.15
 20
27.1
 10
59.15
 20
30.1
  0
LWPOLYLINE
  5
154
100
AcDbEntity
  8
ASSEMBLY_OUTLINES_BTM
100
AcDbPolyline
 90
        2
 70
         0
 43
0.1
 10
59.05
 20
27.1
 10
59.05
 20
30.1
  0
LWPOLYLINE
  5
155
100
AcDbEntity
  8
ASSEMBLY_OUTLINES_BTM
100
AcDbPolyline
 90
        2
 70
         0
 43
0.1
 10
58.95
 20
27.1
 10
58.95
 20
30.1
  0
LWPOLYLINE
  5
156
100
AcDbEntity
  8
ASSEMBLY_OUTLINES_BTM
100
AcDbPolyline
 90
        2
 70
         0
 43
0.1
 10
58.85
 20
27.1
 10
58.85
 20
30.1
  0
LWPOLYLINE
  5
157
100
AcDbEntity
  8
ASSEMBLY_OUTLINES_BTM
100
AcDbPolyline
 90
        2
 70
         0
 43
0.1
 10
58.75
 20
27.1
 10
58.75
 20
30.1
  0
LWPOLYLINE
  5
158
100
AcDbEntity
  8
ASSEMBLY_OUTLINES_BTM
100
AcDbPolyline
 90
        2
 70
         0
 43
0.1
 10
58.65
 20
27.1
 10
58.65
 20
30.1
  0
LWPOLYLINE
  5
159
100
AcDbEntity
  8
ASSEMBLY_OUTLINES_BTM
100
AcDbPolyline
 90
        4
 70
         1
 43
0.1
 10
27.2
 20
50.65
 10
27.2
 20
53.95
 10
29.0
 20
53.95
 10
29.0
 20
50.65
  0
LWPOLYLINE
  5
15A
100
AcDbEntity
  8
ASSEMBLY_OUTLINES_BTM
100
AcDbPolyline
 90
        6
 70
         1
 43
0.1
 10
69.85
 20
51.5
 10
71.5
 20
53.15
 10
71.5
 20
58.1
 10
64.9
 20
58.1
 10
64.9
 20
53.15
 10
66.55
 20
51.5
  0
LWPOLYLINE
  5
15B
100
AcDbEntity
  8
ASSEMBLY_OUTLINES_BTM
100
AcDbPolyline
 90
        4
 70
         1
 43
0.1
 10
189.65
 20
87.8
 10
189.65
 20
89.6
 10
192.95
 20
89.6
 10
192.95
 20
87.8
  0
LWPOLYLINE
  5
15C
100
AcDbEntity
  8
ASSEMBLY_OUTLINES_BTM
100
AcDbPolyline
 90
        4
 70
         1
 43
0.1
 10
152.45
 20
41.95
 10
152.45
 20
47.05
 10
156.95
 20
47.05
 10
156.95
 20
41.95
  0
LWPOLYLINE
  5
15D
100
AcDbEntity
  8
ASSEMBLY_OUTLINES_BTM
100
AcDbPolyline
 90
        2
 70
         1
 43
0.1
 10
152.95
 20
42.95
 42
-1.0
 10
153.95
 20
42.95
 42
-1.0
  0
LWPOLYLINE
  5
15E
100
AcDbEntity
  8
ASSEMBLY_OUTLINES_BTM
100
AcDbPolyline
 90
        6
 70
         1
 43
0.1
 10
60.9
 20
23.95
 10
62.55
 20
22.3
 10
67.5
 20
22.3
 10
67.5
 20
28.9
 10
62.55
 20
28.9
 10
60.9
 20
27.25
  0
LWPOLYLINE
  5
15F
100
AcDbEntity
  8
ASSEMBLY_OUTLINES_BTM
100
AcDbPolyline
 90
        4
 70
         1
 43
0.1
 10
16.45
 20
8.5
 10
16.45
 20
10.3
 10
19.75
 20
10.3
 10
19.75
 20
8.5
  0
LWPOLYLINE
  5
160
100
AcDbEntity
  8
ASSEMBLY_OUTLINES_BTM
100
AcDbPolyline
 90
        4
 70
         1
 43
0.1
 10
104.4
 20
83.35
 10
104.4
 20
86.65
 10
106.2
 20
86.65
 10
106.2
 20
83.35
  0
LWPOLYLINE
  5
161
100
AcDbEntity
  8
ASSEMBLY_OUTLINES_BTM
100
AcDbPolyline
 90
        4
 70
         1
 43
0.1
 10
147.9
 20
41.35
 10
147.9
 20
44.65
 10
149.7
 20
44.65
 10
149.7
 20
41.35
  0
LWPOLYLINE
  5
162
100
AcDbEntity
  8
ASSEMBLY_OUTLINES_BTM
100
AcDbPolyline
 90
        4
 70
         1
 43
0.1
 10
54.2
 20
51.0
 10
54.2
 20
55.0
 10
59.2
 20
55.0
 10
59.2
 20
51.0
  0
LWPOLYLINE
  5
163
100
AcDbEntity
  8
ASSEMBLY_OUTLINES_BTM
100
AcDbPolyline
 90
        2
 70
         1
 43
0.1
 10
54.7
 20
54.0
 42
-1.0
 10
55.7
 20
54.0
 42
-1.0
  0
LWPOLYLINE
  5
164
100
AcDbEntity
  8
ASSEMBLY_OUTLINES_BTM
100
AcDbPolyline
 90
        4
 70
         1
 43
0.1
 10
18.4
 20
16.9
 10
18.4
 20
23.9
 10
25.4
 20
23.9
 10
25.4
 20
16.9
  0
LWPOLYLINE
  5
165
100
AcDbEntity
  8
ASSEMBLY_OUTLINES_BTM
100
AcDbPolyline
 90
        4
 70
         1
 43
0.1
 10
96.15
 20
9.5
 10
96.15
 20
11.3
 10
99.45
 20
11.3
 10
99.45
 20
9.5
  0
LWPOLYLINE
  5
166
100
AcDbEntity
  8
ASSEMBLY_OUTLINES_BTM
100
AcDbPolyline
 90
        4
 70
         1
 43
0.1
 10
37.3
 20
50.85
 10
37.3
 20
54.55
 10
40.3
 20
54.55
 10
40.3
 20
50.85
  0
LWPOLYLINE
  5
167
100
AcDbEntity
  8
ASSEMBLY_OUTLINES_BTM
100
AcDbPolyline
 90
        2
 70
         0
 43
0.1
 10
37.3
 20
50.95
 10
40.3
 20
50.95
  0
LWPOLYLINE
  5
168
100
AcDbEntity
  8
ASSEMBLY_OUTLINES_BTM
100
AcDbPolyline
 90
        2
 70
         0
 43
0.1
 10
37.3
 20
51.05
 10
40.3
 20
51.05
  0
LWPOLYLINE
  5
169
100
AcDbEntity
  8
ASSEMBLY_OUTLINES_BTM
100
AcDbPolyline
 90
        2
 70
         0
 43
0.1
 10
37.3
 20
51.15
 10
40.3
 20
51.15
  0
LWPOLYLINE
  5
16A
100
AcDbEntity
  8
ASSEMBLY_OUTLINES_BTM
100
AcDbPolyline
 90
        2
 70
         0
 43
0.1
 10
37.3
 20
51.25
 10
40.3
 20
51.25
  0
LWPOLYLINE
  5
16B
100
AcDbEntity
  8
ASSEMBLY_OUTLINES_BTM
100
AcDbPolyline
 90
        2
 70
         0
 43
0.1
 10
37.3
 20
51.35
 10
40.3
 20
51.35
  0
LWPOLYLINE
  5
16C
100
AcDbEntity
  8
ASSEMBLY_OUTLINES_BTM
100
AcDbPolyline
 90
        2
 70
         0
 43
0.1
 10
37.3
 20
51.45
 10
40.3
 20
51.45
  0
LWPOLYLINE
  5
16D
100
AcDbEntity
  8
ASSEMBLY_OUTLINES_BTM
100
AcDbPolyline
 90
        2
 70
         0
 43
0.1
 10
37.3
 20
51.55
 10
40.3
 20
51.55
  0
LWPOLYLINE
  5
16E
100
AcDbEntity
  8
ASSEMBLY_OUTLINES_BTM
100
AcDbPolyline
 90
        2
 70
         0
 43
0.1
 10
37.3
 20
51.65
 10
40.3
 20
51.65
  0
LWPOLYLINE
  5
16F
100
AcDbEntity
  8
ASSEMBLY_OUTLINES_BTM
100
AcDbPolyline
 90
        5
 70
         1
 10
162.95
 20
12.65
 10
164.7
 20
15.15
 10
166.45
 20
12.65
 10
166.45
 20
10.65
 10
162.95
 20
10.65
  0
HATCH
  5
170
100
AcDbEntity
  8
ASSEMBLY_OUTLINES_BTM
100
AcDbHatch
 10
0.0
 20
0.0
 30
0.0
210
0.0
220
0.0
230
1.0
  2
SOLID
 70
         1
 71
         1
 91
        1
 92
        2
 72
         0
 73
         1
 93
        5
 10
162.94999999999999
 20
12.65
 10
164.69999999999999
 20
15.15
 10
166.44999999999999
 20
12.65
 10
166.44999999999999
 20
10.65
 10
162.94999999999999
 20
10.65
 97
        1
330
16F
 75
         0
 76
         1
 98
        1
 10
0.0
 20
0.0
  0
LWPOLYLINE
  5
171
100
AcDbEntity
  8
ASSEMBLY_OUTLINES_BTM
100
AcDbPolyline
 90
        4
 70
         1
 43
0.1
 10
128.7
 20
35.75
 10
128.7
 20
39.05
 10
130.5
 20
39.05
 10
130.5
 20
35.75
  0
LWPOLYLINE
  5
172
100
AcDbEntity
  8
ASSEMBLY_OUTLINES_BTM
100
AcDbPolyline
 90
        4
 70
         1
 43
0.1
 10
117.15
 20
91.6
 10
117.15
 20
93.4
 10
120.45
 20
93.4
 10
120.45
 20
91.6
  0
LWPOLYLINE
  5
173
100
AcDbEntity
  8
ASSEMBLY_OUTLINES_BTM
100
AcDbPolyline
 90
        4
 70
         1
 43
0.1
 10
60.15
 20
35.6
 10
60.15
 20
37.4
 10
63.45
 20
37.4
 10
63.45
 20
35.6
  0
LWPOLYLINE
  5
174
100
AcDbEntity
  8
ASSEMBLY_OUTLINES_BTM
100
AcDbPolyline
 90
        4
 70
         1
 43
0.1
 10
27.4
 20
28.75
 10
27.4
 20
32.05
 10
29.2
 20
32.05
 10
29.2
 20
28.75
  0
LWPOLYLINE
  5
175
100
AcDbEntity
  8
ASSEMBLY_OUTLINES_BTM
100
AcDbPolyline
 90
        4
 70
         1
 43
0.1
 10
10.05
 20
79.5
 10
10.05
 20
81.3
 10
13.35
 20
81.3
 10
13.35
 20
79.5
  0
LWPOLYLINE
  5
176
100
AcDbEntity
  8
ASSEMBLY_OUTLINES_BTM
100
AcDbPolyline
 90
        4
 70
         1
 43
0.1
 10
105.35
 20
43.7
 10
105.35
 20
45.5
 10
108.65
 20
45.5
 10
108.65
 20
43.7
  0
LWPOLYLINE
  5
177
100
AcDbEntity
  8
ASSEMBLY_OUTLINES_BTM
100
AcDbPolyline
 90
        6
 70
         1
 43
0.1
 10
39.55
 20
16.0
 10
41.2
 20
17.65
 10
41.2
 20
22.6
 10
34.6
 20
22.6
 10
34.6
 20
17.65
 10
36.25
 20
16.0
  0
LWPOLYLINE
  5
178
100
AcDbEntity
  8
ASSEMBLY_OUTLINES_BTM
100
AcDbPolyline
 90
        4
 70
         1
 43
0.1
 10
117.15
 20
93.6
 10
117.15
 20
95.4
 10
120.45
 20
95.4
 10
120.45
 20
93.6
  0
LWPOLYLINE
  5
179
100
AcDbEntity
  8
ASSEMBLY_OUTLINES_BTM
100
AcDbPolyline
 90
        4
 70
         1
 43
0.1
 10
141.55
 20
11.0
 10
141.55
 20
12.8
 10
144.85
 20
12.8
 10
144.85
 20
11.0
  0
LWPOLYLINE
  5
17A
100
AcDbEntity
  8
ASSEMBLY_OUTLINES_BTM
100
AcDbPolyline
 90
        4
 70
         1
 43
0.1
 10
72.2
 20
53.85
 10
72.2
 20
57.55
 10
75.2
 20
57.55
 10
75.2
 20
53.85
  0
LWPOLYLINE
  5
17B
100
AcDbEntity
  8
ASSEMBLY_OUTLINES_BTM
100
AcDbPolyline
 90
        2
 70
         0
 43
0.1
 10
72.2
 20
53.95
 10
75.2
 20
53.95
  0
LWPOLYLINE
  5
17C
100
AcDbEntity
  8
ASSEMBLY_OUTLINES_BTM
100
AcDbPolyline
 90
        2
 70
         0
 43
0.1
 10
72.2
 20
54.05
 10
75.2
 20
54.05
  0
LWPOLYLINE
  5
17D
100
AcDbEntity
  8
ASSEMBLY_OUTLINES_BTM
100
AcDbPolyline
 90
        2
 70
         0
 43
0.1
 10
72.2
 20
54.15
 10
75.2
 20
54.15
  0
LWPOLYLINE
  5
17E
100
AcDbEntity
  8
ASSEMBLY_OUTLINES_BTM
100
AcDbPolyline
 90
        2
 70
         0
 43
0.1
 10
72.2
 20
54.25
 10
75.2
 20
54.25
  0
LWPOLYLINE
  5
17F
100
AcDbEntity
  8
ASSEMBLY_OUTLINES_BTM
100
AcDbPolyline
 90
        2
 70
         0
 43
0.1
 10
72.2
 20
54.35
 10
75.2
 20
54.35
  0
LWPOLYLINE
  5
180
100
AcDbEntity
  8
ASSEMBLY_OUTLINES_BTM
100
AcDbPolyline
 90
        2
 70
         0
 43
0.1
 10
72.2
 20
54.45
 10
75.2
 20
54.45
  0
LWPOLYLINE
  5
181
100
AcDbEntity
  8
ASSEMBLY_OUTLINES_BTM
100
AcDbPolyline
 90
        2
 70
         0
 43
0.1
 10
72.2
 20
54.55
 10
75.2
 20
54.55
  0
LWPOLYLINE
  5
182
100
AcDbEntity
  8
ASSEMBLY_OUTLINES_BTM
100
AcDbPolyline
 90
        2
 70
         0
 43
0.1
 10
72.2
 20
54.65
 10
75.2
 20
54.65
  0
LWPOLYLINE
  5
183
100
AcDbEntity
  8
ASSEMBLY_OUTLINES_BTM
100
AcDbPolyline
 90
        4
 70
         1
 43
0.1
 10
25.35
 20
48.4
 10
25.35
 20
50.2
 10
28.65
 20
50.2
 10
28.65
 20
48.4
  0
LWPOLYLINE
  5
184
100
AcDbEntity
  8
ASSEMBLY_OUTLINES_BTM
100
AcDbPolyline
 90
        4
 70
         1
 43
0.1
 10
128.7
 20
32.15
 10
128.7
 20
35.45
 10
130.5
 20
35.45
 10
130.5
 20
32.15
  0
LWPOLYLINE
  5
185
100
AcDbEntity
  8
ASSEMBLY_OUTLINES_BTM
100
AcDbPolyline
 90
        4
 70
         1
 10
136.5
 20
26.775
 10
136.5
 20
31.855
 10
187.3
 20
31.855
 10
187.3
 20
26.775
  0
CIRCLE
  5
186
100
AcDbEntity
  8
ASSEMBLY_OUTLINES_BTM
100
AcDbCircle
 10
186.031775
 20
28.03456
 30
0.0
 40
0.45
  0
HATCH
  5
187
100
AcDbEntity
  8
ASSEMBLY_OUTLINES_BTM
100
AcDbHatch
 10
0.0
 20
0.0
 30
0.0
210
0.0
220
0.0
230
1.0
  2
SOLID
 70
         1
 71
         1
 91
        1
 92
        1
 93
        1
 72
         2
 10
186.03177500000001
 20
28.034559999999999
 40
0.45
 50
0.0
 51
360.0
 73
         1
 97
        1
330
186
 75
         0
 76
         1
 98
        1
 10
0.0
 20
0.0
  0
CIRCLE
  5
188
100
AcDbEntity
  8
ASSEMBLY_OUTLINES_BTM
100
AcDbCircle
 10
183.491775
 20
28.03456
 30
0.0
 40
0.45
  0
HATCH
  5
189
100
AcDbEntity
  8
ASSEMBLY_OUTLINES_BTM
100
AcDbHatch
 10
0.0
 20
0.0
 30
0.0
210
0.0
220
0.0
230
1.0
  2
SOLID
 70
         1
 71
         1
 91
        1
 92
        1
 93
        1
 72
         2
 10
183.49177499999999
 20
28.034559999999999
 40
0.45
 50
0.0
 51
360.0
 73
         1
 97
        1
330
188
 75
         0
 76
         1
 98
        1
 10
0.0
 20
0.0
  0
CIRCLE
  5
18A
100
AcDbEntity
  8
ASSEMBLY_OUTLINES_BTM
100
AcDbCircle
 10
180.951775
 20
28.03456
 30
0.0
 40
0.45
  0
HATCH
  5
18B
100
AcDbEntity
  8
ASSEMBLY_OUTLINES_BTM
100
AcDbHatch
 10
0.0
 20
0.0
 30
0.0
210
0.0
220
0.0
230
1.0
  2
SOLID
 70
         1
 71
         1
 91
        1
 92
        1
 93
        1
 72
         2
 10
180.951775
 20
28.034559999999999
 40
0.45
 50
0.0
 51
360.0
 73
         1
 97
        1
330
18A
 75
         0
 76
         1
 98
        1
 10
0.0
 20
0.0
  0
CIRCLE
  5
18C
100
AcDbEntity
  8
ASSEMBLY_OUTLINES_BTM
100
AcDbCircle
 10
178.411775
 20
28.03456
 30
0.0
 40
0.45
  0
HATCH
  5
18D
100
AcDbEntity
  8
ASSEMBLY_OUTLINES_BTM
100
AcDbHatch
 10
0.0
 20
0.0
 30
0.0
210
0.0
220
0.0
230
1.0
  2
SOLID
 70
         1
 71
         1
 91
        1
 92
        1
 93
        1
 72
         2
 10
178.41177500000001
 20
28.034559999999999
 40
0.45
 50
0.0
 51
360.0
 73
         1
 97
        1
330
18C
 75
         0
 76
         1
 98
        1
 10
0.0
 20
0.0
  0
CIRCLE
  5
18E
100
AcDbEntity
  8
ASSEMBLY_OUTLINES_BTM
100
AcDbCircle
 10
175.871775
 20
28.03456
 30
0.0
 40
0.45
  0
HATCH
  5
18F
100
AcDbEntity
  8
ASSEMBLY_OUTLINES_BTM
100
AcDbHatch
 10
0.0
 20
0.0
 30
0.0
210
0.0
220
0.0
230
1.0
  2
SOLID
 70
         1
 71
         1
 91
        1
 92
        1
 93
        1
 72
         2
 10
175.87177500000001
 20
28.034559999999999
 40
0.45
 50
0.0
 51
360.0
 73
         1
 97
        1
330
18E
 75
         0
 76
         1
 98
        1
 10
0.0
 20
0.0
  0
CIRCLE
  5
190
100
AcDbEntity
  8
ASSEMBLY_OUTLINES_BTM
100
AcDbCircle
 10
173.331775
 20
28.03456
 30
0.0
 40
0.45
  0
HATCH
  5
191
100
AcDbEntity
  8
ASSEMBLY_OUTLINES_BTM
100
AcDbHatch
 10
0.0
 20
0.0
 30
0.0
210
0.0
220
0.0
230
1.0
  2
SOLID
 70
         1
 71
         1
 91
        1
 92
        1
 93
        1
 72
         2
 10
173.33177499999999
 20
28.034559999999999
 40
0.45
 50
0.0
 51
360.0
 73
         1
 97
        1
330
190
 75
         0
 76
         1
 98
        1
 10
0.0
 20
0.0
  0
CIRCLE
  5
192
100
AcDbEntity
  8
ASSEMBLY_OUTLINES_BTM
100
AcDbCircle
 10
170.791775
 20
28.03456
 30
0.0
 40
0.45
  0
HATCH
  5
193
100
AcDbEntity
  8
ASSEMBLY_OUTLINES_BTM
100
AcDbHatch
 10
0.0
 20
0.0
 30
0.0
210
0.0
220
0.0
230
1.0
  2
SOLID
 70
         1
 71
         1
 91
        1
 92
        1
 93
        1
 72
         2
 10
170.791775
 20
28.034559999999999
 40
0.45
 50
0.0
 51
360.0
 73
         1
 97
        1
330
192
 75
         0
 76
         1
 98
        1
 10
0.0
 20
0.0
  0
CIRCLE
  5
194
100
AcDbEntity
  8
ASSEMBLY_OUTLINES_BTM
100
AcDbCircle
 10
168.251775
 20
28.03456
 30
0.0
 40
0.45
  0
HATCH
  5
195
100
AcDbEntity
  8
ASSEMBLY_OUTLINES_BTM
100
AcDbHatch
 10
0.0
 20
0.0
 30
0.0
210
0.0
220
0.0
230
1.0
  2
SOLID
 70
         1
 71
         1
 91
        1
 92
        1
 93
        1
 72
         2
 10
168.25177500000001
 20
28.034559999999999
 40
0.45
 50
0.0
 51
360.0
 73
         1
 97
        1
330
194
 75
         0
 76
         1
 98
        1
 10
0.0
 20
0.0
  0
CIRCLE
  5
196
100
AcDbEntity
  8
ASSEMBLY_OUTLINES_BTM
100
AcDbCircle
 10
165.711775
 20
28.03456
 30
0.0
 40
0.45
  0
HATCH
  5
197
100
AcDbEntity
  8
ASSEMBLY_OUTLINES_BTM
100
AcDbHatch
 10
0.0
 20
0.0
 30
0.0
210
0.0
220
0.0
230
1.0
  2
SOLID
 70
         1
 71
         1
 91
        1
 92
        1
 93
        1
 72
         2
 10
165.71177499999999
 20
28.034559999999999
 40
0.45
 50
0.0
 51
360.0
 73
         1
 97
        1
330
196
 75
         0
 76
         1
 98
        1
 10
0.0
 20
0.0
  0
CIRCLE
  5
198
100
AcDbEntity
  8
ASSEMBLY_OUTLINES_BTM
100
AcDbCircle
 10
163.171775
 20
28.03456
 30
0.0
 40
0.45
  0
HATCH
  5
199
100
AcDbEntity
  8
ASSEMBLY_OUTLINES_BTM
100
AcDbHatch
 10
0.0
 20
0.0
 30
0.0
210
0.0
220
0.0
230
1.0
  2
SOLID
 70
         1
 71
         1
 91
        1
 92
        1
 93
        1
 72
         2
 10
163.171775
 20
28.034559999999999
 40
0.45
 50
0.0
 51
360.0
 73
         1
 97
        1
330
198
 75
         0
 76
         1
 98
        1
 10
0.0
 20
0.0
  0
CIRCLE
  5
19A
100
AcDbEntity
  8
ASSEMBLY_OUTLINES_BTM
100
AcDbCircle
 10
160.628226
 20
28.02544
 30
0.0
 40
0.45
  0
HATCH
  5
19B
100
AcDbEntity
  8
ASSEMBLY_OUTLINES_BTM
100
AcDbHatch
 10
0.0
 20
0.0
 30
0.0
210
0.0
220
0.0
230
1.0
  2
SOLID
 70
         1
 71
         1
 91
        1
 92
        1
 93
        1
 72
         2
 10
160.62822600000001
 20
28.02544
 40
0.45
 50
0.0
 51
360.0
 73
         1
 97
        1
330
19A
 75
         0
 76
         1
 98
        1
 10
0.0
 20
0.0
  0
CIRCLE
  5
19C
100
AcDbEntity
  8
ASSEMBLY_OUTLINES_BTM
100
AcDbCircle
 10
158.088226
 20
28.02544
 30
0.0
 40
0.45
  0
HATCH
  5
19D
100
AcDbEntity
  8
ASSEMBLY_OUTLINES_BTM
100
AcDbHatch
 10
0.0
 20
0.0
 30
0.0
210
0.0
220
0.0
230
1.0
  2
SOLID
 70
         1
 71
         1
 91
        1
 92
        1
 93
        1
 72
         2
 10
158.08822599999999
 20
28.02544
 40
0.45
 50
0.0
 51
360.0
 73
         1
 97
        1
330
19C
 75
         0
 76
         1
 98
        1
 10
0.0
 20
0.0
  0
CIRCLE
  5
19E
100
AcDbEntity
  8
ASSEMBLY_OUTLINES_BTM
100
AcDbCircle
 10
155.548226
 20
28.02544
 30
0.0
 40
0.45
  0
HATCH
  5
19F
100
AcDbEntity
  8
ASSEMBLY_OUTLINES_BTM
100
AcDbHatch
 10
0.0
 20
0.0
 30
0.0
210
0.0
220
0.0
230
1.0
  2
SOLID
 70
         1
 71
         1
 91
        1
 92
        1
 93
        1
 72
         2
 10
155.548226
 20
28.02544
 40
0.45
 50
0.0
 51
360.0
 73
         1
 97
        1
330
19E
 75
         0
 76
         1
 98
        1
 10
0.0
 20
0.0
  0
CIRCLE
  5
1A0
100
AcDbEntity
  8
ASSEMBLY_OUTLINES_BTM
100
AcDbCircle
 10
153.008226
 20
28.02544
 30
0.0
 40
0.45
  0
HATCH
  5
1A1
100
AcDbEntity
  8
ASSEMBLY_OUTLINES_BTM
100
AcDbHatch
 10
0.0
 20
0.0
 30
0.0
210
0.0
220
0.0
230
1.0
  2
SOLID
 70
         1
 71
         1
 91
        1
 92
        1
 93
        1
 72
         2
 10
153.00822600000001
 20
28.02544
 40
0.45
 50
0.0
 51
360.0
 73
         1
 97
        1
330
1A0
 75
         0
 76
         1
 98
        1
 10
0.0
 20
0.0
  0
CIRCLE
  5
1A2
100
AcDbEntity
  8
ASSEMBLY_OUTLINES_BTM
100
AcDbCircle
 10
150.468226
 20
28.02544
 30
0.0
 40
0.45
  0
HATCH
  5
1A3
100
AcDbEntity
  8
ASSEMBLY_OUTLINES_BTM
100
AcDbHatch
 10
0.0
 20
0.0
 30
0.0
210
0.0
220
0.0
230
1.0
  2
SOLID
 70
         1
 71
         1
 91
        1
 92
        1
 93
        1
 72
         2
 10
150.46822599999999
 20
28.02544
 40
0.45
 50
0.0
 51
360.0
 73
         1
 97
        1
330
1A2
 75
         0
 76
         1
 98
        1
 10
0.0
 20
0.0
  0
CIRCLE
  5
1A4
100
AcDbEntity
  8
ASSEMBLY_OUTLINES_BTM
100
AcDbCircle
 10
147.928226
 20
28.02544
 30
0.0
 40
0.45
  0
HATCH
  5
1A5
100
AcDbEntity
  8
ASSEMBLY_OUTLINES_BTM
100
AcDbHatch
 10
0.0
 20
0.0
 30
0.0
210
0.0
220
0.0
230
1.0
  2
SOLID
 70
         1
 71
         1
 91
        1
 92
        1
 93
        1
 72
         2
 10
147.928226
 20
28.02544
 40
0.45
 50
0.0
 51
360.0
 73
         1
 97
        1
330
1A4
 75
         0
 76
         1
 98
        1
 10
0.0
 20
0.0
  0
CIRCLE
  5
1A6
100
AcDbEntity
  8
ASSEMBLY_OUTLINES_BTM
100
AcDbCircle
 10
145.388226
 20
28.02544
 30
0.0
 40
0.45
  0
HATCH
  5
1A7
100
AcDbEntity
  8
ASSEMBLY_OUTLINES_BTM
100
AcDbHatch
 10
0.0
 20
0.0
 30
0.0
210
0.0
220
0.0
230
1.0
  2
SOLID
 70
         1
 71
         1
 91
        1
 92
        1
 93
        1
 72
         2
 10
145.388226
 20
28.02544
 40
0.45
 50
0.0
 51
360.0
 73
         1
 97
        1
330
1A6
 75
         0
 76
         1
 98
        1
 10
0.0
 20
0.0
  0
CIRCLE
  5
1A8
100
AcDbEntity
  8
ASSEMBLY_OUTLINES_BTM
100
AcDbCircle
 10
142.848226
 20
28.02544
 30
0.0
 40
0.45
  0
HATCH
  5
1A9
100
AcDbEntity
  8
ASSEMBLY_OUTLINES_BTM
100
AcDbHatch
 10
0.0
 20
0.0
 30
0.0
210
0.0
220
0.0
230
1.0
  2
SOLID
 70
         1
 71
         1
 91
        1
 92
        1
 93
        1
 72
         2
 10
142.84822600000001
 20
28.02544
 40
0.45
 50
0.0
 51
360.0
 73
         1
 97
        1
330
1A8
 75
         0
 76
         1
 98
        1
 10
0.0
 20
0.0
  0
CIRCLE
  5
1AA
100
AcDbEntity
  8
ASSEMBLY_OUTLINES_BTM
100
AcDbCircle
 10
140.308226
 20
28.02544
 30
0.0
 40
0.45
  0
HATCH
  5
1AB
100
AcDbEntity
  8
ASSEMBLY_OUTLINES_BTM
100
AcDbHatch
 10
0.0
 20
0.0
 30
0.0
210
0.0
220
0.0
230
1.0
  2
SOLID
 70
         1
 71
         1
 91
        1
 92
        1
 93
        1
 72
         2
 10
140.30822599999999
 20
28.02544
 40
0.45
 50
0.0
 51
360.0
 73
         1
 97
        1
330
1AA
 75
         0
 76
         1
 98
        1
 10
0.0
 20
0.0
  0
CIRCLE
  5
1AC
100
AcDbEntity
  8
ASSEMBLY_OUTLINES_BTM
100
AcDbCircle
 10
137.768226
 20
28.02544
 30
0.0
 40
0.45
  0
HATCH
  5
1AD
100
AcDbEntity
  8
ASSEMBLY_OUTLINES_BTM
100
AcDbHatch
 10
0.0
 20
0.0
 30
0.0
210
0.0
220
0.0
230
1.0
  2
SOLID
 70
         1
 71
         1
 91
        1
 92
        1
 93
        1
 72
         2
 10
137.768226
 20
28.02544
 40
0.45
 50
0.0
 51
360.0
 73
         1
 97
        1
330
1AC
 75
         0
 76
         1
 98
        1
 10
0.0
 20
0.0
  0
CIRCLE
  5
1AE
100
AcDbEntity
  8
ASSEMBLY_OUTLINES_BTM
100
AcDbCircle
 10
186.03
 20
30.57
 30
0.0
 40
0.45
  0
HATCH
  5
1AF
100
AcDbEntity
  8
ASSEMBLY_OUTLINES_BTM
100
AcDbHatch
 10
0.0
 20
0.0
 30
0.0
210
0.0
220
0.0
230
1.0
  2
SOLID
 70
         1
 71
         1
 91
        1
 92
        1
 93
        1
 72
         2
 10
186.03
 20
30.57
 40
0.45
 50
0.0
 51
360.0
 73
         1
 97
        1
330
1AE
 75
         0
 76
         1
 98
        1
 10
0.0
 20
0.0
  0
CIRCLE
  5
1B0
100
AcDbEntity
  8
ASSEMBLY_OUTLINES_BTM
100
AcDbCircle
 10
183.49
 20
30.57
 30
0.0
 40
0.45
  0
HATCH
  5
1B1
100
AcDbEntity
  8
ASSEMBLY_OUTLINES_BTM
100
AcDbHatch
 10
0.0
 20
0.0
 30
0.0
210
0.0
220
0.0
230
1.0
  2
SOLID
 70
         1
 71
         1
 91
        1
 92
        1
 93
        1
 72
         2
 10
183.49000000000001
 20
30.57
 40
0.45
 50
0.0
 51
360.0
 73
         1
 97
        1
330
1B0
 75
         0
 76
         1
 98
        1
 10
0.0
 20
0.0
  0
CIRCLE
  5
1B2
100
AcDbEntity
  8
ASSEMBLY_OUTLINES_BTM
100
AcDbCircle
 10
180.95
 20
30.57
 30
0.0
 40
0.45
  0
HATCH
  5
1B3
100
AcDbEntity
  8
ASSEMBLY_OUTLINES_BTM
100
AcDbHatch
 10
0.0
 20
0.0
 30
0.0
210
0.0
220
0.0
230
1.0
  2
SOLID
 70
         1
 71
         1
 91
        1
 92
        1
 93
        1
 72
         2
 10
180.94999999999999
 20
30.57
 40
0.45
 50
0.0
 51
360.0
 73
         1
 97
        1
330
1B2
 75
         0
 76
         1
 98
        1
 10
0.0
 20
0.0
  0
CIRCLE
  5
1B4
100
AcDbEntity
  8
ASSEMBLY_OUTLINES_BTM
100
AcDbCircle
 10
178.41
 20
30.57
 30
0.0
 40
0.45
  0
HATCH
  5
1B5
100
AcDbEntity
  8
ASSEMBLY_OUTLINES_BTM
100
AcDbHatch
 10
0.0
 20
0.0
 30
0.0
210
0.0
220
0.0
230
1.0
  2
SOLID
 70
         1
 71
         1
 91
        1
 92
        1
 93
        1
 72
         2
 10
178.41
 20
30.57
 40
0.45
 50
0.0
 51
360.0
 73
         1
 97
        1
330
1B4
 75
         0
 76
         1
 98
        1
 10
0.0
 20
0.0
  0
CIRCLE
  5
1B6
100
AcDbEntity
  8
ASSEMBLY_OUTLINES_BTM
100
AcDbCircle
 10
175.87
 20
30.57
 30
0.0
 40
0.45
  0
HATCH
  5
1B7
100
AcDbEntity
  8
ASSEMBLY_OUTLINES_BTM
100
AcDbHatch
 10
0.0
 20
0.0
 30
0.0
210
0.0
220
0.0
230
1.0
  2
SOLID
 70
         1
 71
         1
 91
        1
 92
        1
 93
        1
 72
         2
 10
175.87
 20
30.57
 40
0.45
 50
0.0
 51
360.0
 73
         1
 97
        1
330
1B6
 75
         0
 76
         1
 98
        1
 10
0.0
 20
0.0
  0
CIRCLE
  5
1B8
100
AcDbEntity
  8
ASSEMBLY_OUTLINES_BTM
100
AcDbCircle
 10
173.33
 20
30.57
 30
0.0
 40
0.45
  0
HATCH
  5
1B9
100
AcDbEntity
  8
ASSEMBLY_OUTLINES_BTM
100
AcDbHatch
 10
0.0
 20
0.0
 30
0.0
210
0.0
220
0.0
230
1.0
  2
SOLID
 70
         1
 71
         1
 91
        1
 92
        1
 93
        1
 72
         2
 10
173.33000000000001
 20
30.57
 40
0.45
 50
0.0
 51
360.0
 73
         1
 97
        1
330
1B8
 75
         0
 76
         1
 98
        1
 10
0.0
 20
0.0
  0
CIRCLE
  5
1BA
100
AcDbEntity
  8
ASSEMBLY_OUTLINES_BTM
100
AcDbCircle
 10
170.79
 20
30.57
 30
0.0
 40
0.45
  0
HATCH
  5
1BB
100
AcDbEntity
  8
ASSEMBLY_OUTLINES_BTM
100
AcDbHatch
 10
0.0
 20
0.0
 30
0.0
210
0.0
220
0.0
230
1.0
  2
SOLID
 70
         1
 71
         1
 91
        1
 92
        1
 93
        1
 72
         2
 10
170.78999999999999
 20
30.57
 40
0.45
 50
0.0
 51
360.0
 73
         1
 97
        1
330
1BA
 75
         0
 76
         1
 98
        1
 10
0.0
 20
0.0
  0
CIRCLE
  5
1BC
100
AcDbEntity
  8
ASSEMBLY_OUTLINES_BTM
100
AcDbCircle
 10
168.25
 20
30.57
 30
0.0
 40
0.45
  0
HATCH
  5
1BD
100
AcDbEntity
  8
ASSEMBLY_OUTLINES_BTM
100
AcDbHatch
 10
0.0
 20
0.0
 30
0.0
210
0.0
220
0.0
230
1.0
  2
SOLID
 70
         1
 71
         1
 91
        1
 92
        1
 93
        1
 72
         2
 10
168.25
 20
30.57
 40
0.45
 50
0.0
 51
360.0
 73
         1
 97
        1
330
1BC
 75
         0
 76
         1
 98
        1
 10
0.0
 20
0.0
  0
CIRCLE
  5
1BE
100
AcDbEntity
  8
ASSEMBLY_OUTLINES_BTM
100
AcDbCircle
 10
165.71
 20
30.57
 30
0.0
 40
0.45
  0
HATCH
  5
1BF
100
AcDbEntity
  8
ASSEMBLY_OUTLINES_BTM
100
AcDbHatch
 10
0.0
 20
0.0
 30
0.0
210
0.0
220
0.0
230
1.0
  2
SOLID
 70
         1
 71
         1
 91
        1
 92
        1
 93
        1
 72
         2
 10
165.71000000000001
 20
30.57
 40
0.45
 50
0.0
 51
360.0
 73
         1
 97
        1
330
1BE
 75
         0
 76
         1
 98
        1
 10
0.0
 20
0.0
  0
CIRCLE
  5
1C0
100
AcDbEntity
  8
ASSEMBLY_OUTLINES_BTM
100
AcDbCircle
 10
163.17
 20
30.57
 30
0.0
 40
0.45
  0
HATCH
  5
1C1
100
AcDbEntity
  8
ASSEMBLY_OUTLINES_BTM
100
AcDbHatch
 10
0.0
 20
0.0
 30
0.0
210
0.0
220
0.0
230
1.0
  2
SOLID
 70
         1
 71
         1
 91
        1
 92
        1
 93
        1
 72
         2
 10
163.16999999999999
 20
30.57
 40
0.45
 50
0.0
 51
360.0
 73
         1
 97
        1
330
1C0
 75
         0
 76
         1
 98
        1
 10
0.0
 20
0.0
  0
CIRCLE
  5
1C2
100
AcDbEntity
  8
ASSEMBLY_OUTLINES_BTM
100
AcDbCircle
 10
160.626451
 20
30.57088
 30
0.0
 40
0.45
  0
HATCH
  5
1C3
100
AcDbEntity
  8
ASSEMBLY_OUTLINES_BTM
100
AcDbHatch
 10
0.0
 20
0.0
 30
0.0
210
0.0
220
0.0
230
1.0
  2
SOLID
 70
         1
 71
         1
 91
        1
 92
        1
 93
        1
 72
         2
 10
160.626451
 20
30.570879999999999
 40
0.45
 50
0.0
 51
360.0
 73
         1
 97
        1
330
1C2
 75
         0
 76
         1
 98
        1
 10
0.0
 20
0.0
  0
CIRCLE
  5
1C4
100
AcDbEntity
  8
ASSEMBLY_OUTLINES_BTM
100
AcDbCircle
 10
158.086451
 20
30.57088
 30
0.0
 40
0.45
  0
HATCH
  5
1C5
100
AcDbEntity
  8
ASSEMBLY_OUTLINES_BTM
100
AcDbHatch
 10
0.0
 20
0.0
 30
0.0
210
0.0
220
0.0
230
1.0
  2
SOLID
 70
         1
 71
         1
 91
        1
 92
        1
 93
        1
 72
         2
 10
158.08645100000001
 20
30.570879999999999
 40
0.45
 50
0.0
 51
360.0
 73
         1
 97
        1
330
1C4
 75
         0
 76
         1
 98
        1
 10
0.0
 20
0.0
  0
CIRCLE
  5
1C6
100
AcDbEntity
  8
ASSEMBLY_OUTLINES_BTM
100
AcDbCircle
 10
155.546451
 20
30.57088
 30
0.0
 40
0.45
  0
HATCH
  5
1C7
100
AcDbEntity
  8
ASSEMBLY_OUTLINES_BTM
100
AcDbHatch
 10
0.0
 20
0.0
 30
0.0
210
0.0
220
0.0
230
1.0
  2
SOLID
 70
         1
 71
         1
 91
        1
 92
        1
 93
        1
 72
         2
 10
155.54645099999999
 20
30.570879999999999
 40
0.45
 50
0.0
 51
360.0
 73
         1
 97
        1
330
1C6
 75
         0
 76
         1
 98
        1
 10
0.0
 20
0.0
  0
CIRCLE
  5
1C8
100
AcDbEntity
  8
ASSEMBLY_OUTLINES_BTM
100
AcDbCircle
 10
153.006451
 20
30.57088
 30
0.0
 40
0.45
  0
HATCH
  5
1C9
100
AcDbEntity
  8
ASSEMBLY_OUTLINES_BTM
100
AcDbHatch
 10
0.0
 20
0.0
 30
0.0
210
0.0
220
0.0
230
1.0
  2
SOLID
 70
         1
 71
         1
 91
        1
 92
        1
 93
        1
 72
         2
 10
153.006451
 20
30.570879999999999
 40
0.45
 50
0.0
 51
360.0
 73
         1
 97
        1
330
1C8
 75
         0
 76
         1
 98
        1
 10
0.0
 20
0.0
  0
CIRCLE
  5
1CA
100
AcDbEntity
  8
ASSEMBLY_OUTLINES_BTM
100
AcDbCircle
 10
150.466451
 20
30.57088
 30
0.0
 40
0.45
  0
HATCH
  5
1CB
100
AcDbEntity
  8
ASSEMBLY_OUTLINES_BTM
100
AcDbHatch
 10
0.0
 20
0.0
 30
0.0
210
0.0
220
0.0
230
1.0
  2
SOLID
 70
         1
 71
         1
 91
        1
 92
        1
 93
        1
 72
         2
 10
150.46645100000001
 20
30.570879999999999
 40
0.45
 50
0.0
 51
360.0
 73
         1
 97
        1
330
1CA
 75
         0
 76
         1
 98
        1
 10
0.0
 20
0.0
  0
CIRCLE
  5
1CC
100
AcDbEntity
  8
ASSEMBLY_OUTLINES_BTM
100
AcDbCircle
 10
147.926451
 20
30.57088
 30
0.0
 40
0.45
  0
HATCH
  5
1CD
100
AcDbEntity
  8
ASSEMBLY_OUTLINES_BTM
100
AcDbHatch
 10
0.0
 20
0.0
 30
0.0
210
0.0
220
0.0
230
1.0
  2
SOLID
 70
         1
 71
         1
 91
        1
 92
        1
 93
        1
 72
         2
 10
147.92645099999999
 20
30.570879999999999
 40
0.45
 50
0.0
 51
360.0
 73
         1
 97
        1
330
1CC
 75
         0
 76
         1
 98
        1
 10
0.0
 20
0.0
  0
CIRCLE
  5
1CE
100
AcDbEntity
  8
ASSEMBLY_OUTLINES_BTM
100
AcDbCircle
 10
145.386451
 20
30.57088
 30
0.0
 40
0.45
  0
HATCH
  5
1CF
100
AcDbEntity
  8
ASSEMBLY_OUTLINES_BTM
100
AcDbHatch
 10
0.0
 20
0.0
 30
0.0
210
0.0
220
0.0
230
1.0
  2
SOLID
 70
         1
 71
         1
 91
        1
 92
        1
 93
        1
 72
         2
 10
145.38645099999999
 20
30.570879999999999
 40
0.45
 50
0.0
 51
360.0
 73
         1
 97
        1
330
1CE
 75
         0
 76
         1
 98
        1
 10
0.0
 20
0.0
  0
CIRCLE
  5
1D0
100
AcDbEntity
  8
ASSEMBLY_OUTLINES_BTM
100
AcDbCircle
 10
142.846451
 20
30.57088
 30
0.0
 40
0.45
  0
HATCH
  5
1D1
100
AcDbEntity
  8
ASSEMBLY_OUTLINES_BTM
100
AcDbHatch
 10
0.0
 20
0.0
 30
0.0
210
0.0
220
0.0
230
1.0
  2
SOLID
 70
         1
 71
         1
 91
        1
 92
        1
 93
        1
 72
         2
 10
142.846451
 20
30.570879999999999
 40
0.45
 50
0.0
 51
360.0
 73
         1
 97
        1
330
1D0
 75
         0
 76
         1
 98
        1
 10
0.0
 20
0.0
  0
CIRCLE
  5
1D2
100
AcDbEntity
  8
ASSEMBLY_OUTLINES_BTM
100
AcDbCircle
 10
140.306451
 20
30.57088
 30
0.0
 40
0.45
  0
HATCH
  5
1D3
100
AcDbEntity
  8
ASSEMBLY_OUTLINES_BTM
100
AcDbHatch
 10
0.0
 20
0.0
 30
0.0
210
0.0
220
0.0
230
1.0
  2
SOLID
 70
         1
 71
         1
 91
        1
 92
        1
 93
        1
 72
         2
 10
140.30645100000001
 20
30.570879999999999
 40
0.45
 50
0.0
 51
360.0
 73
         1
 97
        1
330
1D2
 75
         0
 76
         1
 98
        1
 10
0.0
 20
0.0
  0
CIRCLE
  5
1D4
100
AcDbEntity
  8
ASSEMBLY_OUTLINES_BTM
100
AcDbCircle
 10
137.766451
 20
30.57088
 30
0.0
 40
0.45
  0
HATCH
  5
1D5
100
AcDbEntity
  8
ASSEMBLY_OUTLINES_BTM
100
AcDbHatch
 10
0.0
 20
0.0
 30
0.0
210
0.0
220
0.0
230
1.0
  2
SOLID
 70
         1
 71
         1
 91
        1
 92
        1
 93
        1
 72
         2
 10
137.76645099999999
 20
30.570879999999999
 40
0.45
 50
0.0
 51
360.0
 73
         1
 97
        1
330
1D4
 75
         0
 76
         1
 98
        1
 10
0.0
 20
0.0
  0
LWPOLYLINE
  5
1D6
100
AcDbEntity
  8
ASSEMBLY_OUTLINES_BTM
100
AcDbPolyline
 90
        4
 70
         1
 43
0.1
 10
91.0
 20
53.65
 10
91.0
 20
57.35
 10
94.0
 20
57.35
 10
94.0
 20
53.65
  0
LWPOLYLINE
  5
1D7
100
AcDbEntity
  8
ASSEMBLY_OUTLINES_BTM
100
AcDbPolyline
 90
        2
 70
         0
 43
0.1
 10
91.0
 20
53.75
 10
94.0
 20
53.75
  0
LWPOLYLINE
  5
1D8
100
AcDbEntity
  8
ASSEMBLY_OUTLINES_BTM
100
AcDbPolyline
 90
        2
 70
         0
 43
0.1
 10
91.0
 20
53.85
 10
94.0
 20
53.85
  0
LWPOLYLINE
  5
1D9
100
AcDbEntity
  8
ASSEMBLY_OUTLINES_BTM
100
AcDbPolyline
 90
        2
 70
         0
 43
0.1
 10
91.0
 20
53.95
 10
94.0
 20
53.95
  0
LWPOLYLINE
  5
1DA
100
AcDbEntity
  8
ASSEMBLY_OUTLINES_BTM
100
AcDbPolyline
 90
        2
 70
         0
 43
0.1
 10
91.0
 20
54.05
 10
94.0
 20
54.05
  0
LWPOLYLINE
  5
1DB
100
AcDbEntity
  8
ASSEMBLY_OUTLINES_BTM
100
AcDbPolyline
 90
        2
 70
         0
 43
0.1
 10
91.0
 20
54.15
 10
94.0
 20
54.15
  0
LWPOLYLINE
  5
1DC
100
AcDbEntity
  8
ASSEMBLY_OUTLINES_BTM
100
AcDbPolyline
 90
        2
 70
         0
 43
0.1
 10
91.0
 20
54.25
 10
94.0
 20
54.25
  0
LWPOLYLINE
  5
1DD
100
AcDbEntity
  8
ASSEMBLY_OUTLINES_BTM
100
AcDbPolyline
 90
        2
 70
         0
 43
0.1
 10
91.0
 20
54.35
 10
94.0
 20
54.35
  0
LWPOLYLINE
  5
1DE
100
AcDbEntity
  8
ASSEMBLY_OUTLINES_BTM
100
AcDbPolyline
 90
        2
 70
         0
 43
0.1
 10
91.0
 20
54.45
 10
94.0
 20
54.45
  0
LWPOLYLINE
  5
1DF
100
AcDbEntity
  8
ASSEMBLY_OUTLINES_BTM
100
AcDbPolyline
 90
        5
 70
         1
 10
131.75
 20
9.75
 10
134.25
 20
8.0
 10
131.75
 20
6.25
 10
129.75
 20
6.25
 10
129.75
 20
9.75
  0
HATCH
  5
1E0
100
AcDbEntity
  8
ASSEMBLY_OUTLINES_BTM
100
AcDbHatch
 10
0.0
 20
0.0
 30
0.0
210
0.0
220
0.0
230
1.0
  2
SOLID
 70
         1
 71
         1
 91
        1
 92
        2
 72
         0
 73
         1
 93
        5
 10
131.75
 20
9.75
 10
134.25
 20
8.0
 10
131.75
 20
6.25
 10
129.75
 20
6.25
 10
129.75
 20
9.75
 97
        1
330
1DF
 75
         0
 76
         1
 98
        1
 10
0.0
 20
0.0
  0
LWPOLYLINE
  5
1E1
100
AcDbEntity
  8
ASSEMBLY_OUTLINES_BTM
100
AcDbPolyline
 90
        4
 70
         1
 43
0.1
 10
112.75
 20
47.7
 10
112.75
 20
49.5
 10
116.05
 20
49.5
 10
116.05
 20
47.7
  0
LWPOLYLINE
  5
1E2
100
AcDbEntity
  8
ASSEMBLY_OUTLINES_BTM
100
AcDbPolyline
 90
        4
 70
         1
 43
0.1
 10
10.05
 20
77.2
 10
10.05
 20
79.0
 10
13.35
 20
79.0
 10
13.35
 20
77.2
  0
LWPOLYLINE
  5
1E3
100
AcDbEntity
  8
ASSEMBLY_OUTLINES_BTM
100
AcDbPolyline
 90
        4
 70
         1
 10
26.5
 20
17.9
 10
26.5
 20
24.9
 10
33.5
 20
24.9
 10
33.5
 20
17.9
  0
LWPOLYLINE
  5
1E4
100
AcDbEntity
  8
ASSEMBLY_OUTLINES_BTM
100
AcDbPolyline
 90
        4
 70
         1
 10
98.6
 20
52.595
 10
98.6
 20
57.675
 10
124.05
 20
57.675
 10
124.05
 20
52.595
  0
LWPOLYLINE
  5
1E5
100
AcDbEntity
  8
ASSEMBLY_OUTLINES_BTM
100
AcDbPolyline
 90
        4
 70
         1
 43
0.1
 10
130.8
 20
39.55
 10
130.8
 20
42.85
 10
132.6
 20
42.85
 10
132.6
 20
39.55
  0
LWPOLYLINE
  5
1E6
100
AcDbEntity
  8
ASSEMBLY_OUTLINES_BTM
100
AcDbPolyline
 90
        4
 70
         1
 43
0.1
 10
129.2
 20
54.15
 10
129.2
 20
57.45
 10
131.0
 20
57.45
 10
131.0
 20
54.15
  0
LWPOLYLINE
  5
1E7
100
AcDbEntity
  8
ASSEMBLY_OUTLINES_TOP
100
AcDbPolyline
 90
        4
 70
         1
 10
123.6
 20
4.5
 10
123.6
 20
11.5
 10
130.6
 20
11.5
 10
130.6
 20
4.5
  0
LWPOLYLINE
  5
1E8
100
AcDbEntity
  8
ASSEMBLY_OUTLINES_TOP
100
AcDbPolyline
 90
        4
 70
         1
 43
0.3
 10
10.0
 20
0.5
 10
10.0
 20
141.5
 10
193.0
 20
141.5
 10
193.0
 20
0.5
  0
LWPOLYLINE
  5
1E9
100
AcDbEntity
  8
ASSEMBLY_OUTLINES_TOP
100
AcDbPolyline
 90
        4
 70
         1
 10
0.15
 20
50.8
 10
0.15
 20
55.8
 10
6.45
 20
55.8
 10
6.45
 20
50.8
  0
LWPOLYLINE
  5
1EA
100
AcDbEntity
  8
ASSEMBLY_OUTLINES_TOP
100
AcDbPolyline
 90
        4
 70
         1
 10
196.55
 20
15.2
 10
196.55
 20
20.2
 10
202.85
 20
20.2
 10
202.85
 20
15.2
  0
LWPOLYLINE
  5
1EB
100
AcDbEntity
  8
ASSEMBLY_OUTLINES_TOP
100
AcDbPolyline
 90
        4
 70
         1
 10
196.55
 20
121.7
 10
196.55
 20
126.7
 10
202.85
 20
126.7
 10
202.85
 20
121.7
  0
LWPOLYLINE
  5
1EC
100
AcDbEntity
  8
ASSEMBLY_OUTLINES_TOP
100
AcDbPolyline
 90
        4
 70
         1
 10
196.55
 20
86.2
 10
196.55
 20
91.2
 10
202.85
 20
91.2
 10
202.85
 20
86.2
  0
LWPOLYLINE
  5
1ED
100
AcDbEntity
  8
ASSEMBLY_OUTLINES_TOP
100
AcDbPolyline
 90
        4
 70
         1
 10
0.15
 20
15.2
 10
0.15
 20
20.2
 10
6.45
 20
20.2
 10
6.45
 20
15.2
  0
LWPOLYLINE
  5
1EE
100
AcDbEntity
  8
ASSEMBLY_OUTLINES_TOP
100
AcDbPolyline
 90
        4
 70
         1
 10
196.55
 20
50.7
 10
196.55
 20
55.7
 10
202.85
 20
55.7
 10
202.85
 20
50.7
  0
LWPOLYLINE
  5
1EF
100
AcDbEntity
  8
ASSEMBLY_OUTLINES_TOP
100
AcDbPolyline
 90
        4
 70
         1
 10
0.15
 20
86.3
 10
0.15
 20
91.3
 10
6.45
 20
91.3
 10
6.45
 20
86.3
  0
LWPOLYLINE
  5
1F0
100
AcDbEntity
  8
ASSEMBLY_OUTLINES_TOP
100
AcDbPolyline
 90
        4
 70
         1
 10
0.15
 20
121.8
 10
0.15
 20
126.8
 10
6.45
 20
126.8
 10
6.45
 20
121.8
  0
TEXT
  5
1F2
100
AcDbEntity
  8
ASSEMBLY_REF_DES_BTM
100
AcDbText
 10
23.295625
 20
12.813675
 30
0.0
 40
1.0
  1
DA5
  7
GOST_TYPE_B
 71
         2
 72
         1
 11
22.123625
 21
13.307175
 31
0.0
100
AcDbText
 73
         2
  0
TEXT
  5
1F3
100
AcDbEntity
  8
ASSEMBLY_REF_DES_BTM
100
AcDbText
 10
28.08115
 20
11.26165
 30
0.0
 40
1.0
  1
C35
  7
GOST_TYPE_B
 71
         2
 72
         1
 11
27.05515
 21
11.75515
 31
0.0
100
AcDbText
 73
         2
  0
TEXT
  5
1F4
100
AcDbEntity
  8
ASSEMBLY_REF_DES_BTM
100
AcDbText
 10
31.836937
 20
14.789573
 30
0.0
 40
0.7
  1
VD3
  7
GOST_TYPE_B
 71
         2
 72
         1
 11
31.016537
 21
15.135023
 31
0.0
100
AcDbText
 73
         2
  0
TEXT
  5
1F5
100
AcDbEntity
  8
ASSEMBLY_REF_DES_BTM
100
AcDbText
 10
67.161437
 20
19.667263
 30
0.0
 40
1.0
  1
C27
  7
GOST_TYPE_B
 71
         2
 72
         1
 11
66.135437
 21
20.160763
 31
0.0
100
AcDbText
 73
         2
  0
TEXT
  5
1F6
100
AcDbEntity
  8
ASSEMBLY_REF_DES_BTM
100
AcDbText
 10
70.146625
 20
35.913675
 30
0.0
 40
1.0
  1
R40
  7
GOST_TYPE_B
 71
         2
 72
         1
 11
69.023625
 21
36.407175
 31
0.0
100
AcDbText
 73
         2
  0
TEXT
  5
1F7
100
AcDbEntity
  8
ASSEMBLY_REF_DES_BTM
100
AcDbText
 10
27.8765
 20
26.5065
 30
0.0
 40
1.0
  1
R51
  7
GOST_TYPE_B
 71
         2
 72
         1
 11
26.9
 21
27.0
 31
0.0
100
AcDbText
 73
         2
  0
TEXT
  5
1F8
100
AcDbEntity
  8
ASSEMBLY_REF_DES_BTM
100
AcDbText
 10
48.0765
 20
52.1065
 30
0.0
 40
1.0
  1
R16
  7
GOST_TYPE_B
 71
         2
 72
         1
 11
47.1
 21
52.6
 31
0.0
100
AcDbText
 73
         2
  0
TEXT
  5
1F9
100
AcDbEntity
  8
ASSEMBLY_REF_DES_BTM
100
AcDbText
 10
17.4281
 20
16.9586
 30
0.0
 40
1.0
  1
R54
 50
90.0
  7
GOST_TYPE_B
 71
         2
 72
         1
 11
16.9346
 21
15.8346
 31
0.0
100
AcDbText
 73
         2
  0
TEXT
  5
1FA
100
AcDbEntity
  8
ASSEMBLY_REF_DES_BTM
100
AcDbText
 10
15.5281
 20
16.9096
 30
0.0
 40
1.0
  1
R55
 50
90.0
  7
GOST_TYPE_B
 71
         2
 72
         1
 11
15.0346
 21
15.8346
 31
0.0
100
AcDbText
 73
         2
  0
TEXT
  5
1FB
100
AcDbEntity
  8
ASSEMBLY_REF_DES_BTM
100
AcDbText
 10
64.5281
 20
48.6586
 30
0.0
 40
1.0
  1
R28
 50
90.0
  7
GOST_TYPE_B
 71
         2
 72
         1
 11
64.0346
 21
47.5346
 31
0.0
100
AcDbText
 73
         2
  0
TEXT
  5
1FC
100
AcDbEntity
  8
ASSEMBLY_REF_DES_BTM
100
AcDbText
 10
66.323
 20
43.7065
 30
0.0
 40
1.0
  1
R34
  7
GOST_TYPE_B
 71
         2
 72
         1
 11
65.2
 21
44.2
 31
0.0
100
AcDbText
 73
         2
  0
TEXT
  5
1FD
100
AcDbEntity
  8
ASSEMBLY_REF_DES_BTM
100
AcDbText
 10
101.5745
 20
46.6065
 30
0.0
 40
1.0
  1
R26
  7
GOST_TYPE_B
 71
         2
 72
         1
 11
100.5
 21
47.1
 31
0.0
100
AcDbText
 73
         2
  0
TEXT
  5
1FE
100
AcDbEntity
  8
ASSEMBLY_REF_DES_BTM
100
AcDbText
 10
103.324699
 20
100.235951
 30
0.0
 40
0.5
  1
C2
  7
GOST_TYPE_B
 71
         2
 72
         1
 11
102.982699
 21
100.482701
 31
0.0
100
AcDbText
 73
         2
  0
TEXT
  5
1FF
100
AcDbEntity
  8
ASSEMBLY_REF_DES_BTM
100
AcDbText
 10
19.7765
 20
48.8065
 30
0.0
 40
1.0
  1
R21
  7
GOST_TYPE_B
 71
         2
 72
         1
 11
18.8
 21
49.3
 31
0.0
100
AcDbText
 73
         2
  0
TEXT
  5
200
100
AcDbEntity
  8
ASSEMBLY_REF_DES_BTM
100
AcDbText
 10
24.2745
 20
26.5065
 30
0.0
 40
1.0
  1
R52
  7
GOST_TYPE_B
 71
         2
 72
         1
 11
23.2
 21
27.0
 31
0.0
100
AcDbText
 73
         2
  0
TEXT
  5
201
100
AcDbEntity
  8
ASSEMBLY_REF_DES_BTM
100
AcDbText
 10
189.398125
 20
17.113675
 30
0.0
 40
1.0
  1
R53
  7
GOST_TYPE_B
 71
         2
 72
         1
 11
188.323625
 21
17.607175
 31
0.0
100
AcDbText
 73
         2
  0
TEXT
  5
202
100
AcDbEntity
  8
ASSEMBLY_REF_DES_BTM
100
AcDbText
 10
131.0765
 20
51.6065
 30
0.0
 40
1.0
  1
R15
  7
GOST_TYPE_B
 71
         2
 72
         1
 11
130.1
 21
52.1
 31
0.0
100
AcDbText
 73
         2
  0
TEXT
  5
203
100
AcDbEntity
  8
ASSEMBLY_REF_DES_BTM
100
AcDbText
 10
149.92965
 20
46.05135
 30
0.0
 40
1.0
  1
R23
  7
GOST_TYPE_B
 71
         2
 72
         1
 11
148.85515
 21
46.54485
 31
0.0
100
AcDbText
 73
         2
  0
TEXT
  5
204
100
AcDbEntity
  8
ASSEMBLY_REF_DES_BTM
100
AcDbText
 10
34.2765
 20
52.9065
 30
0.0
 40
1.0
  1
C14
  7
GOST_TYPE_B
 71
         2
 72
         1
 11
33.3
 21
53.4
 31
0.0
100
AcDbText
 73
         2
  0
TEXT
  5
205
100
AcDbEntity
  8
ASSEMBLY_REF_DES_BTM
100
AcDbText
 10
18.2281
 20
36.1076
 30
0.0
 40
1.0
  1
R44
 50
90.0
  7
GOST_TYPE_B
 71
         2
 72
         1
 11
17.7346
 21
34.9346
 31
0.0
100
AcDbText
 73
         2
  0
TEXT
  5
206
100
AcDbEntity
  8
ASSEMBLY_REF_DES_BTM
100
AcDbText
 10
35.226
 20
35.6065
 30
0.0
 40
1.0
  1
C20
  7
GOST_TYPE_B
 71
         2
 72
         1
 11
34.2
 21
36.1
 31
0.0
100
AcDbText
 73
         2
  0
TEXT
  5
207
100
AcDbEntity
  8
ASSEMBLY_REF_DES_BTM
100
AcDbText
 10
23.995625
 20
52.713675
 30
0.0
 40
1.0
  1
DA2
  7
GOST_TYPE_B
 71
         2
 72
         1
 11
22.823625
 21
53.207175
 31
0.0
100
AcDbText
 73
         2
  0
TEXT
  5
208
100
AcDbEntity
  8
ASSEMBLY_REF_DES_BTM
100
AcDbText
 10
113.548949
 20
124.035951
 30
0.0
 40
0.5
  1
R2
  7
GOST_TYPE_B
 71
         2
 72
         1
 11
113.182699
 21
124.282701
 31
0.0
100
AcDbText
 73
         2
  0
TEXT
  5
209
100
AcDbEntity
  8
ASSEMBLY_REF_DES_BTM
100
AcDbText
 10
99.728
 20
12.1065
 30
0.0
 40
1.0
  1
C31
  7
GOST_TYPE_B
 71
         2
 72
         1
 11
98.8
 21
12.6
 31
0.0
100
AcDbText
 73
         2
  0
TEXT
  5
20A
100
AcDbEntity
  8
ASSEMBLY_REF_DES_BTM
100
AcDbText
 10
24.644125
 20
31.613675
 30
0.0
 40
1.0
  1
DA4
  7
GOST_TYPE_B
 71
         2
 72
         1
 11
23.423625
 21
32.107175
 31
0.0
100
AcDbText
 73
         2
  0
TEXT
  5
20B
100
AcDbEntity
  8
ASSEMBLY_REF_DES_BTM
100
AcDbText
 10
132.7745
 20
44.3065
 30
0.0
 40
1.0
  1
R30
  7
GOST_TYPE_B
 71
         2
 72
         1
 11
131.7
 21
44.8
 31
0.0
100
AcDbText
 73
         2
  0
TEXT
  5
20C
100
AcDbEntity
  8
ASSEMBLY_REF_DES_BTM
100
AcDbText
 10
192.325
 20
52.7065
 30
0.0
 40
1.0
  1
R14
  7
GOST_TYPE_B
 71
         2
 72
         1
 11
191.3
 21
53.2
 31
0.0
100
AcDbText
 73
         2
  0
TEXT
  5
20D
100
AcDbEntity
  8
ASSEMBLY_REF_DES_BTM
100
AcDbText
 10
107.474
 20
13.3065
 30
0.0
 40
1.0
  1
VT1
  7
GOST_TYPE_B
 71
         2
 72
         1
 11
106.4
 21
13.8
 31
0.0
100
AcDbText
 73
         2
  0
TEXT
  5
20E
100
AcDbEntity
  8
ASSEMBLY_REF_DES_BTM
100
AcDbText
 10
111.023
 20
46.6065
 30
0.0
 40
1.0
  1
R24
  7
GOST_TYPE_B
 71
         2
 72
         1
 11
109.9
 21
47.1
 31
0.0
100
AcDbText
 73
         2
  0
TEXT
  5
20F
100
AcDbEntity
  8
ASSEMBLY_REF_DES_BTM
100
AcDbText
 10
87.44025
 20
57.526
 30
0.0
 40
1.5
  1
C7
 50
90.0
  7
GOST_TYPE_B
 71
         2
 72
         1
 11
86.7
 21
56.5
 31
0.0
100
AcDbText
 73
         2
  0
TEXT
  5
210
100
AcDbEntity
  8
ASSEMBLY_REF_DES_BTM
100
AcDbText
 10
17.298125
 20
6.613675
 30
0.0
 40
1.0
  1
R63
  7
GOST_TYPE_B
 71
         2
 72
         1
 11
16.223625
 21
7.107175
 31
0.0
100
AcDbText
 73
         2
  0
TEXT
  5
211
100
AcDbEntity
  8
ASSEMBLY_REF_DES_BTM
100
AcDbText
 10
44.628
 20
30.1065
 30
0.0
 40
1.0
  1
C21
  7
GOST_TYPE_B
 71
         2
 72
         1
 11
43.7
 21
30.6
 31
0.0
100
AcDbText
 73
         2
  0
TEXT
  5
212
100
AcDbEntity
  8
ASSEMBLY_REF_DES_BTM
100
AcDbText
 10
26.3765
 20
7.3065
 30
0.0
 40
1.0
  1
R61
  7
GOST_TYPE_B
 71
         2
 72
         1
 11
25.4
 21
7.8
 31
0.0
100
AcDbText
 73
         2
  0
TEXT
  5
213
100
AcDbEntity
  8
ASSEMBLY_REF_DES_BTM
100
AcDbText
 10
14.184
 20
58.1065
 30
0.0
 40
1.0
  1
C6
  7
GOST_TYPE_B
 71
         2
 72
         1
 11
13.5
 21
58.6
 31
0.0
100
AcDbText
 73
         2
  0
TEXT
  5
214
100
AcDbEntity
  8
ASSEMBLY_REF_DES_BTM
100
AcDbText
 10
139.526
 20
11.4065
 30
0.0
 40
1.0
  1
C33
  7
GOST_TYPE_B
 71
         2
 72
         1
 11
138.5
 21
11.9
 31
0.0
100
AcDbText
 73
         2
  0
TEXT
  5
215
100
AcDbEntity
  8
ASSEMBLY_REF_DES_BTM
100
AcDbText
 10
107.322937
 20
91.720513
 30
0.0
 40
1.5
  1
DD1
  7
GOST_TYPE_B
 71
         2
 72
         1
 11
105.785437
 21
92.460763
 31
0.0
100
AcDbText
 73
         2
  0
TEXT
  5
216
100
AcDbEntity
  8
ASSEMBLY_REF_DES_BTM
100
AcDbText
 10
144.226
 20
13.4065
 30
0.0
 40
1.0
  1
C29
  7
GOST_TYPE_B
 71
         2
 72
         1
 11
143.2
 21
13.9
 31
0.0
100
AcDbText
 73
         2
  0
TEXT
  5
217
100
AcDbEntity
  8
ASSEMBLY_REF_DES_BTM
100
AcDbText
 10
29.972
 20
33.5065
 30
0.0
 40
1.0
  1
VD2
  7
GOST_TYPE_B
 71
         2
 72
         1
 11
28.8
 21
34.0
 31
0.0
100
AcDbText
 73
         2
  0
TEXT
  5
218
100
AcDbEntity
  8
ASSEMBLY_REF_DES_BTM
100
AcDbText
 10
111.413
 20
20.5
 30
0.0
 40
1.0
  1
X7
  7
GOST_TYPE_B
 71
         2
 72
         2
 11
109.85
 21
20.5
 31
0.0
100
AcDbText
 73
         1
  0
TEXT
  5
219
100
AcDbEntity
  8
ASSEMBLY_REF_DES_BTM
100
AcDbText
 10
106.0745
 20
46.6065
 30
0.0
 40
1.0
  1
R25
  7
GOST_TYPE_B
 71
         2
 72
         1
 11
105.0
 21
47.1
 31
0.0
100
AcDbText
 73
         2
  0
TEXT
  5
21A
100
AcDbEntity
  8
ASSEMBLY_REF_DES_BTM
100
AcDbText
 10
130.5765
 20
44.3065
 30
0.0
 40
1.0
  1
R31
  7
GOST_TYPE_B
 71
         2
 72
         1
 11
129.6
 21
44.8
 31
0.0
100
AcDbText
 73
         2
  0
TEXT
  5
21B
100
AcDbEntity
  8
ASSEMBLY_REF_DES_BTM
100
AcDbText
 10
61.9765
 20
58.4065
 30
0.0
 40
1.0
  1
R12
  7
GOST_TYPE_B
 71
         2
 72
         1
 11
61.0
 21
58.9
 31
0.0
100
AcDbText
 73
         2
  0
TEXT
  5
21C
100
AcDbEntity
  8
ASSEMBLY_REF_DES_BTM
100
AcDbText
 10
19.123
 20
28.6065
 30
0.0
 40
1.0
  1
R49
  7
GOST_TYPE_B
 71
         2
 72
         1
 11
18.0
 21
29.1
 31
0.0
100
AcDbText
 73
         2
  0
TEXT
  5
21D
100
AcDbEntity
  8
ASSEMBLY_REF_DES_BTM
100
AcDbText
 10
97.24675
 20
96.142
 30
0.0
 40
0.5
  1
C3
 50
90.0
  7
GOST_TYPE_B
 71
         2
 72
         1
 11
97.0
 21
95.8
 31
0.0
100
AcDbText
 73
         2
  0
TEXT
  5
21E
100
AcDbEntity
  8
ASSEMBLY_REF_DES_BTM
100
AcDbText
 10
162.42965
 20
44.65135
 30
0.0
 40
1.0
  1
R29
  7
GOST_TYPE_B
 71
         2
 72
         1
 11
161.35515
 21
45.14485
 31
0.0
100
AcDbText
 73
         2
  0
TEXT
  5
21F
100
AcDbEntity
  8
ASSEMBLY_REF_DES_BTM
100
AcDbText
 10
66.425
 20
36.0065
 30
0.0
 40
1.0
  1
R41
  7
GOST_TYPE_B
 71
         2
 72
         1
 11
65.4
 21
36.5
 31
0.0
100
AcDbText
 73
         2
  0
TEXT
  5
220
100
AcDbEntity
  8
ASSEMBLY_REF_DES_BTM
100
AcDbText
 10
16.128
 20
44.2065
 30
0.0
 40
1.0
  1
C17
  7
GOST_TYPE_B
 71
         2
 72
         1
 11
15.2
 21
44.7
 31
0.0
100
AcDbText
 73
         2
  0
TEXT
  5
221
100
AcDbEntity
  8
ASSEMBLY_REF_DES_BTM
100
AcDbText
 10
31.5845
 20
26.4565
 30
0.0
 40
1.0
  1
R50
  7
GOST_TYPE_B
 71
         2
 72
         1
 11
30.51
 21
26.95
 31
0.0
100
AcDbText
 73
         2
  0
TEXT
  5
222
100
AcDbEntity
  8
ASSEMBLY_REF_DES_BTM
100
AcDbText
 10
107.125125
 20
69.688675
 30
0.0
 40
1.0
  1
X3
  7
GOST_TYPE_B
 71
         2
 72
         1
 11
106.343625
 21
70.182175
 31
0.0
100
AcDbText
 73
         2
  0
TEXT
  5
223
100
AcDbEntity
  8
ASSEMBLY_REF_DES_BTM
100
AcDbText
 10
113.548949
 20
111.335951
 30
0.0
 40
0.5
  1
R5
  7
GOST_TYPE_B
 71
         2
 72
         1
 11
113.182699
 21
111.582701
 31
0.0
100
AcDbText
 73
         2
  0
TEXT
  5
224
100
AcDbEntity
  8
ASSEMBLY_REF_DES_BTM
100
AcDbText
 10
65.4374
 20
32.2719
 30
0.0
 40
1.0
  1
DA3
  7
GOST_TYPE_B
 71
         2
 72
         1
 11
64.2654
 21
32.7654
 31
0.0
100
AcDbText
 73
         2
  0
TEXT
  5
225
100
AcDbEntity
  8
ASSEMBLY_REF_DES_BTM
100
AcDbText
 10
157.528
 20
48.2065
 30
0.0
 40
1.0
  1
C16
  7
GOST_TYPE_B
 71
         2
 72
         1
 11
156.6
 21
48.7
 31
0.0
100
AcDbText
 73
         2
  0
TEXT
  5
226
100
AcDbEntity
  8
ASSEMBLY_REF_DES_BTM
100
AcDbText
 10
63.729999
 20
51.806501
 30
0.0
 40
1.0
  1
C11
  7
GOST_TYPE_B
 71
         2
 72
         1
 11
62.899999
 21
52.300001
 31
0.0
100
AcDbText
 73
         2
  0
TEXT
  5
227
100
AcDbEntity
  8
ASSEMBLY_REF_DES_BTM
100
AcDbText
 10
16.726
 20
25.5065
 30
0.0
 40
1.0
  1
C26
  7
GOST_TYPE_B
 71
         2
 72
         1
 11
15.7
 21
26.0
 31
0.0
100
AcDbText
 73
         2
  0
TEXT
  5
228
100
AcDbEntity
  8
ASSEMBLY_REF_DES_BTM
100
AcDbText
 10
12.4325
 20
123.8065
 30
0.0
 40
1.0
  1
R3
  7
GOST_TYPE_B
 71
         2
 72
         1
 11
11.7
 21
124.3
 31
0.0
100
AcDbText
 73
         2
  0
TEXT
  5
229
100
AcDbEntity
  8
ASSEMBLY_REF_DES_BTM
100
AcDbText
 10
111.775699
 20
100.035951
 30
0.0
 40
0.5
  1
C1
  7
GOST_TYPE_B
 71
         2
 72
         1
 11
111.482699
 21
100.282701
 31
0.0
100
AcDbText
 73
         2
  0
TEXT
  5
22A
100
AcDbEntity
  8
ASSEMBLY_REF_DES_BTM
100
AcDbText
 10
132.823
 20
37.0065
 30
0.0
 40
1.0
  1
R38
  7
GOST_TYPE_B
 71
         2
 72
         1
 11
131.7
 21
37.5
 31
0.0
100
AcDbText
 73
         2
  0
TEXT
  5
22B
100
AcDbEntity
  8
ASSEMBLY_REF_DES_BTM
100
AcDbText
 10
66.385125
 20
117.388675
 30
0.0
 40
1.0
  1
X2
  7
GOST_TYPE_B
 71
         2
 72
         1
 11
65.603625
 21
117.882175
 31
0.0
100
AcDbText
 73
         2
  0
TEXT
  5
22C
100
AcDbEntity
  8
ASSEMBLY_REF_DES_BTM
100
AcDbText
 10
15.508125
 20
8.763675
 30
0.0
 40
1.0
  1
R59
  7
GOST_TYPE_B
 71
         2
 72
         1
 11
14.433625
 21
9.257175
 31
0.0
100
AcDbText
 73
         2
  0
TEXT
  5
22D
100
AcDbEntity
  8
ASSEMBLY_REF_DES_BTM
100
AcDbText
 10
67.2281
 20
48.7096
 30
0.0
 40
1.0
  1
R27
 50
90.0
  7
GOST_TYPE_B
 71
         2
 72
         1
 11
66.7346
 21
47.6346
 31
0.0
100
AcDbText
 73
         2
  0
TEXT
  5
22E
100
AcDbEntity
  8
ASSEMBLY_REF_DES_BTM
100
AcDbText
 10
22.672
 20
59.2
 30
0.0
 40
1.0
  1
L1
  7
GOST_TYPE_B
 71
         2
 72
         2
 11
21.5
 21
59.2
 31
0.0
100
AcDbText
 73
         1
  0
TEXT
  5
22F
100
AcDbEntity
  8
ASSEMBLY_REF_DES_BTM
100
AcDbText
 10
38.609937
 20
10.367263
 30
0.0
 40
1.0
  1
C34
  7
GOST_TYPE_B
 71
         2
 72
         1
 11
37.535437
 21
10.860763
 31
0.0
100
AcDbText
 73
         2
  0
TEXT
  5
230
100
AcDbEntity
  8
ASSEMBLY_REF_DES_BTM
100
AcDbText
 10
12.4325
 20
88.3065
 30
0.0
 40
1.0
  1
R9
  7
GOST_TYPE_B
 71
         2
 72
         1
 11
11.7
 21
88.8
 31
0.0
100
AcDbText
 73
         2
  0
TEXT
  5
231
100
AcDbEntity
  8
ASSEMBLY_REF_DES_BTM
100
AcDbText
 10
16.1281
 20
36.0586
 30
0.0
 40
1.0
  1
R45
 50
90.0
  7
GOST_TYPE_B
 71
         2
 72
         1
 11
15.6346
 21
34.9346
 31
0.0
100
AcDbText
 73
         2
  0
TEXT
  5
232
100
AcDbEntity
  8
ASSEMBLY_REF_DES_BTM
100
AcDbText
 10
28.7205
 20
14.7065
 30
0.0
 40
1.0
  1
VD4
  7
GOST_TYPE_B
 71
         2
 72
         1
 11
27.5
 21
15.2
 31
0.0
100
AcDbText
 73
         2
  0
TEXT
  5
233
100
AcDbEntity
  8
ASSEMBLY_REF_DES_BTM
100
AcDbText
 10
34.361437
 20
7.067263
 30
0.0
 40
1.0
  1
C36
  7
GOST_TYPE_B
 71
         2
 72
         1
 11
33.335437
 21
7.560763
 31
0.0
100
AcDbText
 73
         2
  0
TEXT
  5
234
100
AcDbEntity
  8
ASSEMBLY_REF_DES_BTM
100
AcDbText
 10
191.9345
 20
123.7065
 30
0.0
 40
1.0
  1
R1
  7
GOST_TYPE_B
 71
         2
 72
         1
 11
191.3
 21
124.2
 31
0.0
100
AcDbText
 73
         2
  0
TEXT
  5
235
100
AcDbEntity
  8
ASSEMBLY_REF_DES_BTM
100
AcDbText
 10
132.823
 20
33.3065
 30
0.0
 40
1.0
  1
R46
  7
GOST_TYPE_B
 71
         2
 72
         1
 11
131.7
 21
33.8
 31
0.0
100
AcDbText
 73
         2
  0
TEXT
  5
236
100
AcDbEntity
  8
ASSEMBLY_REF_DES_BTM
100
AcDbText
 10
23.968
 20
38.1
 30
0.0
 40
1.0
  1
L2
  7
GOST_TYPE_B
 71
         2
 72
         2
 11
22.6
 21
38.1
 31
0.0
100
AcDbText
 73
         1
  0
TEXT
  5
237
100
AcDbEntity
  8
ASSEMBLY_REF_DES_BTM
100
AcDbText
 10
103.9745
 20
44.1065
 30
0.0
 40
1.0
  1
R33
  7
GOST_TYPE_B
 71
         2
 72
         1
 11
102.9
 21
44.6
 31
0.0
100
AcDbText
 73
         2
  0
TEXT
  5
238
100
AcDbEntity
  8
ASSEMBLY_REF_DES_BTM
100
AcDbText
 10
29.774
 20
57.6065
 30
0.0
 40
1.0
  1
VD1
  7
GOST_TYPE_B
 71
         2
 72
         1
 11
28.7
 21
58.1
 31
0.0
100
AcDbText
 73
         2
  0
TEXT
  5
239
100
AcDbEntity
  8
ASSEMBLY_REF_DES_BTM
100
AcDbText
 10
111.413
 20
37.5
 30
0.0
 40
1.0
  1
X5
  7
GOST_TYPE_B
 71
         2
 72
         2
 11
109.85
 21
37.5
 31
0.0
100
AcDbText
 73
         1
  0
TEXT
  5
23A
100
AcDbEntity
  8
ASSEMBLY_REF_DES_BTM
100
AcDbText
 10
124.902312
 20
111.506838
 30
0.0
 40
0.5
  1
R4
  7
GOST_TYPE_B
 71
         2
 72
         1
 11
124.511812
 21
111.753588
 31
0.0
100
AcDbText
 73
         2
  0
TEXT
  5
23B
100
AcDbEntity
  8
ASSEMBLY_REF_DES_BTM
100
AcDbText
 10
93.125
 20
48.7065
 30
0.0
 40
1.0
  1
R18
  7
GOST_TYPE_B
 71
         2
 72
         1
 11
92.1
 21
49.2
 31
0.0
100
AcDbText
 73
         2
  0
TEXT
  5
23D
100
AcDbEntity
  8
ASSEMBLY_REF_DES_BTM
100
AcDbText
 10
107.80772
 20
117.580081
 30
0.0
 40
1.0
  1
X1
  7
VERIBEST_GERBER_0
 71
         2
 72
         1
 11
106.88022
 21
118.080081
 31
0.0
100
AcDbText
 73
         2
  0
TEXT
  5
23E
100
AcDbEntity
  8
ASSEMBLY_REF_DES_BTM
100
AcDbText
 10
139.526
 20
13.4065
 30
0.0
 40
1.0
  1
C30
  7
GOST_TYPE_B
 71
         2
 72
         1
 11
138.5
 21
13.9
 31
0.0
100
AcDbText
 73
         2
  0
TEXT
  5
23F
100
AcDbEntity
  8
ASSEMBLY_REF_DES_BTM
100
AcDbText
 10
22.8745
 20
7.3065
 30
0.0
 40
1.0
  1
R62
  7
GOST_TYPE_B
 71
         2
 72
         1
 11
21.8
 21
7.8
 31
0.0
100
AcDbText
 73
         2
  0
TEXT
  5
240
100
AcDbEntity
  8
ASSEMBLY_REF_DES_BTM
100
AcDbText
 10
130.6745
 20
40.7065
 30
0.0
 40
1.0
  1
R37
  7
GOST_TYPE_B
 71
         2
 72
         1
 11
129.6
 21
41.2
 31
0.0
100
AcDbText
 73
         2
  0
TEXT
  5
241
100
AcDbEntity
  8
ASSEMBLY_REF_DES_BTM
100
AcDbText
 10
43.028
 20
52.2065
 30
0.0
 40
1.0
  1
C12
  7
GOST_TYPE_B
 71
         2
 72
         1
 11
42.1
 21
52.7
 31
0.0
100
AcDbText
 73
         2
  0
TEXT
  5
242
100
AcDbEntity
  8
ASSEMBLY_REF_DES_BTM
100
AcDbText
 10
28.36275
 20
8.04675
 30
0.0
 40
0.5
  1
R60
 50
180.0
  7
GOST_TYPE_B
 71
         2
 72
         1
 11
28.9
 21
7.8
 31
0.0
100
AcDbText
 73
         2
  0
TEXT
  5
243
100
AcDbEntity
  8
ASSEMBLY_REF_DES_BTM
100
AcDbText
 10
59.195125
 20
33.013675
 30
0.0
 40
1.0
  1
R48
  7
GOST_TYPE_B
 71
         2
 72
         1
 11
58.023625
 21
33.507175
 31
0.0
100
AcDbText
 73
         2
  0
TEXT
  5
244
100
AcDbEntity
  8
ASSEMBLY_REF_DES_BTM
100
AcDbText
 10
102.598125
 20
9.813675
 30
0.0
 40
1.0
  1
R56
  7
GOST_TYPE_B
 71
         2
 72
         1
 11
101.523625
 21
10.307175
 31
0.0
100
AcDbText
 73
         2
  0
TEXT
  5
245
100
AcDbEntity
  8
ASSEMBLY_REF_DES_BTM
100
AcDbText
 10
41.426
 20
30.1065
 30
0.0
 40
1.0
  1
C22
  7
GOST_TYPE_B
 71
         2
 72
         1
 11
40.4
 21
30.6
 31
0.0
100
AcDbText
 73
         2
  0
TEXT
  5
246
100
AcDbEntity
  8
ASSEMBLY_REF_DES_BTM
100
AcDbText
 10
162.3745
 20
42.8065
 30
0.0
 40
1.0
  1
R35
  7
GOST_TYPE_B
 71
         2
 72
         1
 11
161.3
 21
43.3
 31
0.0
100
AcDbText
 73
         2
  0
TEXT
  5
247
100
AcDbEntity
  8
ASSEMBLY_REF_DES_BTM
100
AcDbText
 10
41.328
 20
36.2065
 30
0.0
 40
1.0
  1
C19
  7
GOST_TYPE_B
 71
         2
 72
         1
 11
40.4
 21
36.7
 31
0.0
100
AcDbText
 73
         2
  0
TEXT
  5
248
100
AcDbEntity
  8
ASSEMBLY_REF_DES_BTM
100
AcDbText
 10
59.323
 20
36.0065
 30
0.0
 40
1.0
  1
R43
  7
GOST_TYPE_B
 71
         2
 72
         1
 11
58.2
 21
36.5
 31
0.0
100
AcDbText
 73
         2
  0
TEXT
  5
249
100
AcDbEntity
  8
ASSEMBLY_REF_DES_BTM
100
AcDbText
 10
162.31935
 20
46.96165
 30
0.0
 40
1.0
  1
R22
  7
GOST_TYPE_B
 71
         2
 72
         1
 11
161.24485
 21
47.45515
 31
0.0
100
AcDbText
 73
         2
  0
TEXT
  5
24A
100
AcDbEntity
  8
ASSEMBLY_REF_DES_BTM
100
AcDbText
 10
23.8745
 20
48.8065
 30
0.0
 40
1.0
  1
R20
  7
GOST_TYPE_B
 71
         2
 72
         1
 11
22.8
 21
49.3
 31
0.0
100
AcDbText
 73
         2
  0
TEXT
  5
24B
100
AcDbEntity
  8
ASSEMBLY_REF_DES_BTM
100
AcDbText
 10
111.778061
 20
85.906839
 30
0.0
 40
0.5
  1
C4
  7
GOST_TYPE_B
 71
         2
 72
         1
 11
111.411811
 21
86.153589
 31
0.0
100
AcDbText
 73
         2
  0
TEXT
  5
24C
100
AcDbEntity
  8
ASSEMBLY_REF_DES_BTM
100
AcDbText
 10
58.709937
 20
27.967263
 30
0.0
 40
1.0
  1
C24
  7
GOST_TYPE_B
 71
         2
 72
         1
 11
57.635437
 21
28.460763
 31
0.0
100
AcDbText
 73
         2
  0
TEXT
  5
24D
100
AcDbEntity
  8
ASSEMBLY_REF_DES_BTM
100
AcDbText
 10
28.924925
 20
51.819875
 30
0.0
 40
1.0
  1
C15
  7
GOST_TYPE_B
 71
         2
 72
         1
 11
27.996925
 21
52.313375
 31
0.0
100
AcDbText
 73
         2
  0
TEXT
  5
24E
100
AcDbEntity
  8
ASSEMBLY_REF_DES_BTM
100
AcDbText
 10
69.128
 20
54.3065
 30
0.0
 40
1.0
  1
C10
  7
GOST_TYPE_B
 71
         2
 72
         1
 11
68.2
 21
54.8
 31
0.0
100
AcDbText
 73
         2
  0
TEXT
  5
24F
100
AcDbEntity
  8
ASSEMBLY_REF_DES_BTM
100
AcDbText
 10
192.081
 20
88.2065
 30
0.0
 40
1.0
  1
R8
  7
GOST_TYPE_B
 71
         2
 72
         1
 11
191.3
 21
88.7
 31
0.0
100
AcDbText
 73
         2
  0
TEXT
  5
250
100
AcDbEntity
  8
ASSEMBLY_REF_DES_BTM
100
AcDbText
 10
155.823
 20
44.0065
 30
0.0
 40
1.0
  1
DD2
  7
GOST_TYPE_B
 71
         2
 72
         1
 11
154.7
 21
44.5
 31
0.0
100
AcDbText
 73
         2
  0
TEXT
  5
251
100
AcDbEntity
  8
ASSEMBLY_REF_DES_BTM
100
AcDbText
 10
65.249625
 20
25.013675
 30
0.0
 40
1.0
  1
C25
  7
GOST_TYPE_B
 71
         2
 72
         1
 11
64.223625
 21
25.507175
 31
0.0
100
AcDbText
 73
         2
  0
TEXT
  5
252
100
AcDbEntity
  8
ASSEMBLY_REF_DES_BTM
100
AcDbText
 10
18.673312
 20
9.106838
 30
0.0
 40
0.5
  1
R58
  7
GOST_TYPE_B
 71
         2
 72
         1
 11
18.111812
 21
9.353588
 31
0.0
100
AcDbText
 73
         2
  0
TEXT
  5
253
100
AcDbEntity
  8
ASSEMBLY_REF_DES_BTM
100
AcDbText
 10
105.54675
 20
85.342
 30
0.0
 40
0.5
  1
C5
 50
90.0
  7
GOST_TYPE_B
 71
         2
 72
         1
 11
105.3
 21
85.0
 31
0.0
100
AcDbText
 73
         2
  0
TEXT
  5
254
100
AcDbEntity
  8
ASSEMBLY_REF_DES_BTM
100
AcDbText
 10
149.7765
 20
42.5065
 30
0.0
 40
1.0
  1
C18
  7
GOST_TYPE_B
 71
         2
 72
         1
 11
148.8
 21
43.0
 31
0.0
100
AcDbText
 73
         2
  0
TEXT
  5
255
100
AcDbEntity
  8
ASSEMBLY_REF_DES_BTM
100
AcDbText
 10
57.897625
 20
52.313675
 30
0.0
 40
1.0
  1
DA1
  7
GOST_TYPE_B
 71
         2
 72
         1
 11
56.823625
 21
52.807175
 31
0.0
100
AcDbText
 73
         2
  0
TEXT
  5
256
100
AcDbEntity
  8
ASSEMBLY_REF_DES_BTM
100
AcDbText
 10
22.915
 20
19.9
 30
0.0
 40
1.0
  1
L4
  7
GOST_TYPE_B
 71
         2
 72
         2
 11
21.45
 21
19.9
 31
0.0
100
AcDbText
 73
         1
  0
TEXT
  5
257
100
AcDbEntity
  8
ASSEMBLY_REF_DES_BTM
100
AcDbText
 10
98.8745
 20
9.9065
 30
0.0
 40
1.0
  1
R57
  7
GOST_TYPE_B
 71
         2
 72
         1
 11
97.8
 21
10.4
 31
0.0
100
AcDbText
 73
         2
  0
TEXT
  5
258
100
AcDbEntity
  8
ASSEMBLY_REF_DES_BTM
100
AcDbText
 10
39.728
 20
52.3065
 30
0.0
 40
1.0
  1
C13
  7
GOST_TYPE_B
 71
         2
 72
         1
 11
38.8
 21
52.8
 31
0.0
100
AcDbText
 73
         2
  0
TEXT
  5
259
100
AcDbEntity
  8
ASSEMBLY_REF_DES_BTM
100
AcDbText
 10
165.46
 20
8.2
 30
0.0
 40
1.0
  1
X8
  7
GOST_TYPE_B
 71
         2
 72
         2
 11
163.8
 21
8.2
 31
0.0
100
AcDbText
 73
         1
  0
TEXT
  5
25A
100
AcDbEntity
  8
ASSEMBLY_REF_DES_BTM
100
AcDbText
 10
130.6745
 20
36.9065
 30
0.0
 40
1.0
  1
R39
  7
GOST_TYPE_B
 71
         2
 72
         1
 11
129.6
 21
37.4
 31
0.0
100
AcDbText
 73
         2
  0
TEXT
  5
25B
100
AcDbEntity
  8
ASSEMBLY_REF_DES_BTM
100
AcDbText
 10
119.178062
 20
92.206838
 30
0.0
 40
0.5
  1
R7
  7
GOST_TYPE_B
 71
         2
 72
         1
 11
118.811812
 21
92.453588
 31
0.0
100
AcDbText
 73
         2
  0
TEXT
  5
25C
100
AcDbEntity
  8
ASSEMBLY_REF_DES_BTM
100
AcDbText
 10
62.946625
 20
35.913675
 30
0.0
 40
1.0
  1
R42
  7
GOST_TYPE_B
 71
         2
 72
         1
 11
61.823625
 21
36.407175
 31
0.0
100
AcDbText
 73
         2
  0
TEXT
  5
25D
100
AcDbEntity
  8
ASSEMBLY_REF_DES_BTM
100
AcDbText
 10
29.222925
 20
29.819875
 30
0.0
 40
1.0
  1
C23
  7
GOST_TYPE_B
 71
         2
 72
         1
 11
28.196925
 21
30.313375
 31
0.0
100
AcDbText
 73
         2
  0
TEXT
  5
25E
100
AcDbEntity
  8
ASSEMBLY_REF_DES_BTM
100
AcDbText
 10
12.6765
 20
79.9065
 30
0.0
 40
1.0
  1
R10
  7
GOST_TYPE_B
 71
         2
 72
         1
 11
11.7
 21
80.4
 31
0.0
100
AcDbText
 73
         2
  0
TEXT
  5
25F
100
AcDbEntity
  8
ASSEMBLY_REF_DES_BTM
100
AcDbText
 10
108.0745
 20
44.1065
 30
0.0
 40
1.0
  1
R32
  7
GOST_TYPE_B
 71
         2
 72
         1
 11
107.0
 21
44.6
 31
0.0
100
AcDbText
 73
         2
  0
TEXT
  5
260
100
AcDbEntity
  8
ASSEMBLY_REF_DES_BTM
100
AcDbText
 10
39.098125
 20
18.813675
 30
0.0
 40
1.0
  1
C28
  7
GOST_TYPE_B
 71
         2
 72
         1
 11
38.023625
 21
19.307175
 31
0.0
100
AcDbText
 73
         2
  0
TEXT
  5
261
100
AcDbEntity
  8
ASSEMBLY_REF_DES_BTM
100
AcDbText
 10
119.178062
 20
94.206838
 30
0.0
 40
0.5
  1
R6
  7
GOST_TYPE_B
 71
         2
 72
         1
 11
118.811812
 21
94.453588
 31
0.0
100
AcDbText
 73
         2
  0
TEXT
  5
262
100
AcDbEntity
  8
ASSEMBLY_REF_DES_BTM
100
AcDbText
 10
144.226
 20
11.4065
 30
0.0
 40
1.0
  1
C32
  7
GOST_TYPE_B
 71
         2
 72
         1
 11
143.2
 21
11.9
 31
0.0
100
AcDbText
 73
         2
  0
TEXT
  5
263
100
AcDbEntity
  8
ASSEMBLY_REF_DES_BTM
100
AcDbText
 10
74.383999
 20
55.206501
 30
0.0
 40
1.0
  1
C9
  7
GOST_TYPE_B
 71
         2
 72
         1
 11
73.699999
 21
55.700001
 31
0.0
100
AcDbText
 73
         2
  0
TEXT
  5
264
100
AcDbEntity
  8
ASSEMBLY_REF_DES_BTM
100
AcDbText
 10
27.9765
 20
48.8065
 30
0.0
 40
1.0
  1
R19
  7
GOST_TYPE_B
 71
         2
 72
         1
 11
27.0
 21
49.3
 31
0.0
100
AcDbText
 73
         2
  0
TEXT
  5
265
100
AcDbEntity
  8
ASSEMBLY_REF_DES_BTM
100
AcDbText
 10
130.723
 20
33.3065
 30
0.0
 40
1.0
  1
R47
  7
GOST_TYPE_B
 71
         2
 72
         1
 11
129.6
 21
33.8
 31
0.0
100
AcDbText
 73
         2
  0
TEXT
  5
266
100
AcDbEntity
  8
ASSEMBLY_REF_DES_BTM
100
AcDbText
 10
162.7115
 20
28.7315
 30
0.0
 40
1.0
  1
X6
  7
GOST_TYPE_B
 71
         2
 72
         1
 11
161.93
 21
29.225
 31
0.0
100
AcDbText
 73
         2
  0
TEXT
  5
267
100
AcDbEntity
  8
ASSEMBLY_REF_DES_BTM
100
AcDbText
 10
93.2325
 20
55.0065
 30
0.0
 40
1.0
  1
C8
  7
GOST_TYPE_B
 71
         2
 72
         1
 11
92.5
 21
55.5
 31
0.0
100
AcDbText
 73
         2
  0
TEXT
  5
268
100
AcDbEntity
  8
ASSEMBLY_REF_DES_BTM
100
AcDbText
 10
128.863
 20
7.4
 30
0.0
 40
1.0
  1
X9
  7
GOST_TYPE_B
 71
         2
 72
         2
 11
127.3
 21
7.4
 31
0.0
100
AcDbText
 73
         1
  0
TEXT
  5
269
100
AcDbEntity
  8
ASSEMBLY_REF_DES_BTM
100
AcDbText
 10
115.3765
 20
48.1065
 30
0.0
 40
1.0
  1
R17
  7
GOST_TYPE_B
 71
         2
 72
         1
 11
114.4
 21
48.6
 31
0.0
100
AcDbText
 73
         2
  0
TEXT
  5
26A
100
AcDbEntity
  8
ASSEMBLY_REF_DES_BTM
100
AcDbText
 10
12.5785
 20
77.6065
 30
0.0
 40
1.0
  1
R11
  7
GOST_TYPE_B
 71
         2
 72
         1
 11
11.7
 21
78.1
 31
0.0
100
AcDbText
 73
         2
  0
TEXT
  5
26B
100
AcDbEntity
  8
ASSEMBLY_REF_DES_BTM
100
AcDbText
 10
31.30015
 20
20.95015
 30
0.0
 40
1.0
  1
L3
  7
VERIBEST_GERBER_0
 71
         2
 72
         2
 11
29.41015
 21
20.95015
 31
0.0
100
AcDbText
 73
         1
  0
TEXT
  5
26C
100
AcDbEntity
  8
ASSEMBLY_REF_DES_BTM
100
AcDbText
 10
112.31127
 20
54.616031
 30
0.0
 40
1.0
  1
X4
  7
GOST_TYPE_B
 71
         2
 72
         1
 11
111.48127
 21
55.109531
 31
0.0
100
AcDbText
 73
         2
  0
TEXT
  5
26D
100
AcDbEntity
  8
ASSEMBLY_REF_DES_BTM
100
AcDbText
 10
132.7745
 20
40.7065
 30
0.0
 40
1.0
  1
R36
  7
GOST_TYPE_B
 71
         2
 72
         1
 11
131.7
 21
41.2
 31
0.0
100
AcDbText
 73
         2
  0
TEXT
  5
26E
100
AcDbEntity
  8
ASSEMBLY_REF_DES_BTM
100
AcDbText
 10
131.0765
 20
55.3065
 30
0.0
 40
1.0
  1
R13
  7
GOST_TYPE_B
 71
         2
 72
         1
 11
130.1
 21
55.8
 31
0.0
100
AcDbText
 73
         2
  0
TEXT
  5
26F
100
AcDbEntity
  8
ASSEMBLY_REF_DES_TOP
100
AcDbText
 10
2.21
 20
53.0
 30
0.0
 40
1.0
  1
SW5
  7
GOST_TYPE_B
 72
         2
 11
4.75
 21
53.0
 31
0.0
100
AcDbText
 73
         1
  0
TEXT
  5
270
100
AcDbEntity
  8
ASSEMBLY_REF_DES_TOP
100
AcDbText
 10
198.513
 20
17.2
 30
0.0
 40
1.0
  1
SW8
  7
GOST_TYPE_B
 72
         2
 11
201.15
 21
17.2
 31
0.0
100
AcDbText
 73
         1
  0
TEXT
  5
271
100
AcDbEntity
  8
ASSEMBLY_REF_DES_TOP
100
AcDbText
 10
198.61
 20
123.7
 30
0.0
 40
1.0
  1
SW2
  7
GOST_TYPE_B
 72
         2
 11
201.15
 21
123.7
 31
0.0
100
AcDbText
 73
         1
  0
TEXT
  5
272
100
AcDbEntity
  8
ASSEMBLY_REF_DES_TOP
100
AcDbText
 10
198.513
 20
88.2
 30
0.0
 40
1.0
  1
SW4
  7
GOST_TYPE_B
 72
         2
 11
201.15
 21
88.2
 31
0.0
100
AcDbText
 73
         1
  0
TEXT
  5
273
100
AcDbEntity
  8
ASSEMBLY_REF_DES_TOP
100
AcDbText
 10
2.21
 20
17.4
 30
0.0
 40
1.0
  1
SW7
  7
GOST_TYPE_B
 72
         2
 11
4.75
 21
17.4
 31
0.0
100
AcDbText
 73
         1
  0
TEXT
  5
274
100
AcDbEntity
  8
ASSEMBLY_REF_DES_TOP
100
AcDbText
 10
198.61
 20
52.7
 30
0.0
 40
1.0
  1
SW6
  7
GOST_TYPE_B
 72
         2
 11
201.15
 21
52.7
 31
0.0
100
AcDbText
 73
         1
  0
TEXT
  5
275
100
AcDbEntity
  8
ASSEMBLY_REF_DES_TOP
100
AcDbText
 10
2.21
 20
88.5
 30
0.0
 40
1.0
  1
SW3
  7
GOST_TYPE_B
 72
         2
 11
4.75
 21
88.5
 31
0.0
100
AcDbText
 73
         1
  0
TEXT
  5
276
100
AcDbEntity
  8
ASSEMBLY_REF_DES_TOP
100
AcDbText
 10
2.406
 20
124.0
 30
0.0
 40
1.0
  1
SW1
  7
GOST_TYPE_B
 72
         2
 11
4.75
 21
124.0
 31
0.0
100
AcDbText
 73
         1
  0
LWPOLYLINE
  5
277
100
AcDbEntity
  8
BOARD_OUTLINE
100
AcDbPolyline
 90
        4
 70
         1
 43
0.2
 10
0.0
 20
0.0
 10
0.0
 20
142.0
 10
203.0
 20
142.0
 10
203.0
 20
0.0
  0
CIRCLE
  5
278
100
AcDbEntity
  8
MOUNTING_HOLES_LAYER_TOP
100
AcDbCircle
 10
5.0
 20
35.5
 30
0.0
 40
1.5
  0
HATCH
  5
279
100
AcDbEntity
  8
MOUNTING_HOLES_LAYER_TOP
100
AcDbHatch
 10
0.0
 20
0.0
 30
0.0
210
0.0
220
0.0
230
1.0
  2
SOLID
 70
         1
 71
         1
 91
        1
 92
        1
 93
        1
 72
         2
 10
5.0
 20
35.5
 40
1.5
 50
0.0
 51
360.0
 73
         1
 97
        1
330
278
 75
         0
 76
         1
 98
        1
 10
0.0
 20
0.0
  0
CIRCLE
  5
27A
100
AcDbEntity
  8
MOUNTING_HOLES_LAYER_TOP
100
AcDbCircle
 10
5.0
 20
71.0
 30
0.0
 40
1.5
  0
HATCH
  5
27B
100
AcDbEntity
  8
MOUNTING_HOLES_LAYER_TOP
100
AcDbHatch
 10
0.0
 20
0.0
 30
0.0
210
0.0
220
0.0
230
1.0
  2
SOLID
 70
         1
 71
         1
 91
        1
 92
        1
 93
        1
 72
         2
 10
5.0
 20
71.0
 40
1.5
 50
0.0
 51
360.0
 73
         1
 97
        1
330
27A
 75
         0
 76
         1
 98
        1
 10
0.0
 20
0.0
  0
CIRCLE
  5
27C
100
AcDbEntity
  8
MOUNTING_HOLES_LAYER_TOP
100
AcDbCircle
 10
5.0
 20
106.5
 30
0.0
 40
1.5
  0
HATCH
  5
27D
100
AcDbEntity
  8
MOUNTING_HOLES_LAYER_TOP
100
AcDbHatch
 10
0.0
 20
0.0
 30
0.0
210
0.0
220
0.0
230
1.0
  2
SOLID
 70
         1
 71
         1
 91
        1
 92
        1
 93
        1
 72
         2
 10
5.0
 20
106.5
 40
1.5
 50
0.0
 51
360.0
 73
         1
 97
        1
330
27C
 75
         0
 76
         1
 98
        1
 10
0.0
 20
0.0
  0
CIRCLE
  5
27E
100
AcDbEntity
  8
MOUNTING_HOLES_LAYER_TOP
100
AcDbCircle
 10
199.0
 20
4.0
 30
0.0
 40
1.5
  0
HATCH
  5
27F
100
AcDbEntity
  8
MOUNTING_HOLES_LAYER_TOP
100
AcDbHatch
 10
0.0
 20
0.0
 30
0.0
210
0.0
220
0.0
230
1.0
  2
SOLID
 70
         1
 71
         1
 91
        1
 92
        1
 93
        1
 72
         2
 10
199.0
 20
4.0
 40
1.5
 50
0.0
 51
360.0
 73
         1
 97
        1
330
27E
 75
         0
 76
         1
 98
        1
 10
0.0
 20
0.0
  0
CIRCLE
  5
280
100
AcDbEntity
  8
MOUNTING_HOLES_LAYER_TOP
100
AcDbCircle
 10
198.0
 20
35.5
 30
0.0
 40
1.5
  0
HATCH
  5
281
100
AcDbEntity
  8
MOUNTING_HOLES_LAYER_TOP
100
AcDbHatch
 10
0.0
 20
0.0
 30
0.0
210
0.0
220
0.0
230
1.0
  2
SOLID
 70
         1
 71
         1
 91
        1
 92
        1
 93
        1
 72
         2
 10
198.0
 20
35.5
 40
1.5
 50
0.0
 51
360.0
 73
         1
 97
        1
330
280
 75
         0
 76
         1
 98
        1
 10
0.0
 20
0.0
  0
CIRCLE
  5
282
100
AcDbEntity
  8
MOUNTING_HOLES_LAYER_TOP
100
AcDbCircle
 10
198.0
 20
106.5
 30
0.0
 40
1.5
  0
HATCH
  5
283
100
AcDbEntity
  8
MOUNTING_HOLES_LAYER_TOP
100
AcDbHatch
 10
0.0
 20
0.0
 30
0.0
210
0.0
220
0.0
230
1.0
  2
SOLID
 70
         1
 71
         1
 91
        1
 92
        1
 93
        1
 72
         2
 10
198.0
 20
106.5
 40
1.5
 50
0.0
 51
360.0
 73
         1
 97
        1
330
282
 75
         0
 76
         1
 98
        1
 10
0.0
 20
0.0
  0
CIRCLE
  5
284
100
AcDbEntity
  8
MOUNTING_HOLES_LAYER_TOP
100
AcDbCircle
 10
198.0
 20
71.0
 30
0.0
 40
1.5
  0
HATCH
  5
285
100
AcDbEntity
  8
MOUNTING_HOLES_LAYER_TOP
100
AcDbHatch
 10
0.0
 20
0.0
 30
0.0
210
0.0
220
0.0
230
1.0
  2
SOLID
 70
         1
 71
         1
 91
        1
 92
        1
 93
        1
 72
         2
 10
198.0
 20
71.0
 40
1.5
 50
0.0
 51
360.0
 73
         1
 97
        1
330
284
 75
         0
 76
         1
 98
        1
 10
0.0
 20
0.0
  0
CIRCLE
  5
286
100
AcDbEntity
  8
MOUNTING_HOLES_LAYER_TOP
100
AcDbCircle
 10
199.0
 20
138.0
 30
0.0
 40
1.5
  0
HATCH
  5
287
100
AcDbEntity
  8
MOUNTING_HOLES_LAYER_TOP
100
AcDbHatch
 10
0.0
 20
0.0
 30
0.0
210
0.0
220
0.0
230
1.0
  2
SOLID
 70
         1
 71
         1
 91
        1
 92
        1
 93
        1
 72
         2
 10
199.0
 20
138.0
 40
1.5
 50
0.0
 51
360.0
 73
         1
 97
        1
330
286
 75
         0
 76
         1
 98
        1
 10
0.0
 20
0.0
  0
CIRCLE
  5
288
100
AcDbEntity
  8
MOUNTING_HOLES_LAYER_TOP
100
AcDbCircle
 10
4.0
 20
138.0
 30
0.0
 40
1.5
  0
HATCH
  5
289
100
AcDbEntity
  8
MOUNTING_HOLES_LAYER_TOP
100
AcDbHatch
 10
0.0
 20
0.0
 30
0.0
210
0.0
220
0.0
230
1.0
  2
SOLID
 70
         1
 71
         1
 91
        1
 92
        1
 93
        1
 72
         2
 10
4.0
 20
138.0
 40
1.5
 50
0.0
 51
360.0
 73
         1
 97
        1
330
288
 75
         0
 76
         1
 98
        1
 10
0.0
 20
0.0
  0
CIRCLE
  5
28A
100
AcDbEntity
  8
MOUNTING_HOLES_LAYER_TOP
100
AcDbCircle
 10
6.0
 20
9.0
 30
0.0
 40
2.4
  0
HATCH
  5
28B
100
AcDbEntity
  8
MOUNTING_HOLES_LAYER_TOP
100
AcDbHatch
 10
0.0
 20
0.0
 30
0.0
210
0.0
220
0.0
230
1.0
  2
SOLID
 70
         1
 71
         1
 91
        1
 92
        1
 93
        1
 72
         2
 10
6.0
 20
9.0
 40
2.3999999999999999
 50
0.0
 51
360.0
 73
         1
 97
        1
330
28A
 75
         0
 76
         1
 98
        1
 10
0.0
 20
0.0
  0
CIRCLE
  5
28C
100
AcDbEntity
  8
MOUNTING_HOLES_LAYER_TOP
100
AcDbCircle
 10
4.0
 20
4.0
 30
0.0
 40
1.5
  0
HATCH
  5
28D
100
AcDbEntity
  8
MOUNTING_HOLES_LAYER_TOP
100
AcDbHatch
 10
0.0
 20
0.0
 30
0.0
210
0.0
220
0.0
230
1.0
  2
SOLID
 70
         1
 71
         1
 91
        1
 92
        1
 93
        1
 72
         2
 10
4.0
 20
4.0
 40
1.5
 50
0.0
 51
360.0
 73
         1
 97
        1
330
28C
 75
         0
 76
         1
 98
        1
 10
0.0
 20
0.0
  0
CIRCLE
  5
28E
100
AcDbEntity
  8
MOUNTING_HOLES_LAYER_TOP
100
AcDbCircle
 10
6.5
 20
133.0
 30
0.0
 40
2.4
  0
HATCH
  5
28F
100
AcDbEntity
  8
MOUNTING_HOLES_LAYER_TOP
100
AcDbHatch
 10
0.0
 20
0.0
 30
0.0
210
0.0
220
0.0
230
1.0
  2
SOLID
 70
         1
 71
         1
 91
        1
 92
        1
 93
        1
 72
         2
 10
6.5
 20
133.0
 40
2.3999999999999999
 50
0.0
 51
360.0
 73
         1
 97
        1
330
28E
 75
         0
 76
         1
 98
        1
 10
0.0
 20
0.0
  0
CIRCLE
  5
290
100
AcDbEntity
  8
MOUNTING_HOLES_LAYER_TOP
100
AcDbCircle
 10
197.0
 20
133.0
 30
0.0
 40
2.4
  0
HATCH
  5
291
100
AcDbEntity
  8
MOUNTING_HOLES_LAYER_TOP
100
AcDbHatch
 10
0.0
 20
0.0
 30
0.0
210
0.0
220
0.0
230
1.0
  2
SOLID
 70
         1
 71
         1
 91
        1
 92
        1
 93
        1
 72
         2
 10
197.0
 20
133.0
 40
2.3999999999999999
 50
0.0
 51
360.0
 73
         1
 97
        1
330
290
 75
         0
 76
         1
 98
        1
 10
0.0
 20
0.0
  0
CIRCLE
  5
292
100
AcDbEntity
  8
MOUNTING_HOLES_LAYER_TOP
100
AcDbCircle
 10
197.0
 20
9.0
 30
0.0
 40
2.4
  0
HATCH
  5
293
100
AcDbEntity
  8
MOUNTING_HOLES_LAYER_TOP
100
AcDbHatch
 10
0.0
 20
0.0
 30
0.0
210
0.0
220
0.0
230
1.0
  2
SOLID
 70
         1
 71
         1
 91
        1
 92
        1
 93
        1
 72
         2
 10
197.0
 20
9.0
 40
2.3999999999999999
 50
0.0
 51
360.0
 73
         1
 97
        1
330
292
 75
         0
 76
         1
 98
        1
 10
0.0
 20
0.0
  0
CIRCLE
  5
294
100
AcDbEntity
  8
MOUNTING_HOLES_LAYER_TOP
100
AcDbCircle
 10
116.56
 20
70.7
 30
0.0
 40
0.9
  0
HATCH
  5
295
100
AcDbEntity
  8
MOUNTING_HOLES_LAYER_TOP
100
AcDbHatch
 10
0.0
 20
0.0
 30
0.0
210
0.0
220
0.0
230
1.0
  2
SOLID
 70
         1
 71
         1
 91
        1
 92
        1
 93
        1
 72
         2
 10
116.56
 20
70.700000000000003
 40
0.9
 50
0.0
 51
360.0
 73
         1
 97
        1
330
294
 75
         0
 76
         1
 98
        1
 10
0.0
 20
0.0
  0
CIRCLE
  5
296
100
AcDbEntity
  8
MOUNTING_HOLES_LAYER_TOP
100
AcDbCircle
 10
96.24
 20
70.7
 30
0.0
 40
0.9
  0
HATCH
  5
297
100
AcDbEntity
  8
MOUNTING_HOLES_LAYER_TOP
100
AcDbHatch
 10
0.0
 20
0.0
 30
0.0
210
0.0
220
0.0
230
1.0
  2
SOLID
 70
         1
 71
         1
 91
        1
 92
        1
 93
        1
 72
         2
 10
96.239999999999995
 20
70.700000000000003
 40
0.9
 50
0.0
 51
360.0
 73
         1
 97
        1
330
296
 75
         0
 76
         1
 98
        1
 10
0.0
 20
0.0
  0
CIRCLE
  5
298
100
AcDbEntity
  8
MOUNTING_HOLES_LAYER_TOP
100
AcDbCircle
 10
129.76
 20
118.04
 30
0.0
 40
0.9
  0
HATCH
  5
299
100
AcDbEntity
  8
MOUNTING_HOLES_LAYER_TOP
100
AcDbHatch
 10
0.0
 20
0.0
 30
0.0
210
0.0
220
0.0
230
1.0
  2
SOLID
 70
         1
 71
         1
 91
        1
 92
        1
 93
        1
 72
         2
 10
129.75999999999999
 20
118.04000000000001
 40
0.9
 50
0.0
 51
360.0
 73
         1
 97
        1
330
298
 75
         0
 76
         1
 98
        1
 10
0.0
 20
0.0
  0
CIRCLE
  5
29A
100
AcDbEntity
  8
MOUNTING_HOLES_LAYER_TOP
100
AcDbCircle
 10
84.04
 20
118.04
 30
0.0
 40
0.9
  0
HATCH
  5
29B
100
AcDbEntity
  8
MOUNTING_HOLES_LAYER_TOP
100
AcDbHatch
 10
0.0
 20
0.0
 30
0.0
210
0.0
220
0.0
230
1.0
  2
SOLID
 70
         1
 71
         1
 91
        1
 92
        1
 93
        1
 72
         2
 10
84.040000000000006
 20
118.04000000000001
 40
0.9
 50
0.0
 51
360.0
 73
         1
 97
        1
330
29A
 75
         0
 76
         1
 98
        1
 10
0.0
 20
0.0
  0
CIRCLE
  5
29C
100
AcDbEntity
  8
MOUNTING_HOLES_LAYER_TOP
100
AcDbCircle
 10
139.04
 20
29.3
 30
0.0
 40
0.9
  0
HATCH
  5
29D
100
AcDbEntity
  8
MOUNTING_HOLES_LAYER_TOP
100
AcDbHatch
 10
0.0
 20
0.0
 30
0.0
210
0.0
220
0.0
230
1.0
  2
SOLID
 70
         1
 71
         1
 91
        1
 92
        1
 93
        1
 72
         2
 10
139.03999999999999
 20
29.300000000000001
 40
0.9
 50
0.0
 51
360.0
 73
         1
 97
        1
330
29C
 75
         0
 76
         1
 98
        1
 10
0.0
 20
0.0
  0
CIRCLE
  5
29E
100
AcDbEntity
  8
MOUNTING_HOLES_LAYER_TOP
100
AcDbCircle
 10
184.76
 20
29.3
 30
0.0
 40
0.9
  0
HATCH
  5
29F
100
AcDbEntity
  8
MOUNTING_HOLES_LAYER_TOP
100
AcDbHatch
 10
0.0
 20
0.0
 30
0.0
210
0.0
220
0.0
230
1.0
  2
SOLID
 70
         1
 71
         1
 91
        1
 92
        1
 93
        1
 72
         2
 10
184.75999999999999
 20
29.300000000000001
 40
0.9
 50
0.0
 51
360.0
 73
         1
 97
        1
330
29E
 75
         0
 76
         1
 98
        1
 10
0.0
 20
0.0
  0
CIRCLE
  5
2A0
100
AcDbEntity
  8
MOUNTING_HOLES_LAYER_TOP
100
AcDbCircle
 10
121.46
 20
55.15
 30
0.0
 40
0.9
  0
HATCH
  5
2A1
100
AcDbEntity
  8
MOUNTING_HOLES_LAYER_TOP
100
AcDbHatch
 10
0.0
 20
0.0
 30
0.0
210
0.0
220
0.0
230
1.0
  2
SOLID
 70
         1
 71
         1
 91
        1
 92
        1
 93
        1
 72
         2
 10
121.45999999999999
 20
55.149999999999999
 40
0.9
 50
0.0
 51
360.0
 73
         1
 97
        1
330
2A0
 75
         0
 76
         1
 98
        1
 10
0.0
 20
0.0
  0
CIRCLE
  5
2A2
100
AcDbEntity
  8
MOUNTING_HOLES_LAYER_TOP
100
AcDbCircle
 10
101.14
 20
55.15
 30
0.0
 40
0.9
  0
HATCH
  5
2A3
100
AcDbEntity
  8
MOUNTING_HOLES_LAYER_TOP
100
AcDbHatch
 10
0.0
 20
0.0
 30
0.0
210
0.0
220
0.0
230
1.0
  2
SOLID
 70
         1
 71
         1
 91
        1
 92
        1
 93
        1
 72
         2
 10
101.14
 20
55.149999999999999
 40
0.9
 50
0.0
 51
360.0
 73
         1
 97
        1
330
2A2
 75
         0
 76
         1
 98
        1
 10
0.0
 20
0.0
  0
ENDSEC
  0
SECTION
  2
OBJECTS
  0
DICTIONARY
  5
19
100
AcDbDictionary
  3
ACAD_GROUP
350
1A
  3
ACAD_MLINESTYLE
350
1B
  0
DICTIONARY
  5
1A
102
{ACAD_REACTORS
330
19
102
}
100
AcDbDictionary
  0
DICTIONARY
  5
1B
102
{ACAD_REACTORS
330
19
102
}
100
AcDbDictionary
  3
STANDARD
350
1C
  0
MLINESTYLE
  5
1C
102
{ACAD_REACTORS
330
1B
102
}
100
AcDbMlineStyle
  2
STANDARD
 70
         0
  3

 62
         0
 51
90.0
 52
90.0
 71
         2
 49
0.5
 62
       256
  6
BYLAYER
 49
-0.5
 62
       256
  6
BYLAYER
  0
DICTIONARY
  5
22
102
{ACAD_REACTORS
330
19
102
}
100
AcDbDictionary
  0
ENDSEC
  0
EOF
