  0
SECTION
  2
HEADER
  9
$ACADVER
  1
AC1014
  9
$ACADMAINTVER
 70
         0
  9
$DWGCODEPAGE
  3
ANSI_1252
  9
$INSBASE
 10
0.0
 20
0.0
 30
0.0
  9
$EXTMIN
 10
0.0
 20
-1.11
 30
0.0
  9
$EXTMAX
 10
144.248995
 20
116.8
 30
0.0
  9
$LIMMIN
 10
0.0
 20
0.0
  9
$LIMMAX
 10
0.0
 20
0.0
  9
$ORTHOMODE
 70
         0
  9
$REGENMODE
 70
         1
  9
$FILLMODE
 70
         1
  9
$QTEXTMODE
 70
         0
  9
$MIRRTEXT
 70
         1
  9
$DRAGMODE
 70
         2
  9
$LTSCALE
 40
1.0
  9
$OSMODE
 70
         0
  9
$ATTMODE
 70
         1
  9
$TEXTSIZE
 40
0.2
  9
$TRACEWID
 40
0.05
  9
$TEXTSTYLE
  7
STANDARD
  9
$CLAYER
  8
0
  9
$CELTYPE
  6
CONTINUOUS
  9
$CECOLOR
 62
       256
  9
$CELTSCALE
 40
1.0
  9
$DELOBJ
 70
         1
  9
$DISPSILH
 70
         0
  9
$DIMSCALE
 40
1.0
  9
$DIMASZ
 40
0.18
  9
$DIMEXO
 40
0.0625
  9
$DIMDLI
 40
0.38
  9
$DIMRND
 40
0.0
  9
$DIMDLE
 40
0.0
  9
$DIMEXE
 40
0.18
  9
$DIMTP
 40
0.0
  9
$DIMTM
 40
0.0
  9
$DIMTXT
 40
0.18
  9
$DIMCEN
 40
0.09
  9
$DIMTSZ
 40
0.0
  9
$DIMTOL
 70
         0
  9
$DIMLIM
 70
         0
  9
$DIMTIH
 70
         1
  9
$DIMTOH
 70
         1
  9
$DIMSE1
 70
         0
  9
$DIMSE2
 70
         0
  9
$DIMTAD
 70
         0
  9
$DIMZIN
 70
         0
  9
$DIMBLK
  1

  9
$DIMASO
 70
         1
  9
$DIMSHO
 70
         1
  9
$DIMPOST
  1

  9
$DIMAPOST
  1

  9
$DIMALT
 70
         0
  9
$DIMALTD
 70
         2
  9
$DIMALTF
 40
25.4
  9
$DIMLFAC
 40
1.0
  9
$DIMTOFL
 70
         0
  9
$DIMTVP
 40
0.0
  9
$DIMTIX
 70
         0
  9
$DIMSOXD
 70
         0
  9
$DIMSAH
 70
         0
  9
$DIMBLK1
  1

  9
$DIMBLK2
  1

  9
$DIMSTYLE
  2
STANDARD
  9
$DIMCLRD
 70
         0
  9
$DIMCLRE
 70
         0
  9
$DIMCLRT
 70
         0
  9
$DIMTFAC
 40
1.0
  9
$DIMGAP
 40
0.09
  9
$DIMJUST
 70
         0
  9
$DIMSD1
 70
         0
  9
$DIMSD2
 70
         0
  9
$DIMTOLJ
 70
         1
  9
$DIMTZIN
 70
         0
  9
$DIMALTZ
 70
         0
  9
$DIMALTTZ
 70
         0
  9
$DIMFIT
 70
         3
  9
$DIMUPT
 70
         0
  9
$DIMUNIT
 70
         2
  9
$DIMDEC
 70
         4
  9
$DIMTDEC
 70
         4
  9
$DIMALTU
 70
         2
  9
$DIMALTTD
 70
         2
  9
$DIMTXSTY
  7
STANDARD
  9
$DIMAUNIT
 70
         0
  9
$LUNITS
 70
         2
  9
$LUPREC
 70
         4
  9
$SKETCHINC
 40
0.1
  9
$FILLETRAD
 40
0.0
  9
$AUNITS
 70
         0
  9
$AUPREC
 70
         0
  9
$MENU
  1
acad
  9
$ELEVATION
 40
0.0
  9
$PELEVATION
 40
0.0
  9
$THICKNESS
 40
0.0
  9
$LIMCHECK
 70
         0
  9
$BLIPMODE
 70
         1
  9
$CHAMFERA
 40
0.0
  9
$CHAMFERB
 40
0.0
  9
$CHAMFERC
 40
0.0
  9
$CHAMFERD
 40
0.0
  9
$SKPOLY
 70
         0
  9
$TDCREATE
 40
2456363.695763889
  9
$TDUPDATE
 40
0.000000000
  9
$TDINDWG
 40
0.0000000000
  9
$TDUSRTIMER
 40
0.0000000000
  9
$USRTIMER
 70
         1
  9
$ANGBASE
 50
0.0
  9
$ANGDIR
 70
         0
  9
$PDMODE
 70
         0
  9
$PDSIZE
 40
0.0
  9
$PLINEWID
 40
0.0
  9
$COORDS
 70
         0
  9
$SPLFRAME
 70
         0
  9
$SPLINETYPE
 70
         6
  9
$SPLINESEGS
 70
         8
  9
$ATTDIA
 70
         0
  9
$ATTREQ
 70
         1
  9
$HANDLING
 70
         1
  9
$HANDSEED
  5
218
  9
$SURFTAB1
 70
         6
  9
$SURFTAB2
 70
         6
  9
$SURFTYPE
 70
         6
  9
$SURFU
 70
         6
  9
$SURFV
 70
         6
  9
$UCSNAME
  2

  9
$UCSORG
 10
0.0
 20
0.0
 30
0.0
  9
$UCSXDIR
 10
1.0
 20
0.0
 30
0.0
  9
$UCSYDIR
 10
0.0
 20
1.0
 30
0.0
  9
$PUCSNAME
  2

  9
$PUCSORG
 10
0.0
 20
0.0
 30
0.0
  9
$PUCSXDIR
 10
1.0
 20
0.0
 30
0.0
  9
$PUCSYDIR
 10
0.0
 20
1.0
 30
0.0
  9
$USERI1
 70
        -3
  9
$USERI2
 70
         0
  9
$USERI3
 70
         0
  9
$USERI4
 70
         0
  9
$USERI5
 70
         0
  9
$USERR1
 40
0.0
  9
$USERR2
 40
0.0
  9
$USERR3
 40
0.0
  9
$USERR4
 40
0.0
  9
$USERR5
 40
0.0
  9
$WORLDVIEW
 70
         1
  9
$SHADEDGE
 70
         3
  9
$SHADEDIF
 70
        70
  9
$TILEMODE
 70
         1
  9
$MAXACTVP
 70
        16
  9
$PINSBASE
 10
0.0
 20
0.0
 30
0.0
  9
$PLIMCHECK
 70
         0
  9
$PEXTMIN
 10
1.0000000000E+20
 20
1.0000000000E+20
 30
1.0000000000E+20
  9
$PEXTMAX
 10
-1.0000000000E+20
 20
-1.0000000000E+20
 30
-1.0000000000E+20
  9
$PLIMMIN
 10
0.0
 20
0.0
  9
$PLIMMAX
 10
12.0
 20
9.0
  9
$UNITMODE
 70
         0
  9
$VISRETAIN
 70
         0
  9
$PLINEGEN
 70
         1
  9
$PSLTSCALE
 70
         0
  9
$TREEDEPTH
 70
      3020
  9
$PICKSTYLE
 70
         1
  9
$CMLSTYLE
  2
STANDARD
  9
$CMLJUST
 70
         0
  9
$CMLSCALE
 40
1.0
  9
$PROXYGRAPHICS
 70
         0
  9
$MEASUREMENT
 70
         0
  0
ENDSEC
  0
SECTION
  2
CLASSES
  0
CLASS
  1
LWPOLYLINE
  2
AcDbPolyline
  3
"AutoCAD"
 90
        0
280
         0
281
         1
  0
CLASS
  1
IMAGE
  2
AcDbRasterImage
  3
ISM
 90
      127
280
         0
281
         1
  0
CLASS
  1
OLE2FRAME
  2
AcDbOle2Frame
  3
""
 90
        0
280
         0
281
         1
  0
CLASS
  1
HATCH
  2
AcDbHatch
  3
"ACAD_SEDONA"
 90
        0
280
         0
281
         1
  0
CLASS
  1
DICTIONARYVAR
  2
AcDbDictionaryVar
  3
"AutoCAD"
 90
        0
280
         0
281
         0
  0
CLASS
  1
RASTERVARIABLES
  2
AcDbRasterVariables
  3
ISM
 90
        0
280
         0
281
         0
  0
CLASS
  1
IMAGEDEF
  2
AcDbRasterImageDef
  3
ISM
 90
        0
280
         0
281
         0
  0
CLASS
  1
IMAGEDEF_REACTOR
  2
AcDbRasterImageDefReactor
  3
ISM
 90
        1
280
         0
281
         0
  0
CLASS
  1
IDBUFFER
  2
AcDbIdBuffer
  3
"Acad"
 90
        0
280
         0
281
         0
  0
CLASS
  1
SPATIAL_FILTER
  2
AcDbSpatialFilter
  3
"Acad"
 90
        0
280
         0
281
         0
  0
CLASS
  1
XRECORD
  2
AcDbXrecord
  3
"<Built In>"
 90
        0
280
         0
281
         0
  0
CLASS
  1
SORTENTSTABLE
  2
AcDbSortentsTable
  3
"AutoCAD"
 90
        0
280
         0
281
         0
  0
CLASS
  1
LAYER_INDEX
  2
AcDbLayerIndex
  3
"Acad"
 90
        0
280
         0
281
         0
  0
CLASS
  1
SPATIAL_INDEX
  2
AcDbSpatialIndex
  3
"Acad"
 90
        0
280
         0
281
         0
  0
CLASS
  1
OBJECT_PTR
  2
CAseDLPNTableRecord
  3
"ASE-LPNTableRecord"
 90
        1
280
         0
281
         0
  0
CLASS
  1
LAYOUT
  2
AcDbLayout
  3
"AutoCAD 2000"
 90
        0
280
         0
281
         0
  0
CLASS
  1
PLOTSETTINGS
  2
AcDbPlotSettings
  3
"AutoCAD 2000"
 90
        0
280
         0
281
         0
  0
CLASS
  1
ACDBDICTIONARYWDFLT
  2
AcDbDictionaryWithDefault
  3
"AutoCAD 2000"
 90
        0
280
         0
281
         0
  0
CLASS
  1
ACDBPLACEHOLDER
  2
AcDbPlaceHolder
  3
"AutoCAD 2000"
 90
        0
280
         0
281
         0
  0
CLASS
  1
VBA_PROJECT
  2
AcDbVbaProject
  3
"acadvba"
 90
        0
280
         0
281
         0
  0
CLASS
  1
WIPEOUT
  2
AcDbWipeout
  3
WipeOut|AutoCAD Express Tool|expresstools@autodesk.com
 90
      127
280
         0
281
         1
  0
CLASS
  1
WIPEOUTVARIABLES
  2
AcDbWipeoutVariables
  3
WipeOut|AutoCAD Express Tool|expresstools@autodesk.com
 90
        0
280
         0
281
         0
  0
CLASS
  1
RTEXT
  2
RText
  3
RText|AutoCAD Express Tool|expresstools@autodesk.com
 90
        0
280
         0
281
         1
  0
CLASS
  1
ARCALIGNEDTEXT
  2
AcDbArcAlignedText
  3
ATEXT|AutoCAD Express Tool|expresstools@autodesk.com
 90
        0
280
         0
281
         1
  0
ENDSEC
  0
SECTION
  2
TABLES
  0
TABLE
  2
VPORT
  5
7
100
AcDbSymbolTable
 70
         1
  0
VPORT
  5
15
100
AcDbSymbolTableRecord
100
AcDbViewportTableRecord
  2
*ACTIVE
 70
         0
 10
0.0
 20
0.0
 11
1.0
 21
1.0
 12
6.591288
 22
4.579184
 13
0.0
 23
0.0
 14
1.0
 24
1.0
 15
0.0
 25
0.0
 16
0.0
 26
0.0
 36
1.0
 17
0.0
 27
0.0
 37
0.0
 40
9.158369
 41
0.688564
 42
50.0
 43
0.0
 44
0.0
 50
0.0
 51
0.0
 71
         0
 72
       100
 73
         1
 74
         1
 75
         0
 76
         0
 77
         0
 78
         0
  0
ENDTAB
  0
TABLE
  2
LTYPE
  5
4
100
AcDbSymbolTable
 70
         3
  0
LTYPE
  5
11
100
AcDbSymbolTableRecord
100
AcDbLinetypeTableRecord
  2
BYBLOCK
 70
        64
  3

 72
        65
 73
         0
 40
0.0
  0
LTYPE
  5
12
100
AcDbSymbolTableRecord
100
AcDbLinetypeTableRecord
  2
BYLAYER
 70
        64
  3

 72
        65
 73
         0
 40
0.0
  0
LTYPE
  5
13
100
AcDbSymbolTableRecord
100
AcDbLinetypeTableRecord
  2
CONTINUOUS
 70
        64
  3
Solid line
 72
        65
 73
         0
 40
0.0
  0
ENDTAB
  0
TABLE
  2
LAYER
  5
2
100
AcDbSymbolTable
 70
         5
  0
LAYER
  5
14
100
AcDbSymbolTableRecord
100
AcDbLayerTableRecord
  2
0
 70
         0
 62
         7
  6
CONTINUOUS
  0
LAYER
  5
24
100
AcDbSymbolTableRecord
100
AcDbLayerTableRecord
  2
ASSEMBLY_OUTLINES_TOP
 70
         0
 62
       102
  6
CONTINUOUS
  0
LAYER
  5
25
100
AcDbSymbolTableRecord
100
AcDbLayerTableRecord
  2
ASSEMBLY_REF_DES_TOP
 70
         0
 62
       102
  6
CONTINUOUS
  0
LAYER
  5
26
100
AcDbSymbolTableRecord
100
AcDbLayerTableRecord
  2
BOARD_OUTLINE
 70
         0
 62
        10
  6
CONTINUOUS
  0
LAYER
  5
27
100
AcDbSymbolTableRecord
100
AcDbLayerTableRecord
  2
MOUNTING_HOLES_LAYER_TOP
 70
         0
 62
        42
  6
CONTINUOUS
  0
ENDTAB
  0
TABLE
  2
STYLE
  5
3
100
AcDbSymbolTable
 70
         3
  0
STYLE
  5
17
100
AcDbSymbolTableRecord
100
AcDbTextStyleTableRecord
  2
STANDARD
 70
         0
 40
0.0
 41
1.0
 50
0.0
 71
         0
 42
0.0
  3
txt
  4

  0
STYLE
  5
38
100
AcDbSymbolTableRecord
100
AcDbTextStyleTableRecord
  2
VERIBEST_GERBER_0
 70
         0
 40
0.0
 41
1.0
 50
0.0
 71
         0
 42
0.0
  3

  4

  0
STYLE
  5
18D
100
AcDbSymbolTableRecord
100
AcDbTextStyleTableRecord
  2
GOST_TYPE_B
 70
         0
 40
0.0
 41
1.0
 50
0.0
 71
         0
 42
0.0
  3
gost_0.ttf
  4

  0
ENDTAB
  0
TABLE
  2
VIEW
  5
5
100
AcDbSymbolTable
 70
         0
  0
ENDTAB
  0
TABLE
  2
UCS
  5
6
100
AcDbSymbolTable
 70
         0
  0
ENDTAB
  0
TABLE
  2
APPID
  5
8
100
AcDbSymbolTable
 70
         1
  0
APPID
  5
16
100
AcDbSymbolTableRecord
100
AcDbRegAppTableRecord
  2
ACAD
 70
         0
  0
ENDTAB
  0
TABLE
  2
DIMSTYLE
  5
9
100
AcDbSymbolTable
 70
         1
  0
DIMSTYLE
105
18
100
AcDbSymbolTableRecord
100
AcDbDimStyleTableRecord
  2
STANDARD
 70
         0
  3

  4

  5

  6

  7

 40
1.0
 41
0.18
 42
0.0625
 43
0.38
 44
0.18
 45
0.0
 46
0.0
 47
0.0
 48
0.0
 71
         0
 72
         0
 73
         1
 74
         1
 75
         0
 76
         0
 77
         0
 78
         0
140
0.18
141
0.09
142
0.0
143
25.4
144
1.0
145
0.0
146
1.0
147
0.09
170
         0
171
         2
172
         0
173
         0
174
         0
175
         0
176
         0
177
         0
178
         0
270
         2
271
         4
272
         4
273
         2
274
         2
275
         0
280
         0
281
         0
282
         0
283
         1
284
         0
285
         0
286
         0
287
         3
288
         0
340
17
  0
ENDTAB
  0
TABLE
  2
BLOCK_RECORD
  5
1
100
AcDbSymbolTable
 70
         0
  0
BLOCK_RECORD
  5
A
100
AcDbSymbolTableRecord
100
AcDbBlockTableRecord
  2
*MODEL_SPACE
  0
BLOCK_RECORD
  5
B
100
AcDbSymbolTableRecord
100
AcDbBlockTableRecord
  2
*PAPER_SPACE
  0
ENDTAB
  0
ENDSEC
  0
SECTION
  2
BLOCKS
  0
BLOCK
  5
D
100
AcDbEntity
  8
0
100
AcDbBlockBegin
  2
*MODEL_SPACE
 70
         0
 10
0.0
 20
0.0
 30
0.0
  3
*MODEL_SPACE
  1

  0
ENDBLK
  5
E
100
AcDbEntity
  8
0
100
AcDbBlockEnd
  0
BLOCK
  5
F
100
AcDbEntity
 67
         1
  8
0
100
AcDbBlockBegin
  2
*PAPER_SPACE
 70
         0
 10
0.0
 20
0.0
 30
0.0
  3
*PAPER_SPACE
  1

  0
ENDBLK
  5
10
100
AcDbEntity
 67
         1
  8
0
100
AcDbBlockEnd
  0
ENDSEC
  0
SECTION
  2
ENTITIES
  0
LWPOLYLINE
  5
28
100
AcDbEntity
  8
ASSEMBLY_OUTLINES_TOP
100
AcDbPolyline
 90
        3
 70
         1
 10
73.4
 20
2.7
 10
72.83
 20
3.84
 10
73.97
 20
3.84
  0
HATCH
  5
29
100
AcDbEntity
  8
ASSEMBLY_OUTLINES_TOP
100
AcDbHatch
 10
0.0
 20
0.0
 30
0.0
210
0.0
220
0.0
230
1.0
  2
SOLID
 70
         1
 71
         1
 91
        1
 92
        2
 72
         0
 73
         1
 93
        3
 10
73.400000000000006
 20
2.7000000000000002
 10
72.829999999999998
 20
3.8399999999999999
 10
73.969999999999999
 20
3.8399999999999999
 97
        1
330
28
 75
         0
 76
         1
 98
        1
 10
0.0
 20
0.0
  0
LWPOLYLINE
  5
2A
100
AcDbEntity
  8
ASSEMBLY_OUTLINES_TOP
100
AcDbPolyline
 90
        3
 70
         1
 10
73.4
 20
116.7
 10
73.969999
 20
115.56
 10
72.83
 20
115.56
  0
HATCH
  5
2B
100
AcDbEntity
  8
ASSEMBLY_OUTLINES_TOP
100
AcDbHatch
 10
0.0
 20
0.0
 30
0.0
210
0.0
220
0.0
230
1.0
  2
SOLID
 70
         1
 71
         1
 91
        1
 92
        2
 72
         0
 73
         1
 93
        3
 10
73.400000000000006
 20
116.7
 10
73.969999000000001
 20
115.56
 10
72.829999999999998
 20
115.56
 97
        1
330
2A
 75
         0
 76
         1
 98
        1
 10
0.0
 20
0.0
  0
LWPOLYLINE
  5
2C
100
AcDbEntity
  8
ASSEMBLY_OUTLINES_TOP
100
AcDbPolyline
 90
        2
 70
         0
 43
0.2
 10
73.4
 20
56.367696
 10
73.4
 20
3.27
  0
LWPOLYLINE
  5
2D
100
AcDbEntity
  8
ASSEMBLY_OUTLINES_TOP
100
AcDbPolyline
 90
        2
 70
         0
 43
0.2
 10
73.4
 20
116.13
 10
73.4
 20
63.032303
  0
LWPOLYLINE
  5
2E
100
AcDbEntity
  8
ASSEMBLY_OUTLINES_TOP
100
AcDbPolyline
 90
        2
 70
         0
 43
0.2
 10
75.79
 20
2.7
 10
72.89
 20
2.7
  0
LWPOLYLINE
  5
2F
100
AcDbEntity
  8
ASSEMBLY_OUTLINES_TOP
100
AcDbPolyline
 90
        2
 70
         0
 43
0.2
 10
75.79
 20
116.7
 10
72.89
 20
116.7
  0
LWPOLYLINE
  5
30
100
AcDbEntity
  8
ASSEMBLY_OUTLINES_TOP
100
AcDbPolyline
 90
        3
 70
         1
 10
137.3
 20
-0.5
 10
136.16
 20
-1.07
 10
136.16
 20
0.07
  0
HATCH
  5
31
100
AcDbEntity
  8
ASSEMBLY_OUTLINES_TOP
100
AcDbHatch
 10
0.0
 20
0.0
 30
0.0
210
0.0
220
0.0
230
1.0
  2
SOLID
 70
         1
 71
         1
 91
        1
 92
        2
 72
         0
 73
         1
 93
        3
 10
137.30000000000001
 20
-0.5
 10
136.16
 20
-1.0700000000000001
 10
136.16
 20
0.07
 97
        1
330
30
 75
         0
 76
         1
 98
        1
 10
0.0
 20
0.0
  0
LWPOLYLINE
  5
32
100
AcDbEntity
  8
ASSEMBLY_OUTLINES_TOP
100
AcDbPolyline
 90
        3
 70
         1
 10
76.3
 20
-0.5
 10
77.44
 20
0.07
 10
77.44
 20
-1.07
  0
HATCH
  5
33
100
AcDbEntity
  8
ASSEMBLY_OUTLINES_TOP
100
AcDbHatch
 10
0.0
 20
0.0
 30
0.0
210
0.0
220
0.0
230
1.0
  2
SOLID
 70
         1
 71
         1
 91
        1
 92
        2
 72
         0
 73
         1
 93
        3
 10
76.299999999999997
 20
-0.5
 10
77.439999999999998
 20
0.07
 10
77.439999999999998
 20
-1.0700000000000001
 97
        1
330
32
 75
         0
 76
         1
 98
        1
 10
0.0
 20
0.0
  0
LWPOLYLINE
  5
34
100
AcDbEntity
  8
ASSEMBLY_OUTLINES_TOP
100
AcDbPolyline
 90
        2
 70
         0
 43
0.2
 10
109.525562
 20
-0.499999
 10
136.73
 20
-0.499999
  0
LWPOLYLINE
  5
35
100
AcDbEntity
  8
ASSEMBLY_OUTLINES_TOP
100
AcDbPolyline
 90
        2
 70
         0
 43
0.2
 10
76.87
 20
-0.5
 10
104.074438
 20
-0.5
  0
LWPOLYLINE
  5
36
100
AcDbEntity
  8
ASSEMBLY_OUTLINES_TOP
100
AcDbPolyline
 90
        2
 70
         0
 43
0.2
 10
137.3
 20
2.19
 10
137.3
 20
-1.01
  0
LWPOLYLINE
  5
37
100
AcDbEntity
  8
ASSEMBLY_OUTLINES_TOP
100
AcDbPolyline
 90
        2
 70
         0
 43
0.2
 10
76.3
 20
2.19
 10
76.3
 20
-1.01
  0
TEXT
  5
39
100
AcDbEntity
  8
ASSEMBLY_OUTLINES_TOP
100
AcDbText
 10
74.035
 20
56.746616
 30
0.0
 40
1.27
  1
114mm
 50
90.0
  7
VERIBEST_GERBER_0
 72
         1
 11
73.4
 21
59.700001
 31
0.0
100
AcDbText
 73
         2
  0
TEXT
  5
3A
100
AcDbEntity
  8
ASSEMBLY_OUTLINES_TOP
100
AcDbText
 10
104.424465
 20
-1.134999
 30
0.0
 40
1.27
  1
61mm
  7
VERIBEST_GERBER_0
 72
         1
 11
106.8
 21
-0.499999
 31
0.0
100
AcDbText
 73
         2
  0
LWPOLYLINE
  5
3B
100
AcDbEntity
  8
ASSEMBLY_OUTLINES_TOP
100
AcDbPolyline
 90
        8
 70
         0
 10
95.2
 20
100.3
 42
-2.549150321
 10
105.4
 20
100.3
 10
107.3
 20
100.3
 10
107.3
 20
98.3
 10
93.3
 20
98.3
 10
93.3
 20
100.3
 10
95.2
 20
100.3
 10
95.1
 20
100.3
  0
LWPOLYLINE
  5
3C
100
AcDbEntity
  8
ASSEMBLY_OUTLINES_TOP
100
AcDbPolyline
 90
        4
 70
         1
 43
0.1
 10
112.25
 20
88.15
 10
112.25
 20
89.45
 10
115.15
 20
89.45
 10
115.15
 20
88.15
  0
LWPOLYLINE
  5
3D
100
AcDbEntity
  8
ASSEMBLY_OUTLINES_TOP
100
AcDbPolyline
 90
        4
 70
         1
 43
0.1
 10
117.15
 20
59.55
 10
117.15
 20
62.45
 10
118.45
 20
62.45
 10
118.45
 20
59.55
  0
LWPOLYLINE
  5
3E
100
AcDbEntity
  8
ASSEMBLY_OUTLINES_TOP
100
AcDbPolyline
 90
        4
 70
         1
 43
0.1
 10
96.25
 20
89.3
 10
96.25
 20
92.1
 10
97.55
 20
92.1
 10
97.55
 20
89.3
  0
LWPOLYLINE
  5
3F
100
AcDbEntity
  8
ASSEMBLY_OUTLINES_TOP
100
AcDbPolyline
 90
        4
 70
         1
 43
0.1
 10
121.65
 20
59.55
 10
121.65
 20
62.45
 10
122.95
 20
62.45
 10
122.95
 20
59.55
  0
LWPOLYLINE
  5
40
100
AcDbEntity
  8
ASSEMBLY_OUTLINES_TOP
100
AcDbPolyline
 90
        4
 70
         1
 43
0.1
 10
102.85
 20
32.3
 10
102.85
 20
35.1
 10
104.15
 20
35.1
 10
104.15
 20
32.3
  0
LWPOLYLINE
  5
41
100
AcDbEntity
  8
ASSEMBLY_OUTLINES_TOP
100
AcDbPolyline
 90
        4
 70
         1
 43
0.1
 10
118.75
 20
91.55
 10
118.75
 20
94.45
 10
120.05
 20
94.45
 10
120.05
 20
91.55
  0
LWPOLYLINE
  5
42
100
AcDbEntity
  8
ASSEMBLY_OUTLINES_TOP
100
AcDbPolyline
 90
        4
 70
         1
 43
0.1
 10
112.9
 20
64.95
 10
112.9
 20
66.25
 10
115.7
 20
66.25
 10
115.7
 20
64.95
  0
LWPOLYLINE
  5
43
100
AcDbEntity
  8
ASSEMBLY_OUTLINES_TOP
100
AcDbPolyline
 90
        4
 70
         1
 10
137.35
 20
28.5
 10
137.35
 20
44.5
 10
143.25
 20
44.5
 10
143.25
 20
28.5
  0
LWPOLYLINE
  5
44
100
AcDbEntity
  8
ASSEMBLY_OUTLINES_TOP
100
AcDbPolyline
 90
        4
 70
         1
 10
124.95
 20
21.1
 10
124.95
 20
51.9
 10
137.35
 20
51.9
 10
137.35
 20
21.1
  0
LWPOLYLINE
  5
45
100
AcDbEntity
  8
ASSEMBLY_OUTLINES_TOP
100
AcDbPolyline
 90
        4
 70
         1
 43
0.1
 10
98.2
 20
93.15
 10
98.2
 20
94.45
 10
101.0
 20
94.45
 10
101.0
 20
93.15
  0
LWPOLYLINE
  5
46
100
AcDbEntity
  8
ASSEMBLY_OUTLINES_TOP
100
AcDbPolyline
 90
        4
 70
         1
 43
0.1
 10
97.55
 20
73.9
 10
97.55
 20
76.7
 10
98.85
 20
76.7
 10
98.85
 20
73.9
  0
LWPOLYLINE
  5
47
100
AcDbEntity
  8
ASSEMBLY_OUTLINES_TOP
100
AcDbPolyline
 90
        4
 70
         1
 43
0.1
 10
101.8
 20
20.35
 10
101.8
 20
21.65
 10
104.6
 20
21.65
 10
104.6
 20
20.35
  0
LWPOLYLINE
  5
48
100
AcDbEntity
  8
ASSEMBLY_OUTLINES_TOP
100
AcDbPolyline
 90
        4
 70
         1
 43
0.1
 10
119.15
 20
72.15
 10
119.15
 20
73.45
 10
122.05
 20
73.45
 10
122.05
 20
72.15
  0
LWPOLYLINE
  5
49
100
AcDbEntity
  8
ASSEMBLY_OUTLINES_TOP
100
AcDbPolyline
 90
        4
 70
         1
 10
115.92
 20
26.17
 10
115.92
 20
59.17
 10
124.62
 20
59.17
 10
124.62
 20
26.17
  0
LWPOLYLINE
  5
4A
100
AcDbEntity
  8
ASSEMBLY_OUTLINES_TOP
100
AcDbPolyline
 90
        4
 70
         1
 10
115.92
 20
39.6
 10
115.92
 20
46.1
 10
116.5
 20
46.1
 10
116.5
 20
39.6
  0
LWPOLYLINE
  5
4B
100
AcDbEntity
  8
ASSEMBLY_OUTLINES_TOP
100
AcDbPolyline
 90
        4
 70
         1
 43
0.1
 10
96.1
 20
16.6
 10
96.1
 20
20.6
 10
100.1
 20
20.6
 10
100.1
 20
16.6
  0
LWPOLYLINE
  5
4C
100
AcDbEntity
  8
ASSEMBLY_OUTLINES_TOP
100
AcDbPolyline
 90
        2
 70
         0
 43
0.1
 10
100.0
 20
16.6
 10
100.1
 20
16.7
  0
LWPOLYLINE
  5
4D
100
AcDbEntity
  8
ASSEMBLY_OUTLINES_TOP
100
AcDbPolyline
 90
        2
 70
         0
 43
0.1
 10
99.9
 20
16.6
 10
100.1
 20
16.8
  0
LWPOLYLINE
  5
4E
100
AcDbEntity
  8
ASSEMBLY_OUTLINES_TOP
100
AcDbPolyline
 90
        2
 70
         0
 43
0.1
 10
99.8
 20
16.6
 10
100.1
 20
16.9
  0
LWPOLYLINE
  5
4F
100
AcDbEntity
  8
ASSEMBLY_OUTLINES_TOP
100
AcDbPolyline
 90
        2
 70
         0
 43
0.1
 10
99.7
 20
16.6
 10
100.1
 20
17.0
  0
LWPOLYLINE
  5
50
100
AcDbEntity
  8
ASSEMBLY_OUTLINES_TOP
100
AcDbPolyline
 90
        2
 70
         0
 43
0.1
 10
99.6
 20
16.6
 10
100.1
 20
17.1
  0
LWPOLYLINE
  5
51
100
AcDbEntity
  8
ASSEMBLY_OUTLINES_TOP
100
AcDbPolyline
 90
        2
 70
         0
 43
0.1
 10
99.5
 20
16.6
 10
100.1
 20
17.2
  0
LWPOLYLINE
  5
52
100
AcDbEntity
  8
ASSEMBLY_OUTLINES_TOP
100
AcDbPolyline
 90
        2
 70
         0
 43
0.1
 10
99.4
 20
16.6
 10
100.1
 20
17.3
  0
LWPOLYLINE
  5
53
100
AcDbEntity
  8
ASSEMBLY_OUTLINES_TOP
100
AcDbPolyline
 90
        2
 70
         0
 43
0.1
 10
99.3
 20
16.6
 10
100.1
 20
17.4
  0
LWPOLYLINE
  5
54
100
AcDbEntity
  8
ASSEMBLY_OUTLINES_TOP
100
AcDbPolyline
 90
        2
 70
         0
 43
0.1
 10
99.2
 20
16.6
 10
100.1
 20
17.5
  0
LWPOLYLINE
  5
55
100
AcDbEntity
  8
ASSEMBLY_OUTLINES_TOP
100
AcDbPolyline
 90
        2
 70
         0
 43
0.1
 10
99.1
 20
16.6
 10
100.1
 20
17.6
  0
LWPOLYLINE
  5
56
100
AcDbEntity
  8
ASSEMBLY_OUTLINES_TOP
100
AcDbPolyline
 90
        4
 70
         1
 10
78.445
 20
65.8
 10
78.445
 20
116.6
 10
83.525
 20
116.6
 10
83.525
 20
65.8
  0
CIRCLE
  5
57
100
AcDbEntity
  8
ASSEMBLY_OUTLINES_TOP
100
AcDbCircle
 10
82.26544
 20
67.068225
 30
0.0
 40
0.45
  0
HATCH
  5
58
100
AcDbEntity
  8
ASSEMBLY_OUTLINES_TOP
100
AcDbHatch
 10
0.0
 20
0.0
 30
0.0
210
0.0
220
0.0
230
1.0
  2
SOLID
 70
         1
 71
         1
 91
        1
 92
        1
 93
        1
 72
         2
 10
82.265439999999998
 20
67.068224999999998
 40
0.45
 50
0.0
 51
360.0
 73
         1
 97
        1
330
57
 75
         0
 76
         1
 98
        1
 10
0.0
 20
0.0
  0
CIRCLE
  5
59
100
AcDbEntity
  8
ASSEMBLY_OUTLINES_TOP
100
AcDbCircle
 10
82.26544
 20
69.608225
 30
0.0
 40
0.45
  0
HATCH
  5
5A
100
AcDbEntity
  8
ASSEMBLY_OUTLINES_TOP
100
AcDbHatch
 10
0.0
 20
0.0
 30
0.0
210
0.0
220
0.0
230
1.0
  2
SOLID
 70
         1
 71
         1
 91
        1
 92
        1
 93
        1
 72
         2
 10
82.265439999999998
 20
69.608225000000004
 40
0.45
 50
0.0
 51
360.0
 73
         1
 97
        1
330
59
 75
         0
 76
         1
 98
        1
 10
0.0
 20
0.0
  0
CIRCLE
  5
5B
100
AcDbEntity
  8
ASSEMBLY_OUTLINES_TOP
100
AcDbCircle
 10
82.26544
 20
72.148225
 30
0.0
 40
0.45
  0
HATCH
  5
5C
100
AcDbEntity
  8
ASSEMBLY_OUTLINES_TOP
100
AcDbHatch
 10
0.0
 20
0.0
 30
0.0
210
0.0
220
0.0
230
1.0
  2
SOLID
 70
         1
 71
         1
 91
        1
 92
        1
 93
        1
 72
         2
 10
82.265439999999998
 20
72.148224999999996
 40
0.45
 50
0.0
 51
360.0
 73
         1
 97
        1
330
5B
 75
         0
 76
         1
 98
        1
 10
0.0
 20
0.0
  0
CIRCLE
  5
5D
100
AcDbEntity
  8
ASSEMBLY_OUTLINES_TOP
100
AcDbCircle
 10
82.26544
 20
74.688225
 30
0.0
 40
0.45
  0
HATCH
  5
5E
100
AcDbEntity
  8
ASSEMBLY_OUTLINES_TOP
100
AcDbHatch
 10
0.0
 20
0.0
 30
0.0
210
0.0
220
0.0
230
1.0
  2
SOLID
 70
         1
 71
         1
 91
        1
 92
        1
 93
        1
 72
         2
 10
82.265439999999998
 20
74.688225000000003
 40
0.45
 50
0.0
 51
360.0
 73
         1
 97
        1
330
5D
 75
         0
 76
         1
 98
        1
 10
0.0
 20
0.0
  0
CIRCLE
  5
5F
100
AcDbEntity
  8
ASSEMBLY_OUTLINES_TOP
100
AcDbCircle
 10
82.26544
 20
77.228225
 30
0.0
 40
0.45
  0
HATCH
  5
60
100
AcDbEntity
  8
ASSEMBLY_OUTLINES_TOP
100
AcDbHatch
 10
0.0
 20
0.0
 30
0.0
210
0.0
220
0.0
230
1.0
  2
SOLID
 70
         1
 71
         1
 91
        1
 92
        1
 93
        1
 72
         2
 10
82.265439999999998
 20
77.228224999999995
 40
0.45
 50
0.0
 51
360.0
 73
         1
 97
        1
330
5F
 75
         0
 76
         1
 98
        1
 10
0.0
 20
0.0
  0
CIRCLE
  5
61
100
AcDbEntity
  8
ASSEMBLY_OUTLINES_TOP
100
AcDbCircle
 10
82.26544
 20
79.768225
 30
0.0
 40
0.45
  0
HATCH
  5
62
100
AcDbEntity
  8
ASSEMBLY_OUTLINES_TOP
100
AcDbHatch
 10
0.0
 20
0.0
 30
0.0
210
0.0
220
0.0
230
1.0
  2
SOLID
 70
         1
 71
         1
 91
        1
 92
        1
 93
        1
 72
         2
 10
82.265439999999998
 20
79.768225000000001
 40
0.45
 50
0.0
 51
360.0
 73
         1
 97
        1
330
61
 75
         0
 76
         1
 98
        1
 10
0.0
 20
0.0
  0
CIRCLE
  5
63
100
AcDbEntity
  8
ASSEMBLY_OUTLINES_TOP
100
AcDbCircle
 10
82.26544
 20
82.308225
 30
0.0
 40
0.45
  0
HATCH
  5
64
100
AcDbEntity
  8
ASSEMBLY_OUTLINES_TOP
100
AcDbHatch
 10
0.0
 20
0.0
 30
0.0
210
0.0
220
0.0
230
1.0
  2
SOLID
 70
         1
 71
         1
 91
        1
 92
        1
 93
        1
 72
         2
 10
82.265439999999998
 20
82.308224999999993
 40
0.45
 50
0.0
 51
360.0
 73
         1
 97
        1
330
63
 75
         0
 76
         1
 98
        1
 10
0.0
 20
0.0
  0
CIRCLE
  5
65
100
AcDbEntity
  8
ASSEMBLY_OUTLINES_TOP
100
AcDbCircle
 10
82.26544
 20
84.848225
 30
0.0
 40
0.45
  0
HATCH
  5
66
100
AcDbEntity
  8
ASSEMBLY_OUTLINES_TOP
100
AcDbHatch
 10
0.0
 20
0.0
 30
0.0
210
0.0
220
0.0
230
1.0
  2
SOLID
 70
         1
 71
         1
 91
        1
 92
        1
 93
        1
 72
         2
 10
82.265439999999998
 20
84.848224999999999
 40
0.45
 50
0.0
 51
360.0
 73
         1
 97
        1
330
65
 75
         0
 76
         1
 98
        1
 10
0.0
 20
0.0
  0
CIRCLE
  5
67
100
AcDbEntity
  8
ASSEMBLY_OUTLINES_TOP
100
AcDbCircle
 10
82.26544
 20
87.388225
 30
0.0
 40
0.45
  0
HATCH
  5
68
100
AcDbEntity
  8
ASSEMBLY_OUTLINES_TOP
100
AcDbHatch
 10
0.0
 20
0.0
 30
0.0
210
0.0
220
0.0
230
1.0
  2
SOLID
 70
         1
 71
         1
 91
        1
 92
        1
 93
        1
 72
         2
 10
82.265439999999998
 20
87.388225000000006
 40
0.45
 50
0.0
 51
360.0
 73
         1
 97
        1
330
67
 75
         0
 76
         1
 98
        1
 10
0.0
 20
0.0
  0
CIRCLE
  5
69
100
AcDbEntity
  8
ASSEMBLY_OUTLINES_TOP
100
AcDbCircle
 10
82.26544
 20
89.928225
 30
0.0
 40
0.45
  0
HATCH
  5
6A
100
AcDbEntity
  8
ASSEMBLY_OUTLINES_TOP
100
AcDbHatch
 10
0.0
 20
0.0
 30
0.0
210
0.0
220
0.0
230
1.0
  2
SOLID
 70
         1
 71
         1
 91
        1
 92
        1
 93
        1
 72
         2
 10
82.265439999999998
 20
89.928224999999998
 40
0.45
 50
0.0
 51
360.0
 73
         1
 97
        1
330
69
 75
         0
 76
         1
 98
        1
 10
0.0
 20
0.0
  0
CIRCLE
  5
6B
100
AcDbEntity
  8
ASSEMBLY_OUTLINES_TOP
100
AcDbCircle
 10
82.27456
 20
92.471774
 30
0.0
 40
0.45
  0
HATCH
  5
6C
100
AcDbEntity
  8
ASSEMBLY_OUTLINES_TOP
100
AcDbHatch
 10
0.0
 20
0.0
 30
0.0
210
0.0
220
0.0
230
1.0
  2
SOLID
 70
         1
 71
         1
 91
        1
 92
        1
 93
        1
 72
         2
 10
82.274559999999994
 20
92.471773999999996
 40
0.45
 50
0.0
 51
360.0
 73
         1
 97
        1
330
6B
 75
         0
 76
         1
 98
        1
 10
0.0
 20
0.0
  0
CIRCLE
  5
6D
100
AcDbEntity
  8
ASSEMBLY_OUTLINES_TOP
100
AcDbCircle
 10
82.27456
 20
95.011774
 30
0.0
 40
0.45
  0
HATCH
  5
6E
100
AcDbEntity
  8
ASSEMBLY_OUTLINES_TOP
100
AcDbHatch
 10
0.0
 20
0.0
 30
0.0
210
0.0
220
0.0
230
1.0
  2
SOLID
 70
         1
 71
         1
 91
        1
 92
        1
 93
        1
 72
         2
 10
82.274559999999994
 20
95.011774000000003
 40
0.45
 50
0.0
 51
360.0
 73
         1
 97
        1
330
6D
 75
         0
 76
         1
 98
        1
 10
0.0
 20
0.0
  0
CIRCLE
  5
6F
100
AcDbEntity
  8
ASSEMBLY_OUTLINES_TOP
100
AcDbCircle
 10
82.27456
 20
97.551774
 30
0.0
 40
0.45
  0
HATCH
  5
70
100
AcDbEntity
  8
ASSEMBLY_OUTLINES_TOP
100
AcDbHatch
 10
0.0
 20
0.0
 30
0.0
210
0.0
220
0.0
230
1.0
  2
SOLID
 70
         1
 71
         1
 91
        1
 92
        1
 93
        1
 72
         2
 10
82.274559999999994
 20
97.551773999999995
 40
0.45
 50
0.0
 51
360.0
 73
         1
 97
        1
330
6F
 75
         0
 76
         1
 98
        1
 10
0.0
 20
0.0
  0
CIRCLE
  5
71
100
AcDbEntity
  8
ASSEMBLY_OUTLINES_TOP
100
AcDbCircle
 10
82.27456
 20
100.091774
 30
0.0
 40
0.45
  0
HATCH
  5
72
100
AcDbEntity
  8
ASSEMBLY_OUTLINES_TOP
100
AcDbHatch
 10
0.0
 20
0.0
 30
0.0
210
0.0
220
0.0
230
1.0
  2
SOLID
 70
         1
 71
         1
 91
        1
 92
        1
 93
        1
 72
         2
 10
82.274559999999994
 20
100.091774
 40
0.45
 50
0.0
 51
360.0
 73
         1
 97
        1
330
71
 75
         0
 76
         1
 98
        1
 10
0.0
 20
0.0
  0
CIRCLE
  5
73
100
AcDbEntity
  8
ASSEMBLY_OUTLINES_TOP
100
AcDbCircle
 10
82.27456
 20
102.631774
 30
0.0
 40
0.45
  0
HATCH
  5
74
100
AcDbEntity
  8
ASSEMBLY_OUTLINES_TOP
100
AcDbHatch
 10
0.0
 20
0.0
 30
0.0
210
0.0
220
0.0
230
1.0
  2
SOLID
 70
         1
 71
         1
 91
        1
 92
        1
 93
        1
 72
         2
 10
82.274559999999994
 20
102.63177399999999
 40
0.45
 50
0.0
 51
360.0
 73
         1
 97
        1
330
73
 75
         0
 76
         1
 98
        1
 10
0.0
 20
0.0
  0
CIRCLE
  5
75
100
AcDbEntity
  8
ASSEMBLY_OUTLINES_TOP
100
AcDbCircle
 10
82.27456
 20
105.171774
 30
0.0
 40
0.45
  0
HATCH
  5
76
100
AcDbEntity
  8
ASSEMBLY_OUTLINES_TOP
100
AcDbHatch
 10
0.0
 20
0.0
 30
0.0
210
0.0
220
0.0
230
1.0
  2
SOLID
 70
         1
 71
         1
 91
        1
 92
        1
 93
        1
 72
         2
 10
82.274559999999994
 20
105.171774
 40
0.45
 50
0.0
 51
360.0
 73
         1
 97
        1
330
75
 75
         0
 76
         1
 98
        1
 10
0.0
 20
0.0
  0
CIRCLE
  5
77
100
AcDbEntity
  8
ASSEMBLY_OUTLINES_TOP
100
AcDbCircle
 10
82.27456
 20
107.711774
 30
0.0
 40
0.45
  0
HATCH
  5
78
100
AcDbEntity
  8
ASSEMBLY_OUTLINES_TOP
100
AcDbHatch
 10
0.0
 20
0.0
 30
0.0
210
0.0
220
0.0
230
1.0
  2
SOLID
 70
         1
 71
         1
 91
        1
 92
        1
 93
        1
 72
         2
 10
82.274559999999994
 20
107.71177400000001
 40
0.45
 50
0.0
 51
360.0
 73
         1
 97
        1
330
77
 75
         0
 76
         1
 98
        1
 10
0.0
 20
0.0
  0
CIRCLE
  5
79
100
AcDbEntity
  8
ASSEMBLY_OUTLINES_TOP
100
AcDbCircle
 10
82.27456
 20
110.251774
 30
0.0
 40
0.45
  0
HATCH
  5
7A
100
AcDbEntity
  8
ASSEMBLY_OUTLINES_TOP
100
AcDbHatch
 10
0.0
 20
0.0
 30
0.0
210
0.0
220
0.0
230
1.0
  2
SOLID
 70
         1
 71
         1
 91
        1
 92
        1
 93
        1
 72
         2
 10
82.274559999999994
 20
110.251774
 40
0.45
 50
0.0
 51
360.0
 73
         1
 97
        1
330
79
 75
         0
 76
         1
 98
        1
 10
0.0
 20
0.0
  0
CIRCLE
  5
7B
100
AcDbEntity
  8
ASSEMBLY_OUTLINES_TOP
100
AcDbCircle
 10
82.27456
 20
112.791774
 30
0.0
 40
0.45
  0
HATCH
  5
7C
100
AcDbEntity
  8
ASSEMBLY_OUTLINES_TOP
100
AcDbHatch
 10
0.0
 20
0.0
 30
0.0
210
0.0
220
0.0
230
1.0
  2
SOLID
 70
         1
 71
         1
 91
        1
 92
        1
 93
        1
 72
         2
 10
82.274559999999994
 20
112.791774
 40
0.45
 50
0.0
 51
360.0
 73
         1
 97
        1
330
7B
 75
         0
 76
         1
 98
        1
 10
0.0
 20
0.0
  0
CIRCLE
  5
7D
100
AcDbEntity
  8
ASSEMBLY_OUTLINES_TOP
100
AcDbCircle
 10
82.27456
 20
115.331774
 30
0.0
 40
0.45
  0
HATCH
  5
7E
100
AcDbEntity
  8
ASSEMBLY_OUTLINES_TOP
100
AcDbHatch
 10
0.0
 20
0.0
 30
0.0
210
0.0
220
0.0
230
1.0
  2
SOLID
 70
         1
 71
         1
 91
        1
 92
        1
 93
        1
 72
         2
 10
82.274559999999994
 20
115.331774
 40
0.45
 50
0.0
 51
360.0
 73
         1
 97
        1
330
7D
 75
         0
 76
         1
 98
        1
 10
0.0
 20
0.0
  0
CIRCLE
  5
7F
100
AcDbEntity
  8
ASSEMBLY_OUTLINES_TOP
100
AcDbCircle
 10
79.73
 20
67.07
 30
0.0
 40
0.45
  0
HATCH
  5
80
100
AcDbEntity
  8
ASSEMBLY_OUTLINES_TOP
100
AcDbHatch
 10
0.0
 20
0.0
 30
0.0
210
0.0
220
0.0
230
1.0
  2
SOLID
 70
         1
 71
         1
 91
        1
 92
        1
 93
        1
 72
         2
 10
79.730000000000004
 20
67.069999999999993
 40
0.45
 50
0.0
 51
360.0
 73
         1
 97
        1
330
7F
 75
         0
 76
         1
 98
        1
 10
0.0
 20
0.0
  0
CIRCLE
  5
81
100
AcDbEntity
  8
ASSEMBLY_OUTLINES_TOP
100
AcDbCircle
 10
79.73
 20
69.61
 30
0.0
 40
0.45
  0
HATCH
  5
82
100
AcDbEntity
  8
ASSEMBLY_OUTLINES_TOP
100
AcDbHatch
 10
0.0
 20
0.0
 30
0.0
210
0.0
220
0.0
230
1.0
  2
SOLID
 70
         1
 71
         1
 91
        1
 92
        1
 93
        1
 72
         2
 10
79.730000000000004
 20
69.609999999999999
 40
0.45
 50
0.0
 51
360.0
 73
         1
 97
        1
330
81
 75
         0
 76
         1
 98
        1
 10
0.0
 20
0.0
  0
CIRCLE
  5
83
100
AcDbEntity
  8
ASSEMBLY_OUTLINES_TOP
100
AcDbCircle
 10
79.73
 20
72.15
 30
0.0
 40
0.45
  0
HATCH
  5
84
100
AcDbEntity
  8
ASSEMBLY_OUTLINES_TOP
100
AcDbHatch
 10
0.0
 20
0.0
 30
0.0
210
0.0
220
0.0
230
1.0
  2
SOLID
 70
         1
 71
         1
 91
        1
 92
        1
 93
        1
 72
         2
 10
79.730000000000004
 20
72.150000000000006
 40
0.45
 50
0.0
 51
360.0
 73
         1
 97
        1
330
83
 75
         0
 76
         1
 98
        1
 10
0.0
 20
0.0
  0
CIRCLE
  5
85
100
AcDbEntity
  8
ASSEMBLY_OUTLINES_TOP
100
AcDbCircle
 10
79.73
 20
74.69
 30
0.0
 40
0.45
  0
HATCH
  5
86
100
AcDbEntity
  8
ASSEMBLY_OUTLINES_TOP
100
AcDbHatch
 10
0.0
 20
0.0
 30
0.0
210
0.0
220
0.0
230
1.0
  2
SOLID
 70
         1
 71
         1
 91
        1
 92
        1
 93
        1
 72
         2
 10
79.730000000000004
 20
74.689999999999998
 40
0.45
 50
0.0
 51
360.0
 73
         1
 97
        1
330
85
 75
         0
 76
         1
 98
        1
 10
0.0
 20
0.0
  0
CIRCLE
  5
87
100
AcDbEntity
  8
ASSEMBLY_OUTLINES_TOP
100
AcDbCircle
 10
79.73
 20
77.23
 30
0.0
 40
0.45
  0
HATCH
  5
88
100
AcDbEntity
  8
ASSEMBLY_OUTLINES_TOP
100
AcDbHatch
 10
0.0
 20
0.0
 30
0.0
210
0.0
220
0.0
230
1.0
  2
SOLID
 70
         1
 71
         1
 91
        1
 92
        1
 93
        1
 72
         2
 10
79.730000000000004
 20
77.230000000000004
 40
0.45
 50
0.0
 51
360.0
 73
         1
 97
        1
330
87
 75
         0
 76
         1
 98
        1
 10
0.0
 20
0.0
  0
CIRCLE
  5
89
100
AcDbEntity
  8
ASSEMBLY_OUTLINES_TOP
100
AcDbCircle
 10
79.73
 20
79.77
 30
0.0
 40
0.45
  0
HATCH
  5
8A
100
AcDbEntity
  8
ASSEMBLY_OUTLINES_TOP
100
AcDbHatch
 10
0.0
 20
0.0
 30
0.0
210
0.0
220
0.0
230
1.0
  2
SOLID
 70
         1
 71
         1
 91
        1
 92
        1
 93
        1
 72
         2
 10
79.730000000000004
 20
79.769999999999996
 40
0.45
 50
0.0
 51
360.0
 73
         1
 97
        1
330
89
 75
         0
 76
         1
 98
        1
 10
0.0
 20
0.0
  0
CIRCLE
  5
8B
100
AcDbEntity
  8
ASSEMBLY_OUTLINES_TOP
100
AcDbCircle
 10
79.73
 20
82.31
 30
0.0
 40
0.45
  0
HATCH
  5
8C
100
AcDbEntity
  8
ASSEMBLY_OUTLINES_TOP
100
AcDbHatch
 10
0.0
 20
0.0
 30
0.0
210
0.0
220
0.0
230
1.0
  2
SOLID
 70
         1
 71
         1
 91
        1
 92
        1
 93
        1
 72
         2
 10
79.730000000000004
 20
82.310000000000002
 40
0.45
 50
0.0
 51
360.0
 73
         1
 97
        1
330
8B
 75
         0
 76
         1
 98
        1
 10
0.0
 20
0.0
  0
CIRCLE
  5
8D
100
AcDbEntity
  8
ASSEMBLY_OUTLINES_TOP
100
AcDbCircle
 10
79.73
 20
84.85
 30
0.0
 40
0.45
  0
HATCH
  5
8E
100
AcDbEntity
  8
ASSEMBLY_OUTLINES_TOP
100
AcDbHatch
 10
0.0
 20
0.0
 30
0.0
210
0.0
220
0.0
230
1.0
  2
SOLID
 70
         1
 71
         1
 91
        1
 92
        1
 93
        1
 72
         2
 10
79.730000000000004
 20
84.849999999999994
 40
0.45
 50
0.0
 51
360.0
 73
         1
 97
        1
330
8D
 75
         0
 76
         1
 98
        1
 10
0.0
 20
0.0
  0
CIRCLE
  5
8F
100
AcDbEntity
  8
ASSEMBLY_OUTLINES_TOP
100
AcDbCircle
 10
79.73
 20
87.39
 30
0.0
 40
0.45
  0
HATCH
  5
90
100
AcDbEntity
  8
ASSEMBLY_OUTLINES_TOP
100
AcDbHatch
 10
0.0
 20
0.0
 30
0.0
210
0.0
220
0.0
230
1.0
  2
SOLID
 70
         1
 71
         1
 91
        1
 92
        1
 93
        1
 72
         2
 10
79.730000000000004
 20
87.390000000000001
 40
0.45
 50
0.0
 51
360.0
 73
         1
 97
        1
330
8F
 75
         0
 76
         1
 98
        1
 10
0.0
 20
0.0
  0
CIRCLE
  5
91
100
AcDbEntity
  8
ASSEMBLY_OUTLINES_TOP
100
AcDbCircle
 10
79.73
 20
89.93
 30
0.0
 40
0.45
  0
HATCH
  5
92
100
AcDbEntity
  8
ASSEMBLY_OUTLINES_TOP
100
AcDbHatch
 10
0.0
 20
0.0
 30
0.0
210
0.0
220
0.0
230
1.0
  2
SOLID
 70
         1
 71
         1
 91
        1
 92
        1
 93
        1
 72
         2
 10
79.730000000000004
 20
89.930000000000007
 40
0.45
 50
0.0
 51
360.0
 73
         1
 97
        1
330
91
 75
         0
 76
         1
 98
        1
 10
0.0
 20
0.0
  0
CIRCLE
  5
93
100
AcDbEntity
  8
ASSEMBLY_OUTLINES_TOP
100
AcDbCircle
 10
79.72912
 20
92.473549
 30
0.0
 40
0.45
  0
HATCH
  5
94
100
AcDbEntity
  8
ASSEMBLY_OUTLINES_TOP
100
AcDbHatch
 10
0.0
 20
0.0
 30
0.0
210
0.0
220
0.0
230
1.0
  2
SOLID
 70
         1
 71
         1
 91
        1
 92
        1
 93
        1
 72
         2
 10
79.729119999999995
 20
92.473549000000006
 40
0.45
 50
0.0
 51
360.0
 73
         1
 97
        1
330
93
 75
         0
 76
         1
 98
        1
 10
0.0
 20
0.0
  0
CIRCLE
  5
95
100
AcDbEntity
  8
ASSEMBLY_OUTLINES_TOP
100
AcDbCircle
 10
79.72912
 20
95.013549
 30
0.0
 40
0.45
  0
HATCH
  5
96
100
AcDbEntity
  8
ASSEMBLY_OUTLINES_TOP
100
AcDbHatch
 10
0.0
 20
0.0
 30
0.0
210
0.0
220
0.0
230
1.0
  2
SOLID
 70
         1
 71
         1
 91
        1
 92
        1
 93
        1
 72
         2
 10
79.729119999999995
 20
95.013548999999998
 40
0.45
 50
0.0
 51
360.0
 73
         1
 97
        1
330
95
 75
         0
 76
         1
 98
        1
 10
0.0
 20
0.0
  0
CIRCLE
  5
97
100
AcDbEntity
  8
ASSEMBLY_OUTLINES_TOP
100
AcDbCircle
 10
79.72912
 20
97.553549
 30
0.0
 40
0.45
  0
HATCH
  5
98
100
AcDbEntity
  8
ASSEMBLY_OUTLINES_TOP
100
AcDbHatch
 10
0.0
 20
0.0
 30
0.0
210
0.0
220
0.0
230
1.0
  2
SOLID
 70
         1
 71
         1
 91
        1
 92
        1
 93
        1
 72
         2
 10
79.729119999999995
 20
97.553549000000004
 40
0.45
 50
0.0
 51
360.0
 73
         1
 97
        1
330
97
 75
         0
 76
         1
 98
        1
 10
0.0
 20
0.0
  0
CIRCLE
  5
99
100
AcDbEntity
  8
ASSEMBLY_OUTLINES_TOP
100
AcDbCircle
 10
79.72912
 20
100.093549
 30
0.0
 40
0.45
  0
HATCH
  5
9A
100
AcDbEntity
  8
ASSEMBLY_OUTLINES_TOP
100
AcDbHatch
 10
0.0
 20
0.0
 30
0.0
210
0.0
220
0.0
230
1.0
  2
SOLID
 70
         1
 71
         1
 91
        1
 92
        1
 93
        1
 72
         2
 10
79.729119999999995
 20
100.093549
 40
0.45
 50
0.0
 51
360.0
 73
         1
 97
        1
330
99
 75
         0
 76
         1
 98
        1
 10
0.0
 20
0.0
  0
CIRCLE
  5
9B
100
AcDbEntity
  8
ASSEMBLY_OUTLINES_TOP
100
AcDbCircle
 10
79.72912
 20
102.633549
 30
0.0
 40
0.45
  0
HATCH
  5
9C
100
AcDbEntity
  8
ASSEMBLY_OUTLINES_TOP
100
AcDbHatch
 10
0.0
 20
0.0
 30
0.0
210
0.0
220
0.0
230
1.0
  2
SOLID
 70
         1
 71
         1
 91
        1
 92
        1
 93
        1
 72
         2
 10
79.729119999999995
 20
102.633549
 40
0.45
 50
0.0
 51
360.0
 73
         1
 97
        1
330
9B
 75
         0
 76
         1
 98
        1
 10
0.0
 20
0.0
  0
CIRCLE
  5
9D
100
AcDbEntity
  8
ASSEMBLY_OUTLINES_TOP
100
AcDbCircle
 10
79.72912
 20
105.173549
 30
0.0
 40
0.45
  0
HATCH
  5
9E
100
AcDbEntity
  8
ASSEMBLY_OUTLINES_TOP
100
AcDbHatch
 10
0.0
 20
0.0
 30
0.0
210
0.0
220
0.0
230
1.0
  2
SOLID
 70
         1
 71
         1
 91
        1
 92
        1
 93
        1
 72
         2
 10
79.729119999999995
 20
105.17354899999999
 40
0.45
 50
0.0
 51
360.0
 73
         1
 97
        1
330
9D
 75
         0
 76
         1
 98
        1
 10
0.0
 20
0.0
  0
CIRCLE
  5
9F
100
AcDbEntity
  8
ASSEMBLY_OUTLINES_TOP
100
AcDbCircle
 10
79.72912
 20
107.713549
 30
0.0
 40
0.45
  0
HATCH
  5
A0
100
AcDbEntity
  8
ASSEMBLY_OUTLINES_TOP
100
AcDbHatch
 10
0.0
 20
0.0
 30
0.0
210
0.0
220
0.0
230
1.0
  2
SOLID
 70
         1
 71
         1
 91
        1
 92
        1
 93
        1
 72
         2
 10
79.729119999999995
 20
107.713549
 40
0.45
 50
0.0
 51
360.0
 73
         1
 97
        1
330
9F
 75
         0
 76
         1
 98
        1
 10
0.0
 20
0.0
  0
CIRCLE
  5
A1
100
AcDbEntity
  8
ASSEMBLY_OUTLINES_TOP
100
AcDbCircle
 10
79.72912
 20
110.253549
 30
0.0
 40
0.45
  0
HATCH
  5
A2
100
AcDbEntity
  8
ASSEMBLY_OUTLINES_TOP
100
AcDbHatch
 10
0.0
 20
0.0
 30
0.0
210
0.0
220
0.0
230
1.0
  2
SOLID
 70
         1
 71
         1
 91
        1
 92
        1
 93
        1
 72
         2
 10
79.729119999999995
 20
110.25354900000001
 40
0.45
 50
0.0
 51
360.0
 73
         1
 97
        1
330
A1
 75
         0
 76
         1
 98
        1
 10
0.0
 20
0.0
  0
CIRCLE
  5
A3
100
AcDbEntity
  8
ASSEMBLY_OUTLINES_TOP
100
AcDbCircle
 10
79.72912
 20
112.793549
 30
0.0
 40
0.45
  0
HATCH
  5
A4
100
AcDbEntity
  8
ASSEMBLY_OUTLINES_TOP
100
AcDbHatch
 10
0.0
 20
0.0
 30
0.0
210
0.0
220
0.0
230
1.0
  2
SOLID
 70
         1
 71
         1
 91
        1
 92
        1
 93
        1
 72
         2
 10
79.729119999999995
 20
112.793549
 40
0.45
 50
0.0
 51
360.0
 73
         1
 97
        1
330
A3
 75
         0
 76
         1
 98
        1
 10
0.0
 20
0.0
  0
CIRCLE
  5
A5
100
AcDbEntity
  8
ASSEMBLY_OUTLINES_TOP
100
AcDbCircle
 10
79.72912
 20
115.333549
 30
0.0
 40
0.45
  0
HATCH
  5
A6
100
AcDbEntity
  8
ASSEMBLY_OUTLINES_TOP
100
AcDbHatch
 10
0.0
 20
0.0
 30
0.0
210
0.0
220
0.0
230
1.0
  2
SOLID
 70
         1
 71
         1
 91
        1
 92
        1
 93
        1
 72
         2
 10
79.729119999999995
 20
115.333549
 40
0.45
 50
0.0
 51
360.0
 73
         1
 97
        1
330
A5
 75
         0
 76
         1
 98
        1
 10
0.0
 20
0.0
  0
LWPOLYLINE
  5
A7
100
AcDbEntity
  8
ASSEMBLY_OUTLINES_TOP
100
AcDbPolyline
 90
        4
 70
         1
 43
0.1
 10
118.65
 20
59.55
 10
118.65
 20
62.45
 10
119.95
 20
62.45
 10
119.95
 20
59.55
  0
LWPOLYLINE
  5
A8
100
AcDbEntity
  8
ASSEMBLY_OUTLINES_TOP
100
AcDbPolyline
 90
        4
 70
         1
 43
0.1
 10
110.05
 20
9.85
 10
110.05
 20
11.15
 10
112.95
 20
11.15
 10
112.95
 20
9.85
  0
LWPOLYLINE
  5
A9
100
AcDbEntity
  8
ASSEMBLY_OUTLINES_TOP
100
AcDbPolyline
 90
        4
 70
         1
 43
0.1
 10
121.75
 20
62.85
 10
121.75
 20
64.15
 10
124.65
 20
64.15
 10
124.65
 20
62.85
  0
LWPOLYLINE
  5
AA
100
AcDbEntity
  8
ASSEMBLY_OUTLINES_TOP
100
AcDbPolyline
 90
        4
 70
         1
 43
0.1
 10
105.45
 20
87.15
 10
105.45
 20
88.45
 10
108.35
 20
88.45
 10
108.35
 20
87.15
  0
LWPOLYLINE
  5
AB
100
AcDbEntity
  8
ASSEMBLY_OUTLINES_TOP
100
AcDbPolyline
 90
        4
 70
         1
 10
113.13
 20
43.91
 10
113.13
 20
51.41
 10
115.67
 20
51.41
 10
115.67
 20
43.91
  0
LWPOLYLINE
  5
AC
100
AcDbEntity
  8
ASSEMBLY_OUTLINES_TOP
100
AcDbPolyline
 90
        4
 70
         1
 43
0.1
 10
112.635
 20
108.298
 10
112.635
 20
114.518
 10
119.365
 20
114.518
 10
119.365
 20
108.298
  0
LWPOLYLINE
  5
AD
100
AcDbEntity
  8
ASSEMBLY_OUTLINES_TOP
100
AcDbPolyline
 90
        4
 70
         1
 43
0.1
 10
95.85
 20
22.25
 10
95.85
 20
25.15
 10
97.15
 20
25.15
 10
97.15
 20
22.25
  0
LWPOLYLINE
  5
AE
100
AcDbEntity
  8
ASSEMBLY_OUTLINES_TOP
100
AcDbPolyline
 90
        4
 70
         1
 43
0.1
 10
121.65
 20
103.55
 10
121.65
 20
104.85
 10
124.55
 20
104.85
 10
124.55
 20
103.55
  0
LWPOLYLINE
  5
AF
100
AcDbEntity
  8
ASSEMBLY_OUTLINES_TOP
100
AcDbPolyline
 90
        4
 70
         1
 10
124.84
 20
57.36
 10
124.84
 20
70.56
 10
138.84
 20
70.56
 10
138.84
 20
57.36
  0
LWPOLYLINE
  5
B0
100
AcDbEntity
  8
ASSEMBLY_OUTLINES_TOP
100
AcDbPolyline
 90
        4
 70
         1
 43
0.1
 10
121.75
 20
64.35
 10
121.75
 20
65.65
 10
124.65
 20
65.65
 10
124.65
 20
64.35
  0
LWPOLYLINE
  5
B1
100
AcDbEntity
  8
ASSEMBLY_OUTLINES_TOP
100
AcDbPolyline
 90
        4
 70
         1
 43
0.1
 10
105.45
 20
88.85
 10
105.45
 20
90.15
 10
108.35
 20
90.15
 10
108.35
 20
88.85
  0
LWPOLYLINE
  5
B2
100
AcDbEntity
  8
ASSEMBLY_OUTLINES_TOP
100
AcDbPolyline
 90
        4
 70
         1
 10
119.33
 20
83.73
 10
119.33
 20
88.81
 10
121.87
 20
88.81
 10
121.87
 20
83.73
  0
LWPOLYLINE
  5
B3
100
AcDbEntity
  8
ASSEMBLY_OUTLINES_TOP
100
AcDbPolyline
 90
        4
 70
         1
 43
0.1
 10
97.95
 20
24.65
 10
97.95
 20
27.55
 10
99.25
 20
27.55
 10
99.25
 20
24.65
  0
LWPOLYLINE
  5
B4
100
AcDbEntity
  8
ASSEMBLY_OUTLINES_TOP
100
AcDbPolyline
 90
        4
 70
         1
 43
0.1
 10
101.8
 20
18.85
 10
101.8
 20
20.15
 10
104.6
 20
20.15
 10
104.6
 20
18.85
  0
LWPOLYLINE
  5
B5
100
AcDbEntity
  8
ASSEMBLY_OUTLINES_TOP
100
AcDbPolyline
 90
        4
 70
         1
 43
0.1
 10
112.85
 20
61.5
 10
112.85
 20
63.3
 10
116.15
 20
63.3
 10
116.15
 20
61.5
  0
LWPOLYLINE
  5
B6
100
AcDbEntity
  8
ASSEMBLY_OUTLINES_TOP
100
AcDbPolyline
 90
        4
 70
         1
 43
0.1
 10
115.85
 20
65.75
 10
115.85
 20
67.05
 10
118.75
 20
67.05
 10
118.75
 20
65.75
  0
LWPOLYLINE
  5
B7
100
AcDbEntity
  8
ASSEMBLY_OUTLINES_TOP
100
AcDbPolyline
 90
        4
 70
         1
 10
122.4
 20
76.0
 10
122.4
 20
88.0
 10
138.35
 20
88.0
 10
138.35
 20
76.0
  0
LWPOLYLINE
  5
B8
100
AcDbEntity
  8
ASSEMBLY_OUTLINES_TOP
100
AcDbPolyline
 90
        4
 70
         1
 43
0.1
 10
89.45
 20
47.3
 10
89.45
 20
49.1
 10
92.75
 20
49.1
 10
92.75
 20
47.3
  0
LWPOLYLINE
  5
B9
100
AcDbEntity
  8
ASSEMBLY_OUTLINES_TOP
100
AcDbPolyline
 90
        4
 70
         1
 43
0.1
 10
104.85
 20
18.75
 10
104.85
 20
21.65
 10
106.15
 20
21.65
 10
106.15
 20
18.75
  0
LWPOLYLINE
  5
BA
100
AcDbEntity
  8
ASSEMBLY_OUTLINES_TOP
100
AcDbPolyline
 90
        4
 70
         1
 43
0.1
 10
114.25
 20
36.85
 10
114.25
 20
39.75
 10
115.55
 20
39.75
 10
115.55
 20
36.85
  0
LWPOLYLINE
  5
BB
100
AcDbEntity
  8
ASSEMBLY_OUTLINES_TOP
100
AcDbPolyline
 90
        4
 70
         1
 43
0.1
 10
86.25
 20
58.5
 10
86.25
 20
61.3
 10
87.55
 20
61.3
 10
87.55
 20
58.5
  0
LWPOLYLINE
  5
BC
100
AcDbEntity
  8
ASSEMBLY_OUTLINES_TOP
100
AcDbPolyline
 90
        4
 70
         1
 43
0.1
 10
110.8
 20
98.3
 10
110.8
 20
102.1
 10
116.4
 20
102.1
 10
116.4
 20
98.3
  0
LWPOLYLINE
  5
BD
100
AcDbEntity
  8
ASSEMBLY_OUTLINES_TOP
100
AcDbPolyline
 90
        2
 70
         0
 43
0.1
 10
110.9
 20
98.3
 10
110.9
 20
102.1
  0
LWPOLYLINE
  5
BE
100
AcDbEntity
  8
ASSEMBLY_OUTLINES_TOP
100
AcDbPolyline
 90
        2
 70
         0
 43
0.1
 10
111.0
 20
98.3
 10
111.0
 20
102.1
  0
LWPOLYLINE
  5
BF
100
AcDbEntity
  8
ASSEMBLY_OUTLINES_TOP
100
AcDbPolyline
 90
        2
 70
         0
 43
0.1
 10
111.1
 20
98.3
 10
111.1
 20
102.1
  0
LWPOLYLINE
  5
C0
100
AcDbEntity
  8
ASSEMBLY_OUTLINES_TOP
100
AcDbPolyline
 90
        2
 70
         0
 43
0.1
 10
111.2
 20
98.3
 10
111.2
 20
102.1
  0
LWPOLYLINE
  5
C1
100
AcDbEntity
  8
ASSEMBLY_OUTLINES_TOP
100
AcDbPolyline
 90
        2
 70
         0
 43
0.1
 10
111.3
 20
98.3
 10
111.3
 20
102.1
  0
LWPOLYLINE
  5
C2
100
AcDbEntity
  8
ASSEMBLY_OUTLINES_TOP
100
AcDbPolyline
 90
        2
 70
         0
 43
0.1
 10
111.4
 20
98.3
 10
111.4
 20
102.1
  0
LWPOLYLINE
  5
C3
100
AcDbEntity
  8
ASSEMBLY_OUTLINES_TOP
100
AcDbPolyline
 90
        2
 70
         0
 43
0.1
 10
111.5
 20
98.3
 10
111.5
 20
102.1
  0
LWPOLYLINE
  5
C4
100
AcDbEntity
  8
ASSEMBLY_OUTLINES_TOP
100
AcDbPolyline
 90
        2
 70
         0
 43
0.1
 10
111.6
 20
98.3
 10
111.6
 20
102.1
  0
LWPOLYLINE
  5
C5
100
AcDbEntity
  8
ASSEMBLY_OUTLINES_TOP
100
AcDbPolyline
 90
        4
 70
         1
 43
0.1
 10
114.45
 20
22.95
 10
114.45
 20
25.85
 10
115.75
 20
25.85
 10
115.75
 20
22.95
  0
LWPOLYLINE
  5
C6
100
AcDbEntity
  8
ASSEMBLY_OUTLINES_TOP
100
AcDbPolyline
 90
        4
 70
         1
 43
0.1
 10
112.9
 20
56.85
 10
112.9
 20
58.15
 10
115.7
 20
58.15
 10
115.7
 20
56.85
  0
LWPOLYLINE
  5
C7
100
AcDbEntity
  8
ASSEMBLY_OUTLINES_TOP
100
AcDbPolyline
 90
        4
 70
         1
 43
0.1
 10
100.4
 20
47.75
 10
100.4
 20
49.05
 10
103.2
 20
49.05
 10
103.2
 20
47.75
  0
LWPOLYLINE
  5
C8
100
AcDbEntity
  8
ASSEMBLY_OUTLINES_TOP
100
AcDbPolyline
 90
        4
 70
         1
 43
0.1
 10
112.9
 20
58.15
 10
112.9
 20
59.45
 10
115.7
 20
59.45
 10
115.7
 20
58.15
  0
LWPOLYLINE
  5
C9
100
AcDbEntity
  8
ASSEMBLY_OUTLINES_TOP
100
AcDbPolyline
 90
        4
 70
         1
 43
0.1
 10
116.45
 20
22.95
 10
116.45
 20
25.85
 10
117.75
 20
25.85
 10
117.75
 20
22.95
  0
LWPOLYLINE
  5
CA
100
AcDbEntity
  8
ASSEMBLY_OUTLINES_TOP
100
AcDbPolyline
 90
        4
 70
         1
 10
100.43
 20
40.63
 10
100.43
 20
43.17
 10
102.97
 20
43.17
 10
102.97
 20
40.63
  0
LWPOLYLINE
  5
CB
100
AcDbEntity
  8
ASSEMBLY_OUTLINES_TOP
100
AcDbPolyline
 90
        4
 70
         1
 43
0.1
 10
120.45
 20
89.65
 10
120.45
 20
90.95
 10
123.35
 20
90.95
 10
123.35
 20
89.65
  0
LWPOLYLINE
  5
CC
100
AcDbEntity
  8
ASSEMBLY_OUTLINES_TOP
100
AcDbPolyline
 90
        4
 70
         1
 10
110.53
 20
89.83
 10
110.53
 20
92.37
 10
115.61
 20
92.37
 10
115.61
 20
89.83
  0
LWPOLYLINE
  5
CD
100
AcDbEntity
  8
ASSEMBLY_OUTLINES_TOP
100
AcDbPolyline
 90
        4
 70
         1
 43
0.1
 10
94.65
 20
89.3
 10
94.65
 20
92.1
 10
95.95
 20
92.1
 10
95.95
 20
89.3
  0
LWPOLYLINE
  5
CE
100
AcDbEntity
  8
ASSEMBLY_OUTLINES_TOP
100
AcDbPolyline
 90
        4
 70
         1
 43
0.1
 10
111.9
 20
78.65
 10
111.9
 20
79.95
 10
114.7
 20
79.95
 10
114.7
 20
78.65
  0
LWPOLYLINE
  5
CF
100
AcDbEntity
  8
ASSEMBLY_OUTLINES_TOP
100
AcDbPolyline
 90
        4
 70
         1
 43
0.1
 10
100.65
 20
13.6
 10
100.65
 20
16.4
 10
101.95
 20
16.4
 10
101.95
 20
13.6
  0
LWPOLYLINE
  5
D0
100
AcDbEntity
  8
ASSEMBLY_OUTLINES_TOP
100
AcDbPolyline
 90
        4
 70
         1
 43
0.1
 10
101.7
 20
93.15
 10
101.7
 20
94.45
 10
104.5
 20
94.45
 10
104.5
 20
93.15
  0
LWPOLYLINE
  5
D1
100
AcDbEntity
  8
ASSEMBLY_OUTLINES_TOP
100
AcDbPolyline
 90
        4
 70
         1
 43
0.1
 10
104.35
 20
43.55
 10
104.35
 20
46.45
 10
105.65
 20
46.45
 10
105.65
 20
43.55
  0
LWPOLYLINE
  5
D2
100
AcDbEntity
  8
ASSEMBLY_OUTLINES_TOP
100
AcDbPolyline
 90
        4
 70
         1
 43
0.1
 10
113.55
 20
52.2
 10
113.55
 20
55.0
 10
114.85
 20
55.0
 10
114.85
 20
52.2
  0
LWPOLYLINE
  5
D3
100
AcDbEntity
  8
ASSEMBLY_OUTLINES_TOP
100
AcDbPolyline
 90
        4
 70
         1
 43
0.1
 10
96.25
 20
83.0
 10
96.25
 20
85.8
 10
97.55
 20
85.8
 10
97.55
 20
83.0
  0
LWPOLYLINE
  5
D4
100
AcDbEntity
  8
ASSEMBLY_OUTLINES_TOP
100
AcDbPolyline
 90
        4
 70
         1
 43
0.1
 10
112.85
 20
63.45
 10
112.85
 20
64.75
 10
115.75
 20
64.75
 10
115.75
 20
63.45
  0
LWPOLYLINE
  5
D5
100
AcDbEntity
  8
ASSEMBLY_OUTLINES_TOP
100
AcDbPolyline
 90
        4
 70
         1
 43
0.1
 10
100.4
 20
44.85
 10
100.4
 20
46.15
 10
103.2
 20
46.15
 10
103.2
 20
44.85
  0
LWPOLYLINE
  5
D6
100
AcDbEntity
  8
ASSEMBLY_OUTLINES_TOP
100
AcDbPolyline
 90
        4
 70
         1
 43
0.1
 10
105.45
 20
92.05
 10
105.45
 20
93.35
 10
108.35
 20
93.35
 10
108.35
 20
92.05
  0
LWPOLYLINE
  5
D7
100
AcDbEntity
  8
ASSEMBLY_OUTLINES_TOP
100
AcDbPolyline
 90
        4
 70
         1
 43
0.1
 10
110.7
 20
81.7
 10
110.7
 20
85.7
 10
115.7
 20
85.7
 10
115.7
 20
81.7
  0
LWPOLYLINE
  5
D8
100
AcDbEntity
  8
ASSEMBLY_OUTLINES_TOP
100
AcDbPolyline
 90
        2
 70
         1
 43
0.1
 10
111.2
 20
82.7
 42
-1.0
 10
112.2
 20
82.7
 42
-1.0
  0
LWPOLYLINE
  5
D9
100
AcDbEntity
  8
ASSEMBLY_OUTLINES_TOP
100
AcDbPolyline
 90
        4
 70
         1
 43
0.1
 10
90.5
 20
51.4
 10
90.5
 20
71.4
 10
110.5
 20
71.4
 10
110.5
 20
51.4
  0
LWPOLYLINE
  5
DA
100
AcDbEntity
  8
ASSEMBLY_OUTLINES_TOP
100
AcDbPolyline
 90
        2
 70
         1
 43
0.1
 10
109.0
 20
52.4
 42
-1.0
 10
110.0
 20
52.4
 42
-1.0
  0
LWPOLYLINE
  5
DB
100
AcDbEntity
  8
ASSEMBLY_OUTLINES_TOP
100
AcDbPolyline
 90
        4
 70
         1
 43
0.1
 10
110.55
 20
72.0
 10
110.55
 20
74.8
 10
111.85
 20
74.8
 10
111.85
 20
72.0
  0
LWPOLYLINE
  5
DC
100
AcDbEntity
  8
ASSEMBLY_OUTLINES_TOP
100
AcDbPolyline
 90
        4
 70
         1
 43
0.1
 10
105.45
 20
90.35
 10
105.45
 20
91.65
 10
108.35
 20
91.65
 10
108.35
 20
90.35
  0
CIRCLE
  5
DD
100
AcDbEntity
  8
ASSEMBLY_OUTLINES_TOP
100
AcDbCircle
 10
99.5
 20
44.799998
 30
0.0
 40
2.0
  0
LWPOLYLINE
  5
DE
100
AcDbEntity
  8
ASSEMBLY_OUTLINES_TOP
100
AcDbPolyline
 90
        4
 70
         1
 43
0.1
 10
103.65
 20
13.35
 10
103.65
 20
16.25
 10
104.95
 20
16.25
 10
104.95
 20
13.35
  0
LWPOLYLINE
  5
DF
100
AcDbEntity
  8
ASSEMBLY_OUTLINES_TOP
100
AcDbPolyline
 90
        4
 70
         1
 10
122.23
 20
71.53
 10
122.23
 20
74.07
 10
127.31
 20
74.07
 10
127.31
 20
71.53
  0
LWPOLYLINE
  5
E0
100
AcDbEntity
  8
ASSEMBLY_OUTLINES_TOP
100
AcDbPolyline
 90
        4
 70
         1
 43
0.1
 10
108.45
 20
11.95
 10
108.45
 20
14.85
 10
109.75
 20
14.85
 10
109.75
 20
11.95
  0
LWPOLYLINE
  5
E1
100
AcDbEntity
  8
ASSEMBLY_OUTLINES_TOP
100
AcDbPolyline
 90
        4
 70
         1
 43
0.1
 10
118.45
 20
97.55
 10
118.45
 20
98.85
 10
121.35
 20
98.85
 10
121.35
 20
97.55
  0
LWPOLYLINE
  5
E2
100
AcDbEntity
  8
ASSEMBLY_OUTLINES_TOP
100
AcDbPolyline
 90
        4
 70
         1
 43
0.1
 10
105.15
 20
13.35
 10
105.15
 20
16.25
 10
106.45
 20
16.25
 10
106.45
 20
13.35
  0
LWPOLYLINE
  5
E3
100
AcDbEntity
  8
ASSEMBLY_OUTLINES_TOP
100
AcDbPolyline
 90
        4
 70
         1
 43
0.1
 10
109.05
 20
81.75
 10
109.05
 20
84.65
 10
110.35
 20
84.65
 10
110.35
 20
81.75
  0
LWPOLYLINE
  5
E4
100
AcDbEntity
  8
ASSEMBLY_OUTLINES_TOP
100
AcDbPolyline
 90
        4
 70
         1
 43
0.1
 10
100.4
 20
43.45
 10
100.4
 20
44.75
 10
103.2
 20
44.75
 10
103.2
 20
43.45
  0
LWPOLYLINE
  5
E5
100
AcDbEntity
  8
ASSEMBLY_OUTLINES_TOP
100
AcDbPolyline
 90
        4
 70
         1
 43
0.1
 10
107.55
 20
6.25
 10
107.55
 20
9.15
 10
108.85
 20
9.15
 10
108.85
 20
6.25
  0
LWPOLYLINE
  5
E6
100
AcDbEntity
  8
ASSEMBLY_OUTLINES_TOP
100
AcDbPolyline
 90
        4
 70
         1
 43
0.1
 10
117.35
 20
82.55
 10
117.35
 20
85.45
 10
118.65
 20
85.45
 10
118.65
 20
82.55
  0
LWPOLYLINE
  5
E7
100
AcDbEntity
  8
ASSEMBLY_OUTLINES_TOP
100
AcDbPolyline
 90
        4
 70
         1
 43
0.1
 10
102.15
 20
13.35
 10
102.15
 20
16.25
 10
103.45
 20
16.25
 10
103.45
 20
13.35
  0
LWPOLYLINE
  5
E8
100
AcDbEntity
  8
ASSEMBLY_OUTLINES_TOP
100
AcDbPolyline
 90
        4
 70
         1
 10
125.148995
 20
90.551663
 10
125.148995
 20
103.951663
 10
137.248995
 20
103.951663
 10
137.248995
 20
90.551663
  0
LWPOLYLINE
  5
E9
100
AcDbEntity
  8
ASSEMBLY_OUTLINES_TOP
100
AcDbPolyline
 90
        4
 70
         1
 10
137.248995
 20
91.251663
 10
137.248995
 20
102.251663
 10
144.248995
 20
102.251663
 10
144.248995
 20
91.251663
  0
LWPOLYLINE
  5
EA
100
AcDbEntity
  8
ASSEMBLY_OUTLINES_TOP
100
AcDbPolyline
 90
        4
 70
         1
 10
106.75
 20
23.5
 10
106.75
 20
28.5
 10
113.05
 20
28.5
 10
113.05
 20
23.5
  0
LWPOLYLINE
  5
EB
100
AcDbEntity
  8
ASSEMBLY_OUTLINES_TOP
100
AcDbPolyline
 90
        4
 70
         1
 10
124.34
 20
105.2
 10
124.34
 20
114.2
 10
138.84
 20
114.2
 10
138.84
 20
105.2
  0
LWPOLYLINE
  5
EC
100
AcDbEntity
  8
ASSEMBLY_OUTLINES_TOP
100
AcDbPolyline
 90
        4
 70
         1
 10
76.37
 20
57.16
 10
76.37
 20
62.24
 10
82.37
 20
62.24
 10
82.37
 20
57.16
  0
LWPOLYLINE
  5
ED
100
AcDbEntity
  8
ASSEMBLY_OUTLINES_TOP
100
AcDbPolyline
 90
        4
 70
         1
 43
0.1
 10
120.15
 20
59.55
 10
120.15
 20
62.45
 10
121.45
 20
62.45
 10
121.45
 20
59.55
  0
LWPOLYLINE
  5
EE
100
AcDbEntity
  8
ASSEMBLY_OUTLINES_TOP
100
AcDbPolyline
 90
        4
 70
         1
 43
0.1
 10
106.05
 20
7.05
 10
106.05
 20
9.95
 10
107.35
 20
9.95
 10
107.35
 20
7.05
  0
LWPOLYLINE
  5
EF
100
AcDbEntity
  8
ASSEMBLY_OUTLINES_TOP
100
AcDbPolyline
 90
        4
 70
         1
 43
0.1
 10
103.0
 20
5.85
 10
103.0
 20
7.15
 10
105.8
 20
7.15
 10
105.8
 20
5.85
  0
LWPOLYLINE
  5
F0
100
AcDbEntity
  8
ASSEMBLY_OUTLINES_TOP
100
AcDbPolyline
 90
        4
 70
         1
 43
0.1
 10
82.6
 20
58.25
 10
82.6
 20
61.95
 10
85.6
 20
61.95
 10
85.6
 20
58.25
  0
LWPOLYLINE
  5
F1
100
AcDbEntity
  8
ASSEMBLY_OUTLINES_TOP
100
AcDbPolyline
 90
        2
 70
         0
 43
0.1
 10
82.6
 20
61.85
 10
85.6
 20
61.85
  0
LWPOLYLINE
  5
F2
100
AcDbEntity
  8
ASSEMBLY_OUTLINES_TOP
100
AcDbPolyline
 90
        2
 70
         0
 43
0.1
 10
82.6
 20
61.75
 10
85.6
 20
61.75
  0
LWPOLYLINE
  5
F3
100
AcDbEntity
  8
ASSEMBLY_OUTLINES_TOP
100
AcDbPolyline
 90
        2
 70
         0
 43
0.1
 10
82.6
 20
61.65
 10
85.6
 20
61.65
  0
LWPOLYLINE
  5
F4
100
AcDbEntity
  8
ASSEMBLY_OUTLINES_TOP
100
AcDbPolyline
 90
        2
 70
         0
 43
0.1
 10
82.6
 20
61.55
 10
85.6
 20
61.55
  0
LWPOLYLINE
  5
F5
100
AcDbEntity
  8
ASSEMBLY_OUTLINES_TOP
100
AcDbPolyline
 90
        2
 70
         0
 43
0.1
 10
82.6
 20
61.45
 10
85.6
 20
61.45
  0
LWPOLYLINE
  5
F6
100
AcDbEntity
  8
ASSEMBLY_OUTLINES_TOP
100
AcDbPolyline
 90
        2
 70
         0
 43
0.1
 10
82.6
 20
61.35
 10
85.6
 20
61.35
  0
LWPOLYLINE
  5
F7
100
AcDbEntity
  8
ASSEMBLY_OUTLINES_TOP
100
AcDbPolyline
 90
        2
 70
         0
 43
0.1
 10
82.6
 20
61.25
 10
85.6
 20
61.25
  0
LWPOLYLINE
  5
F8
100
AcDbEntity
  8
ASSEMBLY_OUTLINES_TOP
100
AcDbPolyline
 90
        2
 70
         0
 43
0.1
 10
82.6
 20
61.15
 10
85.6
 20
61.15
  0
LWPOLYLINE
  5
F9
100
AcDbEntity
  8
ASSEMBLY_OUTLINES_TOP
100
AcDbPolyline
 90
        4
 70
         1
 43
0.1
 10
105.85
 20
74.5
 10
105.85
 20
76.3
 10
109.15
 20
76.3
 10
109.15
 20
74.5
  0
LWPOLYLINE
  5
FA
100
AcDbEntity
  8
ASSEMBLY_OUTLINES_TOP
100
AcDbPolyline
 90
        4
 70
         1
 43
0.1
 10
109.05
 20
17.35
 10
109.05
 20
20.25
 10
110.35
 20
20.25
 10
110.35
 20
17.35
  0
LWPOLYLINE
  5
FB
100
AcDbEntity
  8
ASSEMBLY_OUTLINES_TOP
100
AcDbPolyline
 90
        4
 70
         1
 43
0.1
 10
97.2
 20
31.1
 10
97.2
 20
36.5
 10
102.6
 20
36.5
 10
102.6
 20
31.1
  0
LWPOLYLINE
  5
FC
100
AcDbEntity
  8
ASSEMBLY_OUTLINES_TOP
100
AcDbPolyline
 90
        2
 70
         1
 43
0.1
 10
101.1
 20
35.5
 42
-1.0
 10
102.1
 20
35.5
 42
-1.0
  0
LWPOLYLINE
  5
FD
100
AcDbEntity
  8
ASSEMBLY_OUTLINES_TOP
100
AcDbPolyline
 90
        4
 70
         1
 10
78.445
 20
2.7
 10
78.445
 20
53.5
 10
83.525
 20
53.5
 10
83.525
 20
2.7
  0
CIRCLE
  5
FE
100
AcDbEntity
  8
ASSEMBLY_OUTLINES_TOP
100
AcDbCircle
 10
82.26544
 20
3.968225
 30
0.0
 40
0.45
  0
HATCH
  5
FF
100
AcDbEntity
  8
ASSEMBLY_OUTLINES_TOP
100
AcDbHatch
 10
0.0
 20
0.0
 30
0.0
210
0.0
220
0.0
230
1.0
  2
SOLID
 70
         1
 71
         1
 91
        1
 92
        1
 93
        1
 72
         2
 10
82.265439999999998
 20
3.9682249999999999
 40
0.45
 50
0.0
 51
360.0
 73
         1
 97
        1
330
FE
 75
         0
 76
         1
 98
        1
 10
0.0
 20
0.0
  0
CIRCLE
  5
100
100
AcDbEntity
  8
ASSEMBLY_OUTLINES_TOP
100
AcDbCircle
 10
82.26544
 20
6.508225
 30
0.0
 40
0.45
  0
HATCH
  5
101
100
AcDbEntity
  8
ASSEMBLY_OUTLINES_TOP
100
AcDbHatch
 10
0.0
 20
0.0
 30
0.0
210
0.0
220
0.0
230
1.0
  2
SOLID
 70
         1
 71
         1
 91
        1
 92
        1
 93
        1
 72
         2
 10
82.265439999999998
 20
6.5082250000000004
 40
0.45
 50
0.0
 51
360.0
 73
         1
 97
        1
330
100
 75
         0
 76
         1
 98
        1
 10
0.0
 20
0.0
  0
CIRCLE
  5
102
100
AcDbEntity
  8
ASSEMBLY_OUTLINES_TOP
100
AcDbCircle
 10
82.26544
 20
9.048225
 30
0.0
 40
0.45
  0
HATCH
  5
103
100
AcDbEntity
  8
ASSEMBLY_OUTLINES_TOP
100
AcDbHatch
 10
0.0
 20
0.0
 30
0.0
210
0.0
220
0.0
230
1.0
  2
SOLID
 70
         1
 71
         1
 91
        1
 92
        1
 93
        1
 72
         2
 10
82.265439999999998
 20
9.0482250000000004
 40
0.45
 50
0.0
 51
360.0
 73
         1
 97
        1
330
102
 75
         0
 76
         1
 98
        1
 10
0.0
 20
0.0
  0
CIRCLE
  5
104
100
AcDbEntity
  8
ASSEMBLY_OUTLINES_TOP
100
AcDbCircle
 10
82.26544
 20
11.588225
 30
0.0
 40
0.45
  0
HATCH
  5
105
100
AcDbEntity
  8
ASSEMBLY_OUTLINES_TOP
100
AcDbHatch
 10
0.0
 20
0.0
 30
0.0
210
0.0
220
0.0
230
1.0
  2
SOLID
 70
         1
 71
         1
 91
        1
 92
        1
 93
        1
 72
         2
 10
82.265439999999998
 20
11.588225
 40
0.45
 50
0.0
 51
360.0
 73
         1
 97
        1
330
104
 75
         0
 76
         1
 98
        1
 10
0.0
 20
0.0
  0
CIRCLE
  5
106
100
AcDbEntity
  8
ASSEMBLY_OUTLINES_TOP
100
AcDbCircle
 10
82.26544
 20
14.128225
 30
0.0
 40
0.45
  0
HATCH
  5
107
100
AcDbEntity
  8
ASSEMBLY_OUTLINES_TOP
100
AcDbHatch
 10
0.0
 20
0.0
 30
0.0
210
0.0
220
0.0
230
1.0
  2
SOLID
 70
         1
 71
         1
 91
        1
 92
        1
 93
        1
 72
         2
 10
82.265439999999998
 20
14.128225
 40
0.45
 50
0.0
 51
360.0
 73
         1
 97
        1
330
106
 75
         0
 76
         1
 98
        1
 10
0.0
 20
0.0
  0
CIRCLE
  5
108
100
AcDbEntity
  8
ASSEMBLY_OUTLINES_TOP
100
AcDbCircle
 10
82.26544
 20
16.668225
 30
0.0
 40
0.45
  0
HATCH
  5
109
100
AcDbEntity
  8
ASSEMBLY_OUTLINES_TOP
100
AcDbHatch
 10
0.0
 20
0.0
 30
0.0
210
0.0
220
0.0
230
1.0
  2
SOLID
 70
         1
 71
         1
 91
        1
 92
        1
 93
        1
 72
         2
 10
82.265439999999998
 20
16.668225
 40
0.45
 50
0.0
 51
360.0
 73
         1
 97
        1
330
108
 75
         0
 76
         1
 98
        1
 10
0.0
 20
0.0
  0
CIRCLE
  5
10A
100
AcDbEntity
  8
ASSEMBLY_OUTLINES_TOP
100
AcDbCircle
 10
82.26544
 20
19.208225
 30
0.0
 40
0.45
  0
HATCH
  5
10B
100
AcDbEntity
  8
ASSEMBLY_OUTLINES_TOP
100
AcDbHatch
 10
0.0
 20
0.0
 30
0.0
210
0.0
220
0.0
230
1.0
  2
SOLID
 70
         1
 71
         1
 91
        1
 92
        1
 93
        1
 72
         2
 10
82.265439999999998
 20
19.208224999999999
 40
0.45
 50
0.0
 51
360.0
 73
         1
 97
        1
330
10A
 75
         0
 76
         1
 98
        1
 10
0.0
 20
0.0
  0
CIRCLE
  5
10C
100
AcDbEntity
  8
ASSEMBLY_OUTLINES_TOP
100
AcDbCircle
 10
82.26544
 20
21.748225
 30
0.0
 40
0.45
  0
HATCH
  5
10D
100
AcDbEntity
  8
ASSEMBLY_OUTLINES_TOP
100
AcDbHatch
 10
0.0
 20
0.0
 30
0.0
210
0.0
220
0.0
230
1.0
  2
SOLID
 70
         1
 71
         1
 91
        1
 92
        1
 93
        1
 72
         2
 10
82.265439999999998
 20
21.748225000000001
 40
0.45
 50
0.0
 51
360.0
 73
         1
 97
        1
330
10C
 75
         0
 76
         1
 98
        1
 10
0.0
 20
0.0
  0
CIRCLE
  5
10E
100
AcDbEntity
  8
ASSEMBLY_OUTLINES_TOP
100
AcDbCircle
 10
82.26544
 20
24.288225
 30
0.0
 40
0.45
  0
HATCH
  5
10F
100
AcDbEntity
  8
ASSEMBLY_OUTLINES_TOP
100
AcDbHatch
 10
0.0
 20
0.0
 30
0.0
210
0.0
220
0.0
230
1.0
  2
SOLID
 70
         1
 71
         1
 91
        1
 92
        1
 93
        1
 72
         2
 10
82.265439999999998
 20
24.288225000000001
 40
0.45
 50
0.0
 51
360.0
 73
         1
 97
        1
330
10E
 75
         0
 76
         1
 98
        1
 10
0.0
 20
0.0
  0
CIRCLE
  5
110
100
AcDbEntity
  8
ASSEMBLY_OUTLINES_TOP
100
AcDbCircle
 10
82.26544
 20
26.828225
 30
0.0
 40
0.45
  0
HATCH
  5
111
100
AcDbEntity
  8
ASSEMBLY_OUTLINES_TOP
100
AcDbHatch
 10
0.0
 20
0.0
 30
0.0
210
0.0
220
0.0
230
1.0
  2
SOLID
 70
         1
 71
         1
 91
        1
 92
        1
 93
        1
 72
         2
 10
82.265439999999998
 20
26.828225
 40
0.45
 50
0.0
 51
360.0
 73
         1
 97
        1
330
110
 75
         0
 76
         1
 98
        1
 10
0.0
 20
0.0
  0
CIRCLE
  5
112
100
AcDbEntity
  8
ASSEMBLY_OUTLINES_TOP
100
AcDbCircle
 10
82.27456
 20
29.371774
 30
0.0
 40
0.45
  0
HATCH
  5
113
100
AcDbEntity
  8
ASSEMBLY_OUTLINES_TOP
100
AcDbHatch
 10
0.0
 20
0.0
 30
0.0
210
0.0
220
0.0
230
1.0
  2
SOLID
 70
         1
 71
         1
 91
        1
 92
        1
 93
        1
 72
         2
 10
82.274559999999994
 20
29.371773999999998
 40
0.45
 50
0.0
 51
360.0
 73
         1
 97
        1
330
112
 75
         0
 76
         1
 98
        1
 10
0.0
 20
0.0
  0
CIRCLE
  5
114
100
AcDbEntity
  8
ASSEMBLY_OUTLINES_TOP
100
AcDbCircle
 10
82.27456
 20
31.911774
 30
0.0
 40
0.45
  0
HATCH
  5
115
100
AcDbEntity
  8
ASSEMBLY_OUTLINES_TOP
100
AcDbHatch
 10
0.0
 20
0.0
 30
0.0
210
0.0
220
0.0
230
1.0
  2
SOLID
 70
         1
 71
         1
 91
        1
 92
        1
 93
        1
 72
         2
 10
82.274559999999994
 20
31.911774000000001
 40
0.45
 50
0.0
 51
360.0
 73
         1
 97
        1
330
114
 75
         0
 76
         1
 98
        1
 10
0.0
 20
0.0
  0
CIRCLE
  5
116
100
AcDbEntity
  8
ASSEMBLY_OUTLINES_TOP
100
AcDbCircle
 10
82.27456
 20
34.451774
 30
0.0
 40
0.45
  0
HATCH
  5
117
100
AcDbEntity
  8
ASSEMBLY_OUTLINES_TOP
100
AcDbHatch
 10
0.0
 20
0.0
 30
0.0
210
0.0
220
0.0
230
1.0
  2
SOLID
 70
         1
 71
         1
 91
        1
 92
        1
 93
        1
 72
         2
 10
82.274559999999994
 20
34.451774
 40
0.45
 50
0.0
 51
360.0
 73
         1
 97
        1
330
116
 75
         0
 76
         1
 98
        1
 10
0.0
 20
0.0
  0
CIRCLE
  5
118
100
AcDbEntity
  8
ASSEMBLY_OUTLINES_TOP
100
AcDbCircle
 10
82.27456
 20
36.991774
 30
0.0
 40
0.45
  0
HATCH
  5
119
100
AcDbEntity
  8
ASSEMBLY_OUTLINES_TOP
100
AcDbHatch
 10
0.0
 20
0.0
 30
0.0
210
0.0
220
0.0
230
1.0
  2
SOLID
 70
         1
 71
         1
 91
        1
 92
        1
 93
        1
 72
         2
 10
82.274559999999994
 20
36.991773999999999
 40
0.45
 50
0.0
 51
360.0
 73
         1
 97
        1
330
118
 75
         0
 76
         1
 98
        1
 10
0.0
 20
0.0
  0
CIRCLE
  5
11A
100
AcDbEntity
  8
ASSEMBLY_OUTLINES_TOP
100
AcDbCircle
 10
82.27456
 20
39.531774
 30
0.0
 40
0.45
  0
HATCH
  5
11B
100
AcDbEntity
  8
ASSEMBLY_OUTLINES_TOP
100
AcDbHatch
 10
0.0
 20
0.0
 30
0.0
210
0.0
220
0.0
230
1.0
  2
SOLID
 70
         1
 71
         1
 91
        1
 92
        1
 93
        1
 72
         2
 10
82.274559999999994
 20
39.531773999999999
 40
0.45
 50
0.0
 51
360.0
 73
         1
 97
        1
330
11A
 75
         0
 76
         1
 98
        1
 10
0.0
 20
0.0
  0
CIRCLE
  5
11C
100
AcDbEntity
  8
ASSEMBLY_OUTLINES_TOP
100
AcDbCircle
 10
82.27456
 20
42.071774
 30
0.0
 40
0.45
  0
HATCH
  5
11D
100
AcDbEntity
  8
ASSEMBLY_OUTLINES_TOP
100
AcDbHatch
 10
0.0
 20
0.0
 30
0.0
210
0.0
220
0.0
230
1.0
  2
SOLID
 70
         1
 71
         1
 91
        1
 92
        1
 93
        1
 72
         2
 10
82.274559999999994
 20
42.071773999999998
 40
0.45
 50
0.0
 51
360.0
 73
         1
 97
        1
330
11C
 75
         0
 76
         1
 98
        1
 10
0.0
 20
0.0
  0
CIRCLE
  5
11E
100
AcDbEntity
  8
ASSEMBLY_OUTLINES_TOP
100
AcDbCircle
 10
82.27456
 20
44.611774
 30
0.0
 40
0.45
  0
HATCH
  5
11F
100
AcDbEntity
  8
ASSEMBLY_OUTLINES_TOP
100
AcDbHatch
 10
0.0
 20
0.0
 30
0.0
210
0.0
220
0.0
230
1.0
  2
SOLID
 70
         1
 71
         1
 91
        1
 92
        1
 93
        1
 72
         2
 10
82.274559999999994
 20
44.611773999999997
 40
0.45
 50
0.0
 51
360.0
 73
         1
 97
        1
330
11E
 75
         0
 76
         1
 98
        1
 10
0.0
 20
0.0
  0
CIRCLE
  5
120
100
AcDbEntity
  8
ASSEMBLY_OUTLINES_TOP
100
AcDbCircle
 10
82.27456
 20
47.151774
 30
0.0
 40
0.45
  0
HATCH
  5
121
100
AcDbEntity
  8
ASSEMBLY_OUTLINES_TOP
100
AcDbHatch
 10
0.0
 20
0.0
 30
0.0
210
0.0
220
0.0
230
1.0
  2
SOLID
 70
         1
 71
         1
 91
        1
 92
        1
 93
        1
 72
         2
 10
82.274559999999994
 20
47.151774000000003
 40
0.45
 50
0.0
 51
360.0
 73
         1
 97
        1
330
120
 75
         0
 76
         1
 98
        1
 10
0.0
 20
0.0
  0
CIRCLE
  5
122
100
AcDbEntity
  8
ASSEMBLY_OUTLINES_TOP
100
AcDbCircle
 10
82.27456
 20
49.691774
 30
0.0
 40
0.45
  0
HATCH
  5
123
100
AcDbEntity
  8
ASSEMBLY_OUTLINES_TOP
100
AcDbHatch
 10
0.0
 20
0.0
 30
0.0
210
0.0
220
0.0
230
1.0
  2
SOLID
 70
         1
 71
         1
 91
        1
 92
        1
 93
        1
 72
         2
 10
82.274559999999994
 20
49.691774000000002
 40
0.45
 50
0.0
 51
360.0
 73
         1
 97
        1
330
122
 75
         0
 76
         1
 98
        1
 10
0.0
 20
0.0
  0
CIRCLE
  5
124
100
AcDbEntity
  8
ASSEMBLY_OUTLINES_TOP
100
AcDbCircle
 10
82.27456
 20
52.231774
 30
0.0
 40
0.45
  0
HATCH
  5
125
100
AcDbEntity
  8
ASSEMBLY_OUTLINES_TOP
100
AcDbHatch
 10
0.0
 20
0.0
 30
0.0
210
0.0
220
0.0
230
1.0
  2
SOLID
 70
         1
 71
         1
 91
        1
 92
        1
 93
        1
 72
         2
 10
82.274559999999994
 20
52.231774000000001
 40
0.45
 50
0.0
 51
360.0
 73
         1
 97
        1
330
124
 75
         0
 76
         1
 98
        1
 10
0.0
 20
0.0
  0
CIRCLE
  5
126
100
AcDbEntity
  8
ASSEMBLY_OUTLINES_TOP
100
AcDbCircle
 10
79.73
 20
3.97
 30
0.0
 40
0.45
  0
HATCH
  5
127
100
AcDbEntity
  8
ASSEMBLY_OUTLINES_TOP
100
AcDbHatch
 10
0.0
 20
0.0
 30
0.0
210
0.0
220
0.0
230
1.0
  2
SOLID
 70
         1
 71
         1
 91
        1
 92
        1
 93
        1
 72
         2
 10
79.730000000000004
 20
3.9700000000000002
 40
0.45
 50
0.0
 51
360.0
 73
         1
 97
        1
330
126
 75
         0
 76
         1
 98
        1
 10
0.0
 20
0.0
  0
CIRCLE
  5
128
100
AcDbEntity
  8
ASSEMBLY_OUTLINES_TOP
100
AcDbCircle
 10
79.73
 20
6.51
 30
0.0
 40
0.45
  0
HATCH
  5
129
100
AcDbEntity
  8
ASSEMBLY_OUTLINES_TOP
100
AcDbHatch
 10
0.0
 20
0.0
 30
0.0
210
0.0
220
0.0
230
1.0
  2
SOLID
 70
         1
 71
         1
 91
        1
 92
        1
 93
        1
 72
         2
 10
79.730000000000004
 20
6.5099999999999998
 40
0.45
 50
0.0
 51
360.0
 73
         1
 97
        1
330
128
 75
         0
 76
         1
 98
        1
 10
0.0
 20
0.0
  0
CIRCLE
  5
12A
100
AcDbEntity
  8
ASSEMBLY_OUTLINES_TOP
100
AcDbCircle
 10
79.73
 20
9.05
 30
0.0
 40
0.45
  0
HATCH
  5
12B
100
AcDbEntity
  8
ASSEMBLY_OUTLINES_TOP
100
AcDbHatch
 10
0.0
 20
0.0
 30
0.0
210
0.0
220
0.0
230
1.0
  2
SOLID
 70
         1
 71
         1
 91
        1
 92
        1
 93
        1
 72
         2
 10
79.730000000000004
 20
9.0500000000000007
 40
0.45
 50
0.0
 51
360.0
 73
         1
 97
        1
330
12A
 75
         0
 76
         1
 98
        1
 10
0.0
 20
0.0
  0
CIRCLE
  5
12C
100
AcDbEntity
  8
ASSEMBLY_OUTLINES_TOP
100
AcDbCircle
 10
79.73
 20
11.59
 30
0.0
 40
0.45
  0
HATCH
  5
12D
100
AcDbEntity
  8
ASSEMBLY_OUTLINES_TOP
100
AcDbHatch
 10
0.0
 20
0.0
 30
0.0
210
0.0
220
0.0
230
1.0
  2
SOLID
 70
         1
 71
         1
 91
        1
 92
        1
 93
        1
 72
         2
 10
79.730000000000004
 20
11.59
 40
0.45
 50
0.0
 51
360.0
 73
         1
 97
        1
330
12C
 75
         0
 76
         1
 98
        1
 10
0.0
 20
0.0
  0
CIRCLE
  5
12E
100
AcDbEntity
  8
ASSEMBLY_OUTLINES_TOP
100
AcDbCircle
 10
79.73
 20
14.13
 30
0.0
 40
0.45
  0
HATCH
  5
12F
100
AcDbEntity
  8
ASSEMBLY_OUTLINES_TOP
100
AcDbHatch
 10
0.0
 20
0.0
 30
0.0
210
0.0
220
0.0
230
1.0
  2
SOLID
 70
         1
 71
         1
 91
        1
 92
        1
 93
        1
 72
         2
 10
79.730000000000004
 20
14.130000000000001
 40
0.45
 50
0.0
 51
360.0
 73
         1
 97
        1
330
12E
 75
         0
 76
         1
 98
        1
 10
0.0
 20
0.0
  0
CIRCLE
  5
130
100
AcDbEntity
  8
ASSEMBLY_OUTLINES_TOP
100
AcDbCircle
 10
79.73
 20
16.67
 30
0.0
 40
0.45
  0
HATCH
  5
131
100
AcDbEntity
  8
ASSEMBLY_OUTLINES_TOP
100
AcDbHatch
 10
0.0
 20
0.0
 30
0.0
210
0.0
220
0.0
230
1.0
  2
SOLID
 70
         1
 71
         1
 91
        1
 92
        1
 93
        1
 72
         2
 10
79.730000000000004
 20
16.670000000000002
 40
0.45
 50
0.0
 51
360.0
 73
         1
 97
        1
330
130
 75
         0
 76
         1
 98
        1
 10
0.0
 20
0.0
  0
CIRCLE
  5
132
100
AcDbEntity
  8
ASSEMBLY_OUTLINES_TOP
100
AcDbCircle
 10
79.73
 20
19.21
 30
0.0
 40
0.45
  0
HATCH
  5
133
100
AcDbEntity
  8
ASSEMBLY_OUTLINES_TOP
100
AcDbHatch
 10
0.0
 20
0.0
 30
0.0
210
0.0
220
0.0
230
1.0
  2
SOLID
 70
         1
 71
         1
 91
        1
 92
        1
 93
        1
 72
         2
 10
79.730000000000004
 20
19.210000000000001
 40
0.45
 50
0.0
 51
360.0
 73
         1
 97
        1
330
132
 75
         0
 76
         1
 98
        1
 10
0.0
 20
0.0
  0
CIRCLE
  5
134
100
AcDbEntity
  8
ASSEMBLY_OUTLINES_TOP
100
AcDbCircle
 10
79.73
 20
21.75
 30
0.0
 40
0.45
  0
HATCH
  5
135
100
AcDbEntity
  8
ASSEMBLY_OUTLINES_TOP
100
AcDbHatch
 10
0.0
 20
0.0
 30
0.0
210
0.0
220
0.0
230
1.0
  2
SOLID
 70
         1
 71
         1
 91
        1
 92
        1
 93
        1
 72
         2
 10
79.730000000000004
 20
21.75
 40
0.45
 50
0.0
 51
360.0
 73
         1
 97
        1
330
134
 75
         0
 76
         1
 98
        1
 10
0.0
 20
0.0
  0
CIRCLE
  5
136
100
AcDbEntity
  8
ASSEMBLY_OUTLINES_TOP
100
AcDbCircle
 10
79.73
 20
24.29
 30
0.0
 40
0.45
  0
HATCH
  5
137
100
AcDbEntity
  8
ASSEMBLY_OUTLINES_TOP
100
AcDbHatch
 10
0.0
 20
0.0
 30
0.0
210
0.0
220
0.0
230
1.0
  2
SOLID
 70
         1
 71
         1
 91
        1
 92
        1
 93
        1
 72
         2
 10
79.730000000000004
 20
24.289999999999999
 40
0.45
 50
0.0
 51
360.0
 73
         1
 97
        1
330
136
 75
         0
 76
         1
 98
        1
 10
0.0
 20
0.0
  0
CIRCLE
  5
138
100
AcDbEntity
  8
ASSEMBLY_OUTLINES_TOP
100
AcDbCircle
 10
79.73
 20
26.83
 30
0.0
 40
0.45
  0
HATCH
  5
139
100
AcDbEntity
  8
ASSEMBLY_OUTLINES_TOP
100
AcDbHatch
 10
0.0
 20
0.0
 30
0.0
210
0.0
220
0.0
230
1.0
  2
SOLID
 70
         1
 71
         1
 91
        1
 92
        1
 93
        1
 72
         2
 10
79.730000000000004
 20
26.829999999999998
 40
0.45
 50
0.0
 51
360.0
 73
         1
 97
        1
330
138
 75
         0
 76
         1
 98
        1
 10
0.0
 20
0.0
  0
CIRCLE
  5
13A
100
AcDbEntity
  8
ASSEMBLY_OUTLINES_TOP
100
AcDbCircle
 10
79.72912
 20
29.373549
 30
0.0
 40
0.45
  0
HATCH
  5
13B
100
AcDbEntity
  8
ASSEMBLY_OUTLINES_TOP
100
AcDbHatch
 10
0.0
 20
0.0
 30
0.0
210
0.0
220
0.0
230
1.0
  2
SOLID
 70
         1
 71
         1
 91
        1
 92
        1
 93
        1
 72
         2
 10
79.729119999999995
 20
29.373549000000001
 40
0.45
 50
0.0
 51
360.0
 73
         1
 97
        1
330
13A
 75
         0
 76
         1
 98
        1
 10
0.0
 20
0.0
  0
CIRCLE
  5
13C
100
AcDbEntity
  8
ASSEMBLY_OUTLINES_TOP
100
AcDbCircle
 10
79.72912
 20
31.913549
 30
0.0
 40
0.45
  0
HATCH
  5
13D
100
AcDbEntity
  8
ASSEMBLY_OUTLINES_TOP
100
AcDbHatch
 10
0.0
 20
0.0
 30
0.0
210
0.0
220
0.0
230
1.0
  2
SOLID
 70
         1
 71
         1
 91
        1
 92
        1
 93
        1
 72
         2
 10
79.729119999999995
 20
31.913549
 40
0.45
 50
0.0
 51
360.0
 73
         1
 97
        1
330
13C
 75
         0
 76
         1
 98
        1
 10
0.0
 20
0.0
  0
CIRCLE
  5
13E
100
AcDbEntity
  8
ASSEMBLY_OUTLINES_TOP
100
AcDbCircle
 10
79.72912
 20
34.453549
 30
0.0
 40
0.45
  0
HATCH
  5
13F
100
AcDbEntity
  8
ASSEMBLY_OUTLINES_TOP
100
AcDbHatch
 10
0.0
 20
0.0
 30
0.0
210
0.0
220
0.0
230
1.0
  2
SOLID
 70
         1
 71
         1
 91
        1
 92
        1
 93
        1
 72
         2
 10
79.729119999999995
 20
34.453549000000002
 40
0.45
 50
0.0
 51
360.0
 73
         1
 97
        1
330
13E
 75
         0
 76
         1
 98
        1
 10
0.0
 20
0.0
  0
CIRCLE
  5
140
100
AcDbEntity
  8
ASSEMBLY_OUTLINES_TOP
100
AcDbCircle
 10
79.72912
 20
36.993549
 30
0.0
 40
0.45
  0
HATCH
  5
141
100
AcDbEntity
  8
ASSEMBLY_OUTLINES_TOP
100
AcDbHatch
 10
0.0
 20
0.0
 30
0.0
210
0.0
220
0.0
230
1.0
  2
SOLID
 70
         1
 71
         1
 91
        1
 92
        1
 93
        1
 72
         2
 10
79.729119999999995
 20
36.993549000000002
 40
0.45
 50
0.0
 51
360.0
 73
         1
 97
        1
330
140
 75
         0
 76
         1
 98
        1
 10
0.0
 20
0.0
  0
CIRCLE
  5
142
100
AcDbEntity
  8
ASSEMBLY_OUTLINES_TOP
100
AcDbCircle
 10
79.72912
 20
39.533549
 30
0.0
 40
0.45
  0
HATCH
  5
143
100
AcDbEntity
  8
ASSEMBLY_OUTLINES_TOP
100
AcDbHatch
 10
0.0
 20
0.0
 30
0.0
210
0.0
220
0.0
230
1.0
  2
SOLID
 70
         1
 71
         1
 91
        1
 92
        1
 93
        1
 72
         2
 10
79.729119999999995
 20
39.533549000000001
 40
0.45
 50
0.0
 51
360.0
 73
         1
 97
        1
330
142
 75
         0
 76
         1
 98
        1
 10
0.0
 20
0.0
  0
CIRCLE
  5
144
100
AcDbEntity
  8
ASSEMBLY_OUTLINES_TOP
100
AcDbCircle
 10
79.72912
 20
42.073549
 30
0.0
 40
0.45
  0
HATCH
  5
145
100
AcDbEntity
  8
ASSEMBLY_OUTLINES_TOP
100
AcDbHatch
 10
0.0
 20
0.0
 30
0.0
210
0.0
220
0.0
230
1.0
  2
SOLID
 70
         1
 71
         1
 91
        1
 92
        1
 93
        1
 72
         2
 10
79.729119999999995
 20
42.073549
 40
0.45
 50
0.0
 51
360.0
 73
         1
 97
        1
330
144
 75
         0
 76
         1
 98
        1
 10
0.0
 20
0.0
  0
CIRCLE
  5
146
100
AcDbEntity
  8
ASSEMBLY_OUTLINES_TOP
100
AcDbCircle
 10
79.72912
 20
44.613549
 30
0.0
 40
0.45
  0
HATCH
  5
147
100
AcDbEntity
  8
ASSEMBLY_OUTLINES_TOP
100
AcDbHatch
 10
0.0
 20
0.0
 30
0.0
210
0.0
220
0.0
230
1.0
  2
SOLID
 70
         1
 71
         1
 91
        1
 92
        1
 93
        1
 72
         2
 10
79.729119999999995
 20
44.613548999999999
 40
0.45
 50
0.0
 51
360.0
 73
         1
 97
        1
330
146
 75
         0
 76
         1
 98
        1
 10
0.0
 20
0.0
  0
CIRCLE
  5
148
100
AcDbEntity
  8
ASSEMBLY_OUTLINES_TOP
100
AcDbCircle
 10
79.72912
 20
47.153549
 30
0.0
 40
0.45
  0
HATCH
  5
149
100
AcDbEntity
  8
ASSEMBLY_OUTLINES_TOP
100
AcDbHatch
 10
0.0
 20
0.0
 30
0.0
210
0.0
220
0.0
230
1.0
  2
SOLID
 70
         1
 71
         1
 91
        1
 92
        1
 93
        1
 72
         2
 10
79.729119999999995
 20
47.153548999999998
 40
0.45
 50
0.0
 51
360.0
 73
         1
 97
        1
330
148
 75
         0
 76
         1
 98
        1
 10
0.0
 20
0.0
  0
CIRCLE
  5
14A
100
AcDbEntity
  8
ASSEMBLY_OUTLINES_TOP
100
AcDbCircle
 10
79.72912
 20
49.693549
 30
0.0
 40
0.45
  0
HATCH
  5
14B
100
AcDbEntity
  8
ASSEMBLY_OUTLINES_TOP
100
AcDbHatch
 10
0.0
 20
0.0
 30
0.0
210
0.0
220
0.0
230
1.0
  2
SOLID
 70
         1
 71
         1
 91
        1
 92
        1
 93
        1
 72
         2
 10
79.729119999999995
 20
49.693548999999997
 40
0.45
 50
0.0
 51
360.0
 73
         1
 97
        1
330
14A
 75
         0
 76
         1
 98
        1
 10
0.0
 20
0.0
  0
CIRCLE
  5
14C
100
AcDbEntity
  8
ASSEMBLY_OUTLINES_TOP
100
AcDbCircle
 10
79.72912
 20
52.233549
 30
0.0
 40
0.45
  0
HATCH
  5
14D
100
AcDbEntity
  8
ASSEMBLY_OUTLINES_TOP
100
AcDbHatch
 10
0.0
 20
0.0
 30
0.0
210
0.0
220
0.0
230
1.0
  2
SOLID
 70
         1
 71
         1
 91
        1
 92
        1
 93
        1
 72
         2
 10
79.729119999999995
 20
52.233548999999996
 40
0.45
 50
0.0
 51
360.0
 73
         1
 97
        1
330
14C
 75
         0
 76
         1
 98
        1
 10
0.0
 20
0.0
  0
LWPOLYLINE
  5
14E
100
AcDbEntity
  8
ASSEMBLY_OUTLINES_TOP
100
AcDbPolyline
 90
        4
 70
         1
 43
0.1
 10
106.8
 20
15.15
 10
106.8
 20
16.45
 10
109.6
 20
16.45
 10
109.6
 20
15.15
  0
LWPOLYLINE
  5
14F
100
AcDbEntity
  8
ASSEMBLY_OUTLINES_TOP
100
AcDbPolyline
 90
        4
 70
         1
 43
0.1
 10
99.5
 20
82.6
 10
99.5
 20
92.6
 10
103.5
 20
92.6
 10
103.5
 20
82.6
  0
LWPOLYLINE
  5
150
100
AcDbEntity
  8
ASSEMBLY_OUTLINES_TOP
100
AcDbPolyline
 90
        2
 70
         1
 43
0.1
 10
100.0
 20
91.6
 42
-1.0
 10
101.0
 20
91.6
 42
-1.0
  0
LWPOLYLINE
  5
151
100
AcDbEntity
  8
ASSEMBLY_OUTLINES_TOP
100
AcDbPolyline
 90
        4
 70
         1
 43
0.1
 10
95.1
 20
95.0
 10
95.1
 20
96.4
 10
98.1
 20
96.4
 10
98.1
 20
95.0
  0
LWPOLYLINE
  5
152
100
AcDbEntity
  8
ASSEMBLY_OUTLINES_TOP
100
AcDbPolyline
 90
        2
 70
         0
 43
0.1
 10
98.0
 20
96.4
 10
98.1
 20
96.3
  0
LWPOLYLINE
  5
153
100
AcDbEntity
  8
ASSEMBLY_OUTLINES_TOP
100
AcDbPolyline
 90
        2
 70
         0
 43
0.1
 10
97.9
 20
96.4
 10
98.1
 20
96.2
  0
LWPOLYLINE
  5
154
100
AcDbEntity
  8
ASSEMBLY_OUTLINES_TOP
100
AcDbPolyline
 90
        2
 70
         0
 43
0.1
 10
97.8
 20
96.4
 10
98.1
 20
96.1
  0
LWPOLYLINE
  5
155
100
AcDbEntity
  8
ASSEMBLY_OUTLINES_TOP
100
AcDbPolyline
 90
        2
 70
         0
 43
0.1
 10
97.7
 20
96.4
 10
98.1
 20
96.0
  0
LWPOLYLINE
  5
156
100
AcDbEntity
  8
ASSEMBLY_OUTLINES_TOP
100
AcDbPolyline
 90
        2
 70
         0
 43
0.1
 10
97.6
 20
96.4
 10
98.1
 20
95.9
  0
LWPOLYLINE
  5
157
100
AcDbEntity
  8
ASSEMBLY_OUTLINES_TOP
100
AcDbPolyline
 90
        2
 70
         0
 43
0.1
 10
97.5
 20
96.4
 10
98.1
 20
95.8
  0
LWPOLYLINE
  5
158
100
AcDbEntity
  8
ASSEMBLY_OUTLINES_TOP
100
AcDbPolyline
 90
        4
 70
         1
 10
106.75
 20
36.3
 10
106.75
 20
41.3
 10
113.05
 20
41.3
 10
113.05
 20
36.3
  0
LWPOLYLINE
  5
159
100
AcDbEntity
  8
ASSEMBLY_OUTLINES_TOP
100
AcDbPolyline
 90
        4
 70
         1
 43
0.1
 10
107.15
 20
16.75
 10
107.15
 20
19.65
 10
108.45
 20
19.65
 10
108.45
 20
16.75
  0
LWPOLYLINE
  5
15A
100
AcDbEntity
  8
ASSEMBLY_OUTLINES_TOP
100
AcDbPolyline
 90
        4
 70
         1
 43
0.1
 10
109.95
 20
12.75
 10
109.95
 20
15.65
 10
111.25
 20
15.65
 10
111.25
 20
12.75
  0
LWPOLYLINE
  5
15B
100
AcDbEntity
  8
ASSEMBLY_OUTLINES_TOP
100
AcDbPolyline
 90
        4
 70
         1
 43
0.1
 10
107.8
 20
47.85
 10
107.8
 20
49.15
 10
110.6
 20
49.15
 10
110.6
 20
47.85
  0
LWPOLYLINE
  5
15C
100
AcDbEntity
  8
ASSEMBLY_OUTLINES_TOP
100
AcDbPolyline
 90
        4
 70
         1
 43
0.1
 10
110.05
 20
31.75
 10
110.05
 20
33.05
 10
112.95
 20
33.05
 10
112.95
 20
31.75
  0
LWPOLYLINE
  5
15D
100
AcDbEntity
  8
ASSEMBLY_OUTLINES_TOP
100
AcDbPolyline
 90
        4
 70
         1
 43
0.1
 10
118.45
 20
101.15
 10
118.45
 20
102.45
 10
121.35
 20
102.45
 10
121.35
 20
101.15
  0
LWPOLYLINE
  5
15E
100
AcDbEntity
  8
ASSEMBLY_OUTLINES_TOP
100
AcDbPolyline
 90
        4
 70
         1
 43
0.1
 10
120.4
 20
93.95
 10
120.4
 20
97.25
 10
122.2
 20
97.25
 10
122.2
 20
93.95
  0
LWPOLYLINE
  5
15F
100
AcDbEntity
  8
ASSEMBLY_OUTLINES_TOP
100
AcDbPolyline
 90
        4
 70
         1
 43
0.1
 10
108.8
 20
103.35
 10
108.8
 20
107.05
 10
111.8
 20
107.05
 10
111.8
 20
103.35
  0
LWPOLYLINE
  5
160
100
AcDbEntity
  8
ASSEMBLY_OUTLINES_TOP
100
AcDbPolyline
 90
        2
 70
         0
 43
0.1
 10
111.8
 20
103.45
 10
108.8
 20
103.45
  0
LWPOLYLINE
  5
161
100
AcDbEntity
  8
ASSEMBLY_OUTLINES_TOP
100
AcDbPolyline
 90
        2
 70
         0
 43
0.1
 10
111.8
 20
103.55
 10
108.8
 20
103.55
  0
LWPOLYLINE
  5
162
100
AcDbEntity
  8
ASSEMBLY_OUTLINES_TOP
100
AcDbPolyline
 90
        2
 70
         0
 43
0.1
 10
111.8
 20
103.65
 10
108.8
 20
103.65
  0
LWPOLYLINE
  5
163
100
AcDbEntity
  8
ASSEMBLY_OUTLINES_TOP
100
AcDbPolyline
 90
        2
 70
         0
 43
0.1
 10
111.8
 20
103.75
 10
108.8
 20
103.75
  0
LWPOLYLINE
  5
164
100
AcDbEntity
  8
ASSEMBLY_OUTLINES_TOP
100
AcDbPolyline
 90
        2
 70
         0
 43
0.1
 10
111.8
 20
103.85
 10
108.8
 20
103.85
  0
LWPOLYLINE
  5
165
100
AcDbEntity
  8
ASSEMBLY_OUTLINES_TOP
100
AcDbPolyline
 90
        2
 70
         0
 43
0.1
 10
111.8
 20
103.95
 10
108.8
 20
103.95
  0
LWPOLYLINE
  5
166
100
AcDbEntity
  8
ASSEMBLY_OUTLINES_TOP
100
AcDbPolyline
 90
        2
 70
         0
 43
0.1
 10
111.8
 20
104.05
 10
108.8
 20
104.05
  0
LWPOLYLINE
  5
167
100
AcDbEntity
  8
ASSEMBLY_OUTLINES_TOP
100
AcDbPolyline
 90
        2
 70
         0
 43
0.1
 10
111.8
 20
104.15
 10
108.8
 20
104.15
  0
LWPOLYLINE
  5
168
100
AcDbEntity
  8
ASSEMBLY_OUTLINES_TOP
100
AcDbPolyline
 90
        4
 70
         1
 43
0.1
 10
109.3
 20
110.25
 10
109.3
 20
113.95
 10
112.3
 20
113.95
 10
112.3
 20
110.25
  0
LWPOLYLINE
  5
169
100
AcDbEntity
  8
ASSEMBLY_OUTLINES_TOP
100
AcDbPolyline
 90
        2
 70
         0
 43
0.1
 10
109.3
 20
113.85
 10
112.3
 20
113.85
  0
LWPOLYLINE
  5
16A
100
AcDbEntity
  8
ASSEMBLY_OUTLINES_TOP
100
AcDbPolyline
 90
        2
 70
         0
 43
0.1
 10
109.3
 20
113.75
 10
112.3
 20
113.75
  0
LWPOLYLINE
  5
16B
100
AcDbEntity
  8
ASSEMBLY_OUTLINES_TOP
100
AcDbPolyline
 90
        2
 70
         0
 43
0.1
 10
109.3
 20
113.65
 10
112.3
 20
113.65
  0
LWPOLYLINE
  5
16C
100
AcDbEntity
  8
ASSEMBLY_OUTLINES_TOP
100
AcDbPolyline
 90
        2
 70
         0
 43
0.1
 10
109.3
 20
113.55
 10
112.3
 20
113.55
  0
LWPOLYLINE
  5
16D
100
AcDbEntity
  8
ASSEMBLY_OUTLINES_TOP
100
AcDbPolyline
 90
        2
 70
         0
 43
0.1
 10
109.3
 20
113.45
 10
112.3
 20
113.45
  0
LWPOLYLINE
  5
16E
100
AcDbEntity
  8
ASSEMBLY_OUTLINES_TOP
100
AcDbPolyline
 90
        2
 70
         0
 43
0.1
 10
109.3
 20
113.35
 10
112.3
 20
113.35
  0
LWPOLYLINE
  5
16F
100
AcDbEntity
  8
ASSEMBLY_OUTLINES_TOP
100
AcDbPolyline
 90
        2
 70
         0
 43
0.1
 10
109.3
 20
113.25
 10
112.3
 20
113.25
  0
LWPOLYLINE
  5
170
100
AcDbEntity
  8
ASSEMBLY_OUTLINES_TOP
100
AcDbPolyline
 90
        2
 70
         0
 43
0.1
 10
109.3
 20
113.15
 10
112.3
 20
113.15
  0
LWPOLYLINE
  5
171
100
AcDbEntity
  8
ASSEMBLY_OUTLINES_TOP
100
AcDbPolyline
 90
        4
 70
         1
 10
113.45
 20
4.4
 10
113.45
 20
20.4
 10
138.85
 20
20.4
 10
138.85
 20
4.4
  0
LWPOLYLINE
  5
172
100
AcDbEntity
  8
ASSEMBLY_OUTLINES_TOP
100
AcDbPolyline
 90
        4
 70
         1
 43
0.1
 10
96.25
 20
86.2
 10
96.25
 20
89.0
 10
97.55
 20
89.0
 10
97.55
 20
86.2
  0
LWPOLYLINE
  5
173
100
AcDbEntity
  8
ASSEMBLY_OUTLINES_TOP
100
AcDbPolyline
 90
        4
 70
         1
 43
0.1
 10
115.85
 20
64.35
 10
115.85
 20
65.65
 10
118.75
 20
65.65
 10
118.75
 20
64.35
  0
LWPOLYLINE
  5
174
100
AcDbEntity
  8
ASSEMBLY_OUTLINES_TOP
100
AcDbPolyline
 90
        4
 70
         1
 43
0.1
 10
94.95
 20
8.25
 10
94.95
 20
11.15
 10
96.25
 20
11.15
 10
96.25
 20
8.25
  0
LWPOLYLINE
  5
175
100
AcDbEntity
  8
ASSEMBLY_OUTLINES_TOP
100
AcDbPolyline
 90
        4
 70
         1
 43
0.1
 10
93.3
 20
14.85
 10
93.3
 20
16.15
 10
96.1
 20
16.15
 10
96.1
 20
14.85
  0
LWPOLYLINE
  5
176
100
AcDbEntity
  8
ASSEMBLY_OUTLINES_TOP
100
AcDbPolyline
 90
        4
 70
         1
 43
0.1
 10
118.45
 20
99.55
 10
118.45
 20
100.85
 10
121.35
 20
100.85
 10
121.35
 20
99.55
  0
LWPOLYLINE
  5
177
100
AcDbEntity
  8
ASSEMBLY_OUTLINES_TOP
100
AcDbPolyline
 90
        4
 70
         1
 43
0.1
 10
106.95
 20
31.75
 10
106.95
 20
33.05
 10
109.85
 20
33.05
 10
109.85
 20
31.75
  0
LWPOLYLINE
  5
178
100
AcDbEntity
  8
ASSEMBLY_OUTLINES_TOP
100
AcDbPolyline
 90
        4
 70
         1
 43
0.1
 10
89.5
 20
73.75
 10
89.5
 20
75.05
 10
92.3
 20
75.05
 10
92.3
 20
73.75
  0
LWPOLYLINE
  5
179
100
AcDbEntity
  8
ASSEMBLY_OUTLINES_TOP
100
AcDbPolyline
 90
        4
 70
         1
 43
0.1
 10
106.35
 20
45.15
 10
106.35
 20
46.45
 10
109.25
 20
46.45
 10
109.25
 20
45.15
  0
LWPOLYLINE
  5
17A
100
AcDbEntity
  8
ASSEMBLY_OUTLINES_TOP
100
AcDbPolyline
 90
        4
 70
         1
 43
0.1
 10
104.25
 20
46.9
 10
104.25
 20
48.7
 10
107.55
 20
48.7
 10
107.55
 20
46.9
  0
LWPOLYLINE
  5
17B
100
AcDbEntity
  8
ASSEMBLY_OUTLINES_TOP
100
AcDbPolyline
 90
        4
 70
         1
 43
0.1
 10
110.8
 20
93.8
 10
110.8
 20
97.6
 10
116.4
 20
97.6
 10
116.4
 20
93.8
  0
LWPOLYLINE
  5
17C
100
AcDbEntity
  8
ASSEMBLY_OUTLINES_TOP
100
AcDbPolyline
 90
        2
 70
         0
 43
0.1
 10
110.9
 20
93.8
 10
110.9
 20
97.6
  0
LWPOLYLINE
  5
17D
100
AcDbEntity
  8
ASSEMBLY_OUTLINES_TOP
100
AcDbPolyline
 90
        2
 70
         0
 43
0.1
 10
111.0
 20
93.8
 10
111.0
 20
97.6
  0
LWPOLYLINE
  5
17E
100
AcDbEntity
  8
ASSEMBLY_OUTLINES_TOP
100
AcDbPolyline
 90
        2
 70
         0
 43
0.1
 10
111.1
 20
93.8
 10
111.1
 20
97.6
  0
LWPOLYLINE
  5
17F
100
AcDbEntity
  8
ASSEMBLY_OUTLINES_TOP
100
AcDbPolyline
 90
        2
 70
         0
 43
0.1
 10
111.2
 20
93.8
 10
111.2
 20
97.6
  0
LWPOLYLINE
  5
180
100
AcDbEntity
  8
ASSEMBLY_OUTLINES_TOP
100
AcDbPolyline
 90
        2
 70
         0
 43
0.1
 10
111.3
 20
93.8
 10
111.3
 20
97.6
  0
LWPOLYLINE
  5
181
100
AcDbEntity
  8
ASSEMBLY_OUTLINES_TOP
100
AcDbPolyline
 90
        2
 70
         0
 43
0.1
 10
111.4
 20
93.8
 10
111.4
 20
97.6
  0
LWPOLYLINE
  5
182
100
AcDbEntity
  8
ASSEMBLY_OUTLINES_TOP
100
AcDbPolyline
 90
        2
 70
         0
 43
0.1
 10
111.5
 20
93.8
 10
111.5
 20
97.6
  0
LWPOLYLINE
  5
183
100
AcDbEntity
  8
ASSEMBLY_OUTLINES_TOP
100
AcDbPolyline
 90
        2
 70
         0
 43
0.1
 10
111.6
 20
93.8
 10
111.6
 20
97.6
  0
LWPOLYLINE
  5
184
100
AcDbEntity
  8
ASSEMBLY_OUTLINES_TOP
100
AcDbPolyline
 90
        4
 70
         1
 43
0.1
 10
92.75
 20
8.15
 10
92.75
 20
11.25
 10
94.45
 20
11.25
 10
94.45
 20
8.15
  0
LWPOLYLINE
  5
185
100
AcDbEntity
  8
ASSEMBLY_OUTLINES_TOP
100
AcDbPolyline
 90
        2
 70
         0
 43
0.1
 10
92.75
 20
11.15
 10
94.45
 20
11.15
  0
LWPOLYLINE
  5
186
100
AcDbEntity
  8
ASSEMBLY_OUTLINES_TOP
100
AcDbPolyline
 90
        2
 70
         0
 43
0.1
 10
92.75
 20
11.05
 10
94.45
 20
11.05
  0
LWPOLYLINE
  5
187
100
AcDbEntity
  8
ASSEMBLY_OUTLINES_TOP
100
AcDbPolyline
 90
        2
 70
         0
 43
0.1
 10
92.75
 20
10.95
 10
94.45
 20
10.95
  0
LWPOLYLINE
  5
188
100
AcDbEntity
  8
ASSEMBLY_OUTLINES_TOP
100
AcDbPolyline
 90
        2
 70
         0
 43
0.1
 10
92.75
 20
10.85
 10
94.45
 20
10.85
  0
LWPOLYLINE
  5
189
100
AcDbEntity
  8
ASSEMBLY_OUTLINES_TOP
100
AcDbPolyline
 90
        2
 70
         0
 43
0.1
 10
92.75
 20
10.75
 10
94.45
 20
10.75
  0
LWPOLYLINE
  5
18A
100
AcDbEntity
  8
ASSEMBLY_OUTLINES_TOP
100
AcDbPolyline
 90
        2
 70
         0
 43
0.1
 10
92.75
 20
10.65
 10
94.45
 20
10.65
  0
LWPOLYLINE
  5
18B
100
AcDbEntity
  8
ASSEMBLY_OUTLINES_TOP
100
AcDbPolyline
 90
        4
 70
         1
 43
0.1
 10
99.6
 20
21.25
 10
99.6
 20
24.55
 10
101.4
 20
24.55
 10
101.4
 20
21.25
  0
LWPOLYLINE
  5
18C
100
AcDbEntity
  8
ASSEMBLY_OUTLINES_TOP
100
AcDbPolyline
 90
        4
 70
         1
 43
0.1
 10
121.65
 20
105.25
 10
121.65
 20
106.55
 10
124.55
 20
106.55
 10
124.55
 20
105.25
  0
TEXT
  5
18E
100
AcDbEntity
  8
ASSEMBLY_REF_DES_TOP
100
AcDbText
 10
100.7935
 20
104.53
 30
0.0
 40
1.0
  1
Bat1
 50
90.0
  7
GOST_TYPE_B
 72
         1
 11
100.3
 21
105.8
 31
0.0
100
AcDbText
 73
         2
  0
TEXT
  5
18F
100
AcDbEntity
  8
ASSEMBLY_REF_DES_TOP
100
AcDbText
 10
114.618275
 20
89.351725
 30
0.0
 40
1.0
  1
R10
 50
180.0
  7
GOST_TYPE_B
 72
         1
 11
113.641775
 21
88.858225
 31
0.0
100
AcDbText
 73
         2
  0
TEXT
  5
190
100
AcDbEntity
  8
ASSEMBLY_REF_DES_TOP
100
AcDbText
 10
118.2935
 20
60.023
 30
0.0
 40
1.0
  1
R21
 50
90.0
  7
GOST_TYPE_B
 72
         1
 11
117.8
 21
61.0
 31
0.0
100
AcDbText
 73
         2
  0
TEXT
  5
191
100
AcDbEntity
  8
ASSEMBLY_REF_DES_TOP
100
AcDbText
 10
97.34865
 20
89.96085
 30
0.0
 40
1.0
  1
C7
 50
90.0
  7
GOST_TYPE_B
 72
         1
 11
96.85515
 21
90.64485
 31
0.0
100
AcDbText
 73
         2
  0
TEXT
  5
192
100
AcDbEntity
  8
ASSEMBLY_REF_DES_TOP
100
AcDbText
 10
122.7935
 20
59.876
 30
0.0
 40
1.0
  1
R24
 50
90.0
  7
GOST_TYPE_B
 72
         1
 11
122.3
 21
61.0
 31
0.0
100
AcDbText
 73
         2
  0
TEXT
  5
193
100
AcDbEntity
  8
ASSEMBLY_REF_DES_TOP
100
AcDbText
 10
103.9935
 20
32.625
 30
0.0
 40
1.0
  1
C28
 50
90.0
  7
GOST_TYPE_B
 72
         1
 11
103.5
 21
33.7
 31
0.0
100
AcDbText
 73
         2
  0
TEXT
  5
194
100
AcDbEntity
  8
ASSEMBLY_REF_DES_TOP
100
AcDbText
 10
119.8935
 20
92.267
 30
0.0
 40
1.0
  1
R6
 50
90.0
  7
GOST_TYPE_B
 72
         1
 11
119.4
 21
93.0
 31
0.0
100
AcDbText
 73
         2
  0
TEXT
  5
195
100
AcDbEntity
  8
ASSEMBLY_REF_DES_TOP
100
AcDbText
 10
115.169775
 20
66.151725
 30
0.0
 40
1.0
  1
C15
 50
180.0
  7
GOST_TYPE_B
 72
         1
 11
114.241775
 21
65.658225
 31
0.0
100
AcDbText
 73
         2
  0
TEXT
  5
196
100
AcDbEntity
  8
ASSEMBLY_REF_DES_TOP
100
AcDbText
 10
131.9
 20
36.227
 30
0.0
 40
1.0
  1
X9
 50
90.0
  7
GOST_TYPE_B
 72
         2
 11
131.9
 21
37.79
 31
0.0
100
AcDbText
 73
         1
  0
TEXT
  5
197
100
AcDbEntity
  8
ASSEMBLY_REF_DES_TOP
100
AcDbText
 10
100.24865
 20
93.22215
 30
0.0
 40
1.0
  1
C4
 50
90.0
  7
GOST_TYPE_B
 72
         1
 11
99.75515
 21
93.95515
 31
0.0
100
AcDbText
 73
         2
  0
TEXT
  5
198
100
AcDbEntity
  8
ASSEMBLY_REF_DES_TOP
100
AcDbText
 10
98.6935
 20
74.47
 30
0.0
 40
1.0
  1
C11
 50
90.0
  7
GOST_TYPE_B
 72
         1
 11
98.2
 21
75.3
 31
0.0
100
AcDbText
 73
         2
  0
TEXT
  5
199
100
AcDbEntity
  8
ASSEMBLY_REF_DES_TOP
100
AcDbText
 10
104.167775
 20
21.551725
 30
0.0
 40
1.0
  1
C30
 50
180.0
  7
GOST_TYPE_B
 72
         1
 11
103.141775
 21
21.058225
 31
0.0
100
AcDbText
 73
         2
  0
TEXT
  5
19A
100
AcDbEntity
  8
ASSEMBLY_REF_DES_TOP
100
AcDbText
 10
121.518275
 20
73.351725
 30
0.0
 40
1.0
  1
R15
 50
180.0
  7
GOST_TYPE_B
 72
         1
 11
120.541775
 21
72.858225
 31
0.0
100
AcDbText
 73
         2
  0
TEXT
  5
19B
100
AcDbEntity
  8
ASSEMBLY_REF_DES_TOP
100
AcDbText
 10
121.1
 20
40.489
 30
0.0
 40
1.0
  1
X8
 50
90.0
  7
GOST_TYPE_B
 72
         2
 11
121.1
 21
42.15
 31
0.0
100
AcDbText
 73
         1
  0
TEXT
  5
19C
100
AcDbEntity
  8
ASSEMBLY_REF_DES_TOP
100
AcDbText
 10
98.5935
 20
17.476
 30
0.0
 40
1.0
  1
DD3
 50
90.0
  7
GOST_TYPE_B
 72
         1
 11
98.1
 21
18.6
 31
0.0
100
AcDbText
 73
         2
  0
TEXT
  5
19D
100
AcDbEntity
  8
ASSEMBLY_REF_DES_TOP
100
AcDbText
 10
81.0685
 20
90.3885
 30
0.0
 40
1.0
  1
X3
 50
90.0
  7
GOST_TYPE_B
 72
         1
 11
80.575
 21
91.17
 31
0.0
100
AcDbText
 73
         2
  0
TEXT
  5
19E
100
AcDbEntity
  8
ASSEMBLY_REF_DES_TOP
100
AcDbText
 10
119.7935
 20
59.925
 30
0.0
 40
1.0
  1
R22
 50
90.0
  7
GOST_TYPE_B
 72
         1
 11
119.3
 21
61.0
 31
0.0
100
AcDbText
 73
         2
  0
TEXT
  5
19F
100
AcDbEntity
  8
ASSEMBLY_REF_DES_TOP
100
AcDbText
 10
112.564775
 20
11.051725
 30
0.0
 40
1.0
  1
R43
 50
180.0
  7
GOST_TYPE_B
 72
         1
 11
111.441775
 21
10.558225
 31
0.0
100
AcDbText
 73
         2
  0
TEXT
  5
1A0
100
AcDbEntity
  8
ASSEMBLY_REF_DES_TOP
100
AcDbText
 10
124.166275
 20
64.001725
 30
0.0
 40
1.0
  1
R20
 50
180.0
  7
GOST_TYPE_B
 72
         1
 11
123.091775
 21
63.508225
 31
0.0
100
AcDbText
 73
         2
  0
TEXT
  5
1A1
100
AcDbEntity
  8
ASSEMBLY_REF_DES_TOP
100
AcDbText
 10
107.868275
 20
88.301725
 30
0.0
 40
1.0
  1
R12
 50
180.0
  7
GOST_TYPE_B
 72
         1
 11
106.891775
 21
87.808225
 31
0.0
100
AcDbText
 73
         2
  0
TEXT
  5
1A2
100
AcDbEntity
  8
ASSEMBLY_REF_DES_TOP
100
AcDbText
 10
115.0
 20
46.782
 30
0.0
 40
1.0
  1
J4
 50
90.0
  7
GOST_TYPE_B
 72
         2
 11
115.0
 21
48.15
 31
0.0
100
AcDbText
 73
         1
  0
TEXT
  5
1A3
100
AcDbEntity
  8
ASSEMBLY_REF_DES_TOP
100
AcDbText
 10
116.4935
 20
109.3255
 30
0.0
 40
1.0
  1
DA1
 50
90.0
  7
GOST_TYPE_B
 72
         1
 11
116.0
 21
110.4
 31
0.0
100
AcDbText
 73
         2
  0
TEXT
  5
1A4
100
AcDbEntity
  8
ASSEMBLY_REF_DES_TOP
100
AcDbText
 10
96.9935
 20
22.723
 30
0.0
 40
1.0
  1
R31
 50
90.0
  7
GOST_TYPE_B
 72
         1
 11
96.5
 21
23.7
 31
0.0
100
AcDbText
 73
         2
  0
TEXT
  5
1A5
100
AcDbEntity
  8
ASSEMBLY_REF_DES_TOP
100
AcDbText
 10
123.5935
 20
103.467
 30
0.0
 40
1.0
  1
R2
 50
90.0
  7
GOST_TYPE_B
 72
         1
 11
123.1
 21
104.2
 31
0.0
100
AcDbText
 73
         2
  0
TEXT
  5
1A6
100
AcDbEntity
  8
ASSEMBLY_REF_DES_TOP
100
AcDbText
 10
132.04
 20
63.547
 30
0.0
 40
1.0
  1
X5
 50
90.0
  7
GOST_TYPE_B
 72
         2
 11
132.04
 21
65.11
 31
0.0
100
AcDbText
 73
         1
  0
TEXT
  5
1A7
100
AcDbEntity
  8
ASSEMBLY_REF_DES_TOP
100
AcDbText
 10
124.116775
 20
65.501725
 30
0.0
 40
1.0
  1
R18
 50
180.0
  7
GOST_TYPE_B
 72
         1
 11
123.091775
 21
65.008225
 31
0.0
100
AcDbText
 73
         2
  0
TEXT
  5
1A8
100
AcDbEntity
  8
ASSEMBLY_REF_DES_TOP
100
AcDbText
 10
107.574275
 20
90.051725
 30
0.0
 40
1.0
  1
R9
 50
180.0
  7
GOST_TYPE_B
 72
         1
 11
106.841775
 21
89.558225
 31
0.0
100
AcDbText
 73
         2
  0
TEXT
  5
1A9
100
AcDbEntity
  8
ASSEMBLY_REF_DES_TOP
100
AcDbText
 10
121.0
 20
84.43
 30
0.0
 40
1.0
  1
J2
 50
90.0
  7
GOST_TYPE_B
 72
         2
 11
121.0
 21
85.7
 31
0.0
100
AcDbText
 73
         1
  0
TEXT
  5
1AA
100
AcDbEntity
  8
ASSEMBLY_REF_DES_TOP
100
AcDbText
 10
99.0435
 20
25.075
 30
0.0
 40
1.0
  1
R30
 50
90.0
  7
GOST_TYPE_B
 72
         1
 11
98.55
 21
26.15
 31
0.0
100
AcDbText
 73
         2
  0
TEXT
  5
1AB
100
AcDbEntity
  8
ASSEMBLY_REF_DES_TOP
100
AcDbText
 10
104.069775
 20
20.051725
 30
0.0
 40
1.0
  1
C31
 50
180.0
  7
GOST_TYPE_B
 72
         1
 11
103.141775
 21
19.558225
 31
0.0
100
AcDbText
 73
         2
  0
TEXT
  5
1AC
100
AcDbEntity
  8
ASSEMBLY_REF_DES_TOP
100
AcDbText
 10
114.9935
 20
61.472
 30
0.0
 40
1.0
  1
C16
 50
90.0
  7
GOST_TYPE_B
 72
         1
 11
114.5
 21
62.4
 31
0.0
100
AcDbText
 73
         2
  0
TEXT
  5
1AD
100
AcDbEntity
  8
ASSEMBLY_REF_DES_TOP
100
AcDbText
 10
118.168275
 20
66.901725
 30
0.0
 40
1.0
  1
R16
 50
180.0
  7
GOST_TYPE_B
 72
         1
 11
117.191775
 21
66.408225
 31
0.0
100
AcDbText
 73
         2
  0
TEXT
  5
1AE
100
AcDbEntity
  8
ASSEMBLY_REF_DES_TOP
100
AcDbText
 10
131.5
 20
81.189
 30
0.0
 40
1.0
  1
X4
 50
90.0
  7
GOST_TYPE_B
 72
         2
 11
131.5
 21
82.85
 31
0.0
100
AcDbText
 73
         1
  0
TEXT
  5
1AF
100
AcDbEntity
  8
ASSEMBLY_REF_DES_TOP
100
AcDbText
 10
91.5935
 20
47.174
 30
0.0
 40
1.0
  1
C22
 50
90.0
  7
GOST_TYPE_B
 72
         1
 11
91.1
 21
48.2
 31
0.0
100
AcDbText
 73
         2
  0
TEXT
  5
1B0
100
AcDbEntity
  8
ASSEMBLY_REF_DES_TOP
100
AcDbText
 10
105.9935
 20
19.076
 30
0.0
 40
1.0
  1
R34
 50
90.0
  7
GOST_TYPE_B
 72
         1
 11
105.5
 21
20.2
 31
0.0
100
AcDbText
 73
         2
  0
TEXT
  5
1B1
100
AcDbEntity
  8
ASSEMBLY_REF_DES_TOP
100
AcDbText
 10
115.43835
 20
37.28015
 30
0.0
 40
1.0
  1
R27
 50
90.0
  7
GOST_TYPE_B
 72
         1
 11
114.94485
 21
38.35515
 31
0.0
100
AcDbText
 73
         2
  0
TEXT
  5
1B2
100
AcDbEntity
  8
ASSEMBLY_REF_DES_TOP
100
AcDbText
 10
87.3935
 20
58.923
 30
0.0
 40
1.0
  1
C18
 50
90.0
  7
GOST_TYPE_B
 72
         1
 11
86.9
 21
59.9
 31
0.0
100
AcDbText
 73
         2
  0
TEXT
  5
1B3
100
AcDbEntity
  8
ASSEMBLY_REF_DES_TOP
100
AcDbText
 10
114.0935
 20
99.1255
 30
0.0
 40
1.0
  1
VD1
 50
90.0
  7
GOST_TYPE_B
 72
         1
 11
113.6
 21
100.2
 31
0.0
100
AcDbText
 73
         2
  0
TEXT
  5
1B4
100
AcDbEntity
  8
ASSEMBLY_REF_DES_TOP
100
AcDbText
 10
115.5435
 20
23.375
 30
0.0
 40
1.0
  1
R32
 50
90.0
  7
GOST_TYPE_B
 72
         1
 11
115.05
 21
24.45
 31
0.0
100
AcDbText
 73
         2
  0
TEXT
  5
1B5
100
AcDbEntity
  8
ASSEMBLY_REF_DES_TOP
100
AcDbText
 10
115.267775
 20
58.051725
 30
0.0
 40
1.0
  1
C20
 50
180.0
  7
GOST_TYPE_B
 72
         1
 11
114.241775
 21
57.558225
 31
0.0
100
AcDbText
 73
         2
  0
TEXT
  5
1B6
100
AcDbEntity
  8
ASSEMBLY_REF_DES_TOP
100
AcDbText
 10
102.767775
 20
48.951725
 30
0.0
 40
1.0
  1
C23
 50
180.0
  7
GOST_TYPE_B
 72
         1
 11
101.741775
 21
48.458225
 31
0.0
100
AcDbText
 73
         2
  0
TEXT
  5
1B7
100
AcDbEntity
  8
ASSEMBLY_REF_DES_TOP
100
AcDbText
 10
115.169775
 20
59.351725
 30
0.0
 40
1.0
  1
C19
 50
180.0
  7
GOST_TYPE_B
 72
         1
 11
114.241775
 21
58.858225
 31
0.0
100
AcDbText
 73
         2
  0
TEXT
  5
1B8
100
AcDbEntity
  8
ASSEMBLY_REF_DES_TOP
100
AcDbText
 10
117.5935
 20
23.325
 30
0.0
 40
1.0
  1
R33
 50
90.0
  7
GOST_TYPE_B
 72
         1
 11
117.1
 21
24.4
 31
0.0
100
AcDbText
 73
         2
  0
TEXT
  5
1B9
100
AcDbEntity
  8
ASSEMBLY_REF_DES_TOP
100
AcDbText
 10
102.2
 20
41.137
 30
0.0
 40
1.0
  1
X7
 50
90.0
  7
GOST_TYPE_B
 72
         2
 11
102.2
 21
42.7
 31
0.0
100
AcDbText
 73
         1
  0
TEXT
  5
1BA
100
AcDbEntity
  8
ASSEMBLY_REF_DES_TOP
100
AcDbText
 10
122.720275
 20
90.851725
 30
0.0
 40
1.0
  1
R11
 50
180.0
  7
GOST_TYPE_B
 72
         1
 11
121.841775
 21
90.358225
 31
0.0
100
AcDbText
 73
         2
  0
TEXT
  5
1BB
100
AcDbEntity
  8
ASSEMBLY_REF_DES_TOP
100
AcDbText
 10
113.44
 20
90.426
 30
0.0
 40
1.0
  1
J1
 50
90.0
  7
GOST_TYPE_B
 72
         2
 11
113.44
 21
91.5
 31
0.0
100
AcDbText
 73
         1
  0
TEXT
  5
1BC
100
AcDbEntity
  8
ASSEMBLY_REF_DES_TOP
100
AcDbText
 10
95.7935
 20
90.016
 30
0.0
 40
1.0
  1
C6
 50
90.0
  7
GOST_TYPE_B
 72
         1
 11
95.3
 21
90.7
 31
0.0
100
AcDbText
 73
         2
  0
TEXT
  5
1BD
100
AcDbEntity
  8
ASSEMBLY_REF_DES_TOP
100
AcDbText
 10
114.269775
 20
79.751725
 30
0.0
 40
1.0
  1
C10
 50
180.0
  7
GOST_TYPE_B
 72
         1
 11
113.341775
 21
79.258225
 31
0.0
100
AcDbText
 73
         2
  0
TEXT
  5
1BE
100
AcDbEntity
  8
ASSEMBLY_REF_DES_TOP
100
AcDbText
 10
101.7935
 20
13.974
 30
0.0
 40
1.0
  1
C33
 50
90.0
  7
GOST_TYPE_B
 72
         1
 11
101.3
 21
15.0
 31
0.0
100
AcDbText
 73
         2
  0
TEXT
  5
1BF
100
AcDbEntity
  8
ASSEMBLY_REF_DES_TOP
100
AcDbText
 10
103.5935
 20
93.116
 30
0.0
 40
1.0
  1
C5
 50
90.0
  7
GOST_TYPE_B
 72
         1
 11
103.1
 21
93.8
 31
0.0
100
AcDbText
 73
         2
  0
TEXT
  5
1C0
100
AcDbEntity
  8
ASSEMBLY_REF_DES_TOP
100
AcDbText
 10
105.5435
 20
43.875
 30
0.0
 40
1.0
  1
R25
 50
90.0
  7
GOST_TYPE_B
 72
         1
 11
105.05
 21
44.95
 31
0.0
100
AcDbText
 73
         2
  0
TEXT
  5
1C1
100
AcDbEntity
  8
ASSEMBLY_REF_DES_TOP
100
AcDbText
 10
114.6935
 20
52.672
 30
0.0
 40
1.0
  1
C21
 50
90.0
  7
GOST_TYPE_B
 72
         1
 11
114.2
 21
53.6
 31
0.0
100
AcDbText
 73
         2
  0
TEXT
  5
1C2
100
AcDbEntity
  8
ASSEMBLY_REF_DES_TOP
100
AcDbText
 10
97.34865
 20
83.66085
 30
0.0
 40
1.0
  1
C9
 50
90.0
  7
GOST_TYPE_B
 72
         1
 11
96.85515
 21
84.34485
 31
0.0
100
AcDbText
 73
         2
  0
TEXT
  5
1C3
100
AcDbEntity
  8
ASSEMBLY_REF_DES_TOP
100
AcDbText
 10
115.168275
 20
64.601725
 30
0.0
 40
1.0
  1
R19
 50
180.0
  7
GOST_TYPE_B
 72
         1
 11
114.191775
 21
64.108225
 31
0.0
100
AcDbText
 73
         2
  0
TEXT
  5
1C4
100
AcDbEntity
  8
ASSEMBLY_REF_DES_TOP
100
AcDbText
 10
102.767775
 20
46.051725
 30
0.0
 40
1.0
  1
C26
 50
180.0
  7
GOST_TYPE_B
 72
         1
 11
101.741775
 21
45.558225
 31
0.0
100
AcDbText
 73
         2
  0
TEXT
  5
1C5
100
AcDbEntity
  8
ASSEMBLY_REF_DES_TOP
100
AcDbText
 10
107.574275
 20
93.251725
 30
0.0
 40
1.0
  1
R7
 50
180.0
  7
GOST_TYPE_B
 72
         1
 11
106.841775
 21
92.758225
 31
0.0
100
AcDbText
 73
         2
  0
TEXT
  5
1C6
100
AcDbEntity
  8
ASSEMBLY_REF_DES_TOP
100
AcDbText
 10
113.6935
 20
82.6275
 30
0.0
 40
1.0
  1
DA3
 50
90.0
  7
GOST_TYPE_B
 72
         1
 11
113.2
 21
83.8
 31
0.0
100
AcDbText
 73
         2
  0
TEXT
  5
1C7
100
AcDbEntity
  8
ASSEMBLY_REF_DES_TOP
100
AcDbText
 10
100.9435
 20
60.474
 30
0.0
 40
1.0
  1
DD1
 50
90.0
  7
GOST_TYPE_B
 72
         1
 11
100.45
 21
61.5
 31
0.0
100
AcDbText
 73
         2
  0
TEXT
  5
1C8
100
AcDbEntity
  8
ASSEMBLY_REF_DES_TOP
100
AcDbText
 10
111.6935
 20
72.423
 30
0.0
 40
1.0
  1
C14
 50
90.0
  7
GOST_TYPE_B
 72
         1
 11
111.2
 21
73.4
 31
0.0
100
AcDbText
 73
         2
  0
TEXT
  5
1C9
100
AcDbEntity
  8
ASSEMBLY_REF_DES_TOP
100
AcDbText
 10
107.672775
 20
91.601725
 30
0.0
 40
1.0
  1
R8
 50
180.0
  7
GOST_TYPE_B
 72
         1
 11
106.891775
 21
91.108225
 31
0.0
100
AcDbText
 73
         2
  0
TEXT
  5
1CA
100
AcDbEntity
  8
ASSEMBLY_REF_DES_TOP
100
AcDbText
 10
97.1
 20
43.703998
 30
0.0
 40
1.0
  1
ZQ1
 50
90.0
  7
GOST_TYPE_B
 72
         2
 11
97.1
 21
45.949998
 31
0.0
100
AcDbText
 73
         1
  0
TEXT
  5
1CB
100
AcDbEntity
  8
ASSEMBLY_REF_DES_TOP
100
AcDbText
 10
104.7935
 20
13.676
 30
0.0
 40
1.0
  1
R38
 50
90.0
  7
GOST_TYPE_B
 72
         1
 11
104.3
 21
14.8
 31
0.0
100
AcDbText
 73
         2
  0
TEXT
  5
1CC
100
AcDbEntity
  8
ASSEMBLY_REF_DES_TOP
100
AcDbText
 10
125.2835
 20
72.215
 30
0.0
 40
1.0
  1
J3
 50
90.0
  7
GOST_TYPE_B
 72
         1
 11
124.79
 21
72.85
 31
0.0
100
AcDbText
 73
         2
  0
TEXT
  5
1CD
100
AcDbEntity
  8
ASSEMBLY_REF_DES_TOP
100
AcDbText
 10
109.5935
 20
12.276
 30
0.0
 40
1.0
  1
R40
 50
90.0
  7
GOST_TYPE_B
 72
         1
 11
109.1
 21
13.4
 31
0.0
100
AcDbText
 73
         2
  0
TEXT
  5
1CE
100
AcDbEntity
  8
ASSEMBLY_REF_DES_TOP
100
AcDbText
 10
120.3935
 20
97.467
 30
0.0
 40
1.0
  1
R5
 50
90.0
  7
GOST_TYPE_B
 72
         1
 11
119.9
 21
98.2
 31
0.0
100
AcDbText
 73
         2
  0
TEXT
  5
1CF
100
AcDbEntity
  8
ASSEMBLY_REF_DES_TOP
100
AcDbText
 10
106.2435
 20
13.775
 30
0.0
 40
1.0
  1
R39
 50
90.0
  7
GOST_TYPE_B
 72
         1
 11
105.75
 21
14.85
 31
0.0
100
AcDbText
 73
         2
  0
TEXT
  5
1D0
100
AcDbEntity
  8
ASSEMBLY_REF_DES_TOP
100
AcDbText
 10
110.1935
 20
82.223
 30
0.0
 40
1.0
  1
R13
 50
90.0
  7
GOST_TYPE_B
 72
         1
 11
109.7
 21
83.2
 31
0.0
100
AcDbText
 73
         2
  0
TEXT
  5
1D1
100
AcDbEntity
  8
ASSEMBLY_REF_DES_TOP
100
AcDbText
 10
102.767775
 20
44.651725
 30
0.0
 40
1.0
  1
C27
 50
180.0
  7
GOST_TYPE_B
 72
         1
 11
101.741775
 21
44.158225
 31
0.0
100
AcDbText
 73
         2
  0
TEXT
  5
1D2
100
AcDbEntity
  8
ASSEMBLY_REF_DES_TOP
100
AcDbText
 10
108.6935
 20
6.576
 30
0.0
 40
1.0
  1
R45
 50
90.0
  7
GOST_TYPE_B
 72
         1
 11
108.2
 21
7.7
 31
0.0
100
AcDbText
 73
         2
  0
TEXT
  5
1D3
100
AcDbEntity
  8
ASSEMBLY_REF_DES_TOP
100
AcDbText
 10
118.4935
 20
82.974
 30
0.0
 40
1.0
  1
R14
 50
90.0
  7
GOST_TYPE_B
 72
         1
 11
118.0
 21
84.0
 31
0.0
100
AcDbText
 73
         2
  0
TEXT
  5
1D4
100
AcDbEntity
  8
ASSEMBLY_REF_DES_TOP
100
AcDbText
 10
103.2935
 20
13.725
 30
0.0
 40
1.0
  1
R37
 50
90.0
  7
GOST_TYPE_B
 72
         1
 11
102.8
 21
14.8
 31
0.0
100
AcDbText
 73
         2
  0
TEXT
  5
1D5
100
AcDbEntity
  8
ASSEMBLY_REF_DES_TOP
100
AcDbText
 10
130.39967
 20
96.493788
 30
0.0
 40
1.0
  1
X2
 50
90.0
  7
GOST_TYPE_B
 72
         1
 11
129.90617
 21
97.275288
 31
0.0
100
AcDbText
 73
         2
  0
TEXT
  5
1D6
100
AcDbEntity
  8
ASSEMBLY_REF_DES_TOP
100
AcDbText
 10
110.35
 20
24.759
 30
0.0
 40
1.0
  1
SW2
 50
90.0
  7
GOST_TYPE_B
 72
         2
 11
110.35
 21
27.3
 31
0.0
100
AcDbText
 73
         1
  0
TEXT
  5
1D7
100
AcDbEntity
  8
ASSEMBLY_REF_DES_TOP
100
AcDbText
 10
131.54
 20
108.583
 30
0.0
 40
1.0
  1
X1
 50
90.0
  7
GOST_TYPE_B
 72
         2
 11
131.54
 21
109.95
 31
0.0
100
AcDbText
 73
         1
  0
TEXT
  5
1D8
100
AcDbEntity
  8
ASSEMBLY_REF_DES_TOP
100
AcDbText
 10
79.9135
 20
58.8985
 30
0.0
 40
1.0
  1
X6
 50
90.0
  7
GOST_TYPE_B
 72
         1
 11
79.42
 21
59.68
 31
0.0
100
AcDbText
 73
         2
  0
TEXT
  5
1D9
100
AcDbEntity
  8
ASSEMBLY_REF_DES_TOP
100
AcDbText
 10
121.2935
 20
59.925
 30
0.0
 40
1.0
  1
R23
 50
90.0
  7
GOST_TYPE_B
 72
         1
 11
120.8
 21
61.0
 31
0.0
100
AcDbText
 73
         2
  0
TEXT
  5
1DA
100
AcDbEntity
  8
ASSEMBLY_REF_DES_TOP
100
AcDbText
 10
107.1935
 20
7.327
 30
0.0
 40
1.0
  1
R44
 50
90.0
  7
GOST_TYPE_B
 72
         1
 11
106.7
 21
8.5
 31
0.0
100
AcDbText
 73
         2
  0
TEXT
  5
1DB
100
AcDbEntity
  8
ASSEMBLY_REF_DES_TOP
100
AcDbText
 10
105.367775
 20
7.051725
 30
0.0
 40
1.0
  1
C35
 50
180.0
  7
GOST_TYPE_B
 72
         1
 11
104.341775
 21
6.558225
 31
0.0
100
AcDbText
 73
         2
  0
TEXT
  5
1DC
100
AcDbEntity
  8
ASSEMBLY_REF_DES_TOP
100
AcDbText
 10
84.5935
 20
59.172
 30
0.0
 40
1.0
  1
C17
 50
90.0
  7
GOST_TYPE_B
 72
         1
 11
84.1
 21
60.1
 31
0.0
100
AcDbText
 73
         2
  0
TEXT
  5
1DD
100
AcDbEntity
  8
ASSEMBLY_REF_DES_TOP
100
AcDbText
 10
107.9935
 20
74.472
 30
0.0
 40
1.0
  1
C12
 50
90.0
  7
GOST_TYPE_B
 72
         1
 11
107.5
 21
75.4
 31
0.0
100
AcDbText
 73
         2
  0
TEXT
  5
1DE
100
AcDbEntity
  8
ASSEMBLY_REF_DES_TOP
100
AcDbText
 10
110.1935
 20
17.725
 30
0.0
 40
1.0
  1
R35
 50
90.0
  7
GOST_TYPE_B
 72
         1
 11
109.7
 21
18.8
 31
0.0
100
AcDbText
 73
         2
  0
TEXT
  5
1DF
100
AcDbEntity
  8
ASSEMBLY_REF_DES_TOP
100
AcDbText
 10
100.3935
 20
32.676
 30
0.0
 40
1.0
  1
DD2
 50
90.0
  7
GOST_TYPE_B
 72
         1
 11
99.9
 21
33.8
 31
0.0
100
AcDbText
 73
         2
  0
TEXT
  5
1E0
100
AcDbEntity
  8
ASSEMBLY_REF_DES_TOP
100
AcDbText
 10
81.3685
 20
27.0445
 30
0.0
 40
1.0
  1
X10
 50
90.0
  7
GOST_TYPE_B
 72
         1
 11
80.875
 21
28.07
 31
0.0
100
AcDbText
 73
         2
  0
TEXT
  5
1E1
100
AcDbEntity
  8
ASSEMBLY_REF_DES_TOP
100
AcDbText
 10
109.216275
 20
16.351725
 30
0.0
 40
1.0
  1
C34
 50
180.0
  7
GOST_TYPE_B
 72
         1
 11
108.141775
 21
15.858225
 31
0.0
100
AcDbText
 73
         2
  0
TEXT
  5
1E2
100
AcDbEntity
  8
ASSEMBLY_REF_DES_TOP
100
AcDbText
 10
101.9935
 20
86.4275
 30
0.0
 40
1.0
  1
DA2
 50
90.0
  7
GOST_TYPE_B
 72
         1
 11
101.5
 21
87.6
 31
0.0
100
AcDbText
 73
         2
  0
TEXT
  5
1E3
100
AcDbEntity
  8
ASSEMBLY_REF_DES_TOP
100
AcDbText
 10
94.6935
 20
94.5275
 30
0.0
 40
1.0
  1
VD2
 50
90.0
  7
GOST_TYPE_B
 72
         1
 11
94.2
 21
95.7
 31
0.0
100
AcDbText
 73
         2
  0
TEXT
  5
1E4
100
AcDbEntity
  8
ASSEMBLY_REF_DES_TOP
100
AcDbText
 10
110.4
 20
37.655
 30
0.0
 40
1.0
  1
SW1
 50
90.0
  7
GOST_TYPE_B
 72
         2
 11
110.4
 21
40.0
 31
0.0
100
AcDbText
 73
         1
  0
TEXT
  5
1E5
100
AcDbEntity
  8
ASSEMBLY_REF_DES_TOP
100
AcDbText
 10
108.2935
 20
17.125
 30
0.0
 40
1.0
  1
R36
 50
90.0
  7
GOST_TYPE_B
 72
         1
 11
107.8
 21
18.2
 31
0.0
100
AcDbText
 73
         2
  0
TEXT
  5
1E6
100
AcDbEntity
  8
ASSEMBLY_REF_DES_TOP
100
AcDbText
 10
111.0935
 20
13.174
 30
0.0
 40
1.0
  1
R41
 50
90.0
  7
GOST_TYPE_B
 72
         1
 11
110.6
 21
14.2
 31
0.0
100
AcDbText
 73
         2
  0
TEXT
  5
1E7
100
AcDbEntity
  8
ASSEMBLY_REF_DES_TOP
100
AcDbText
 10
110.167775
 20
49.051725
 30
0.0
 40
1.0
  1
C25
 50
180.0
  7
GOST_TYPE_B
 72
         1
 11
109.141775
 21
48.558225
 31
0.0
100
AcDbText
 73
         2
  0
TEXT
  5
1E8
100
AcDbEntity
  8
ASSEMBLY_REF_DES_TOP
100
AcDbText
 10
112.516275
 20
32.951725
 30
0.0
 40
1.0
  1
R29
 50
180.0
  7
GOST_TYPE_B
 72
         1
 11
111.441775
 21
32.458225
 31
0.0
100
AcDbText
 73
         2
  0
TEXT
  5
1E9
100
AcDbEntity
  8
ASSEMBLY_REF_DES_TOP
100
AcDbText
 10
120.3935
 20
101.067
 30
0.0
 40
1.0
  1
R3
 50
90.0
  7
GOST_TYPE_B
 72
         1
 11
119.9
 21
101.8
 31
0.0
100
AcDbText
 73
         2
  0
TEXT
  5
1EA
100
AcDbEntity
  8
ASSEMBLY_REF_DES_TOP
100
AcDbText
 10
121.7935
 20
94.916
 30
0.0
 40
1.0
  1
C3
 50
90.0
  7
GOST_TYPE_B
 72
         1
 11
121.3
 21
95.6
 31
0.0
100
AcDbText
 73
         2
  0
TEXT
  5
1EB
100
AcDbEntity
  8
ASSEMBLY_REF_DES_TOP
100
AcDbText
 10
110.7935
 20
104.516
 30
0.0
 40
1.0
  1
C2
 50
90.0
  7
GOST_TYPE_B
 72
         1
 11
110.3
 21
105.2
 31
0.0
100
AcDbText
 73
         2
  0
TEXT
  5
1EC
100
AcDbEntity
  8
ASSEMBLY_REF_DES_TOP
100
AcDbText
 10
111.2935
 20
111.514
 30
0.0
 40
1.0
  1
C1
 50
90.0
  7
GOST_TYPE_B
 72
         1
 11
110.8
 21
112.1
 31
0.0
100
AcDbText
 73
         2
  0
TEXT
  5
1ED
100
AcDbEntity
  8
ASSEMBLY_REF_DES_TOP
100
AcDbText
 10
124.6935
 20
11.515
 30
0.0
 40
1.0
  1
T1
 50
90.0
  7
GOST_TYPE_B
 72
         1
 11
124.2
 21
12.15
 31
0.0
100
AcDbText
 73
         2
  0
TEXT
  5
1EE
100
AcDbEntity
  8
ASSEMBLY_REF_DES_TOP
100
AcDbText
 10
97.3935
 20
86.867
 30
0.0
 40
1.0
  1
C8
 50
90.0
  7
GOST_TYPE_B
 72
         1
 11
96.9
 21
87.6
 31
0.0
100
AcDbText
 73
         2
  0
TEXT
  5
1EF
100
AcDbEntity
  8
ASSEMBLY_REF_DES_TOP
100
AcDbText
 10
118.168275
 20
65.501725
 30
0.0
 40
1.0
  1
R17
 50
180.0
  7
GOST_TYPE_B
 72
         1
 11
117.191775
 21
65.008225
 31
0.0
100
AcDbText
 73
         2
  0
TEXT
  5
1F0
100
AcDbEntity
  8
ASSEMBLY_REF_DES_TOP
100
AcDbText
 10
96.0935
 20
8.576
 30
0.0
 40
1.0
  1
R42
 50
90.0
  7
GOST_TYPE_B
 72
         1
 11
95.6
 21
9.7
 31
0.0
100
AcDbText
 73
         2
  0
TEXT
  5
1F1
100
AcDbEntity
  8
ASSEMBLY_REF_DES_TOP
100
AcDbText
 10
95.612625
 20
15.996575
 30
0.0
 40
1.0
  1
C32
 50
180.0
  7
GOST_TYPE_B
 72
         1
 11
94.586625
 21
15.503075
 31
0.0
100
AcDbText
 73
         2
  0
TEXT
  5
1F2
100
AcDbEntity
  8
ASSEMBLY_REF_DES_TOP
100
AcDbText
 10
120.3935
 20
99.418
 30
0.0
 40
1.0
  1
R4
 50
90.0
  7
GOST_TYPE_B
 72
         1
 11
119.9
 21
100.2
 31
0.0
100
AcDbText
 73
         2
  0
TEXT
  5
1F3
100
AcDbEntity
  8
ASSEMBLY_REF_DES_TOP
100
AcDbText
 10
109.464775
 20
32.951725
 30
0.0
 40
1.0
  1
R28
 50
180.0
  7
GOST_TYPE_B
 72
         1
 11
108.341775
 21
32.458225
 31
0.0
100
AcDbText
 73
         2
  0
TEXT
  5
1F4
100
AcDbEntity
  8
ASSEMBLY_REF_DES_TOP
100
AcDbText
 10
91.769775
 20
74.951725
 30
0.0
 40
1.0
  1
C13
 50
180.0
  7
GOST_TYPE_B
 72
         1
 11
90.841775
 21
74.458225
 31
0.0
100
AcDbText
 73
         2
  0
TEXT
  5
1F5
100
AcDbEntity
  8
ASSEMBLY_REF_DES_TOP
100
AcDbText
 10
108.866275
 20
46.301725
 30
0.0
 40
1.0
  1
R26
 50
180.0
  7
GOST_TYPE_B
 72
         1
 11
107.791775
 21
45.808225
 31
0.0
100
AcDbText
 73
         2
  0
TEXT
  5
1F6
100
AcDbEntity
  8
ASSEMBLY_REF_DES_TOP
100
AcDbText
 10
106.3935
 20
46.725
 30
0.0
 40
1.0
  1
C24
 50
90.0
  7
GOST_TYPE_B
 72
         1
 11
105.9
 21
47.8
 31
0.0
100
AcDbText
 73
         2
  0
TEXT
  5
1F7
100
AcDbEntity
  8
ASSEMBLY_REF_DES_TOP
100
AcDbText
 10
114.0935
 20
94.5275
 30
0.0
 40
1.0
  1
VD3
 50
90.0
  7
GOST_TYPE_B
 72
         1
 11
113.6
 21
95.7
 31
0.0
100
AcDbText
 73
         2
  0
TEXT
  5
1F8
100
AcDbEntity
  8
ASSEMBLY_REF_DES_TOP
100
AcDbText
 10
92.181225
 20
8.745575
 30
0.0
 40
1.0
  1
HL1
 50
90.0
  7
GOST_TYPE_B
 72
         1
 11
91.687725
 21
9.722575
 31
0.0
100
AcDbText
 73
         2
  0
TEXT
  5
1F9
100
AcDbEntity
  8
ASSEMBLY_REF_DES_TOP
100
AcDbText
 10
100.9935
 20
21.874
 30
0.0
 40
1.0
  1
C29
 50
90.0
  7
GOST_TYPE_B
 72
         1
 11
100.5
 21
22.9
 31
0.0
100
AcDbText
 73
         2
  0
TEXT
  5
1FA
100
AcDbEntity
  8
ASSEMBLY_REF_DES_TOP
100
AcDbText
 10
123.5935
 20
105.265
 30
0.0
 40
1.0
  1
R1
 50
90.0
  7
GOST_TYPE_B
 72
         1
 11
123.1
 21
105.9
 31
0.0
100
AcDbText
 73
         2
  0
LWPOLYLINE
  5
1FB
100
AcDbEntity
  8
BOARD_OUTLINE
100
AcDbPolyline
 90
        4
 70
         1
 43
0.25
 10
76.3
 20
2.7
 10
76.3
 20
116.7
 10
137.3
 20
116.7
 10
137.3
 20
2.7
  0
CIRCLE
  5
1FC
100
AcDbEntity
  8
MOUNTING_HOLES_LAYER_TOP
100
AcDbCircle
 10
121.3
 20
23.7
 30
0.0
 40
2.25
  0
HATCH
  5
1FD
100
AcDbEntity
  8
MOUNTING_HOLES_LAYER_TOP
100
AcDbHatch
 10
0.0
 20
0.0
 30
0.0
210
0.0
220
0.0
230
1.0
  2
SOLID
 70
         1
 71
         1
 91
        1
 92
        1
 93
        1
 72
         2
 10
121.3
 20
23.699999999999999
 40
2.25
 50
0.0
 51
360.0
 73
         1
 97
        1
330
1FC
 75
         0
 76
         1
 98
        1
 10
0.0
 20
0.0
  0
CIRCLE
  5
1FE
100
AcDbEntity
  8
MOUNTING_HOLES_LAYER_TOP
100
AcDbCircle
 10
122.0
 20
113.2
 30
0.0
 40
2.25
  0
HATCH
  5
1FF
100
AcDbEntity
  8
MOUNTING_HOLES_LAYER_TOP
100
AcDbHatch
 10
0.0
 20
0.0
 30
0.0
210
0.0
220
0.0
230
1.0
  2
SOLID
 70
         1
 71
         1
 91
        1
 92
        1
 93
        1
 72
         2
 10
122.0
 20
113.2
 40
2.25
 50
0.0
 51
360.0
 73
         1
 97
        1
330
1FE
 75
         0
 76
         1
 98
        1
 10
0.0
 20
0.0
  0
CIRCLE
  5
200
100
AcDbEntity
  8
MOUNTING_HOLES_LAYER_TOP
100
AcDbCircle
 10
87.9
 20
113.6
 30
0.0
 40
2.4
  0
HATCH
  5
201
100
AcDbEntity
  8
MOUNTING_HOLES_LAYER_TOP
100
AcDbHatch
 10
0.0
 20
0.0
 30
0.0
210
0.0
220
0.0
230
1.0
  2
SOLID
 70
         1
 71
         1
 91
        1
 92
        1
 93
        1
 72
         2
 10
87.900000000000006
 20
113.59999999999999
 40
2.3999999999999999
 50
0.0
 51
360.0
 73
         1
 97
        1
330
200
 75
         0
 76
         1
 98
        1
 10
0.0
 20
0.0
  0
CIRCLE
  5
202
100
AcDbEntity
  8
MOUNTING_HOLES_LAYER_TOP
100
AcDbCircle
 10
87.9
 20
6.2
 30
0.0
 40
2.4
  0
HATCH
  5
203
100
AcDbEntity
  8
MOUNTING_HOLES_LAYER_TOP
100
AcDbHatch
 10
0.0
 20
0.0
 30
0.0
210
0.0
220
0.0
230
1.0
  2
SOLID
 70
         1
 71
         1
 91
        1
 92
        1
 93
        1
 72
         2
 10
87.900000000000006
 20
6.2000000000000002
 40
2.3999999999999999
 50
0.0
 51
360.0
 73
         1
 97
        1
330
202
 75
         0
 76
         1
 98
        1
 10
0.0
 20
0.0
  0
CIRCLE
  5
204
100
AcDbEntity
  8
MOUNTING_HOLES_LAYER_TOP
100
AcDbCircle
 10
100.3
 20
109.05
 30
0.0
 40
0.75
  0
HATCH
  5
205
100
AcDbEntity
  8
MOUNTING_HOLES_LAYER_TOP
100
AcDbHatch
 10
0.0
 20
0.0
 30
0.0
210
0.0
220
0.0
230
1.0
  2
SOLID
 70
         1
 71
         1
 91
        1
 92
        1
 93
        1
 72
         2
 10
100.3
 20
109.05
 40
0.75
 50
0.0
 51
360.0
 73
         1
 97
        1
330
204
 75
         0
 76
         1
 98
        1
 10
0.0
 20
0.0
  0
CIRCLE
  5
206
100
AcDbEntity
  8
MOUNTING_HOLES_LAYER_TOP
100
AcDbCircle
 10
100.3
 20
101.55
 30
0.0
 40
0.75
  0
HATCH
  5
207
100
AcDbEntity
  8
MOUNTING_HOLES_LAYER_TOP
100
AcDbHatch
 10
0.0
 20
0.0
 30
0.0
210
0.0
220
0.0
230
1.0
  2
SOLID
 70
         1
 71
         1
 91
        1
 92
        1
 93
        1
 72
         2
 10
100.3
 20
101.55
 40
0.75
 50
0.0
 51
360.0
 73
         1
 97
        1
330
206
 75
         0
 76
         1
 98
        1
 10
0.0
 20
0.0
  0
CIRCLE
  5
208
100
AcDbEntity
  8
MOUNTING_HOLES_LAYER_TOP
100
AcDbCircle
 10
81.0
 20
68.34
 30
0.0
 40
0.9
  0
HATCH
  5
209
100
AcDbEntity
  8
MOUNTING_HOLES_LAYER_TOP
100
AcDbHatch
 10
0.0
 20
0.0
 30
0.0
210
0.0
220
0.0
230
1.0
  2
SOLID
 70
         1
 71
         1
 91
        1
 92
        1
 93
        1
 72
         2
 10
81.0
 20
68.340000000000003
 40
0.9
 50
0.0
 51
360.0
 73
         1
 97
        1
330
208
 75
         0
 76
         1
 98
        1
 10
0.0
 20
0.0
  0
CIRCLE
  5
20A
100
AcDbEntity
  8
MOUNTING_HOLES_LAYER_TOP
100
AcDbCircle
 10
81.0
 20
114.06
 30
0.0
 40
0.9
  0
HATCH
  5
20B
100
AcDbEntity
  8
MOUNTING_HOLES_LAYER_TOP
100
AcDbHatch
 10
0.0
 20
0.0
 30
0.0
210
0.0
220
0.0
230
1.0
  2
SOLID
 70
         1
 71
         1
 91
        1
 92
        1
 93
        1
 72
         2
 10
81.0
 20
114.06
 40
0.9
 50
0.0
 51
360.0
 73
         1
 97
        1
330
20A
 75
         0
 76
         1
 98
        1
 10
0.0
 20
0.0
  0
CIRCLE
  5
20C
100
AcDbEntity
  8
MOUNTING_HOLES_LAYER_TOP
100
AcDbCircle
 10
127.748995
 20
102.251663
 30
0.0
 40
0.75
  0
HATCH
  5
20D
100
AcDbEntity
  8
MOUNTING_HOLES_LAYER_TOP
100
AcDbHatch
 10
0.0
 20
0.0
 30
0.0
210
0.0
220
0.0
230
1.0
  2
SOLID
 70
         1
 71
         1
 91
        1
 92
        1
 93
        1
 72
         2
 10
127.74899499999999
 20
102.25166299999999
 40
0.75
 50
0.0
 51
360.0
 73
         1
 97
        1
330
20C
 75
         0
 76
         1
 98
        1
 10
0.0
 20
0.0
  0
CIRCLE
  5
20E
100
AcDbEntity
  8
MOUNTING_HOLES_LAYER_TOP
100
AcDbCircle
 10
127.748995
 20
92.251663
 30
0.0
 40
0.75
  0
HATCH
  5
20F
100
AcDbEntity
  8
MOUNTING_HOLES_LAYER_TOP
100
AcDbHatch
 10
0.0
 20
0.0
 30
0.0
210
0.0
220
0.0
230
1.0
  2
SOLID
 70
         1
 71
         1
 91
        1
 92
        1
 93
        1
 72
         2
 10
127.74899499999999
 20
92.251662999999994
 40
0.75
 50
0.0
 51
360.0
 73
         1
 97
        1
330
20E
 75
         0
 76
         1
 98
        1
 10
0.0
 20
0.0
  0
CIRCLE
  5
210
100
AcDbEntity
  8
MOUNTING_HOLES_LAYER_TOP
100
AcDbCircle
 10
81.0
 20
5.24
 30
0.0
 40
0.9
  0
HATCH
  5
211
100
AcDbEntity
  8
MOUNTING_HOLES_LAYER_TOP
100
AcDbHatch
 10
0.0
 20
0.0
 30
0.0
210
0.0
220
0.0
230
1.0
  2
SOLID
 70
         1
 71
         1
 91
        1
 92
        1
 93
        1
 72
         2
 10
81.0
 20
5.2400000000000002
 40
0.9
 50
0.0
 51
360.0
 73
         1
 97
        1
330
210
 75
         0
 76
         1
 98
        1
 10
0.0
 20
0.0
  0
CIRCLE
  5
212
100
AcDbEntity
  8
MOUNTING_HOLES_LAYER_TOP
100
AcDbCircle
 10
81.0
 20
50.96
 30
0.0
 40
0.9
  0
HATCH
  5
213
100
AcDbEntity
  8
MOUNTING_HOLES_LAYER_TOP
100
AcDbHatch
 10
0.0
 20
0.0
 30
0.0
210
0.0
220
0.0
230
1.0
  2
SOLID
 70
         1
 71
         1
 91
        1
 92
        1
 93
        1
 72
         2
 10
81.0
 20
50.960000000000001
 40
0.9
 50
0.0
 51
360.0
 73
         1
 97
        1
330
212
 75
         0
 76
         1
 98
        1
 10
0.0
 20
0.0
  0
CIRCLE
  5
214
100
AcDbEntity
  8
MOUNTING_HOLES_LAYER_TOP
100
AcDbCircle
 10
128.05
 20
18.11
 30
0.0
 40
1.625
  0
HATCH
  5
215
100
AcDbEntity
  8
MOUNTING_HOLES_LAYER_TOP
100
AcDbHatch
 10
0.0
 20
0.0
 30
0.0
210
0.0
220
0.0
230
1.0
  2
SOLID
 70
         1
 71
         1
 91
        1
 92
        1
 93
        1
 72
         2
 10
128.05000000000001
 20
18.109999999999999
 40
1.625
 50
0.0
 51
360.0
 73
         1
 97
        1
330
214
 75
         0
 76
         1
 98
        1
 10
0.0
 20
0.0
  0
CIRCLE
  5
216
100
AcDbEntity
  8
MOUNTING_HOLES_LAYER_TOP
100
AcDbCircle
 10
128.05
 20
6.69
 30
0.0
 40
1.625
  0
HATCH
  5
217
100
AcDbEntity
  8
MOUNTING_HOLES_LAYER_TOP
100
AcDbHatch
 10
0.0
 20
0.0
 30
0.0
210
0.0
220
0.0
230
1.0
  2
SOLID
 70
         1
 71
         1
 91
        1
 92
        1
 93
        1
 72
         2
 10
128.05000000000001
 20
6.6900000000000004
 40
1.625
 50
0.0
 51
360.0
 73
         1
 97
        1
330
216
 75
         0
 76
         1
 98
        1
 10
0.0
 20
0.0
  0
ENDSEC
  0
SECTION
  2
OBJECTS
  0
DICTIONARY
  5
19
100
AcDbDictionary
  3
ACAD_GROUP
350
1A
  3
ACAD_MLINESTYLE
350
1B
  0
DICTIONARY
  5
1A
102
{ACAD_REACTORS
330
19
102
}
100
AcDbDictionary
  0
DICTIONARY
  5
1B
102
{ACAD_REACTORS
330
19
102
}
100
AcDbDictionary
  3
STANDARD
350
1C
  0
MLINESTYLE
  5
1C
102
{ACAD_REACTORS
330
1B
102
}
100
AcDbMlineStyle
  2
STANDARD
 70
         0
  3

 62
         0
 51
90.0
 52
90.0
 71
         2
 49
0.5
 62
       256
  6
BYLAYER
 49
-0.5
 62
       256
  6
BYLAYER
  0
DICTIONARY
  5
22
102
{ACAD_REACTORS
330
19
102
}
100
AcDbDictionary
  0
ENDSEC
  0
EOF
