  0
SECTION
  2
HEADER
  9
$ACADVER
  1
AC1014
  9
$ACADMAINTVER
 70
         0
  9
$DWGCODEPAGE
  3
ANSI_1252
  9
$INSBASE
 10
0.0
 20
0.0
 30
0.0
  9
$EXTMIN
 10
0.0
 20
-12.127406
 30
0.0
  9
$EXTMAX
 10
178.6096
 20
108.6096
 30
0.0
  9
$LIMMIN
 10
0.0
 20
0.0
  9
$LIMMAX
 10
0.0
 20
0.0
  9
$ORTHOMODE
 70
         0
  9
$REGENMODE
 70
         1
  9
$FILLMODE
 70
         1
  9
$QTEXTMODE
 70
         0
  9
$MIRRTEXT
 70
         1
  9
$DRAGMODE
 70
         2
  9
$LTSCALE
 40
1.0
  9
$OSMODE
 70
         0
  9
$ATTMODE
 70
         1
  9
$TEXTSIZE
 40
0.2
  9
$TRACEWID
 40
0.05
  9
$TEXTSTYLE
  7
STANDARD
  9
$CLAYER
  8
0
  9
$CELTYPE
  6
CONTINUOUS
  9
$CECOLOR
 62
       256
  9
$CELTSCALE
 40
1.0
  9
$DELOBJ
 70
         1
  9
$DISPSILH
 70
         0
  9
$DIMSCALE
 40
1.0
  9
$DIMASZ
 40
0.18
  9
$DIMEXO
 40
0.0625
  9
$DIMDLI
 40
0.38
  9
$DIMRND
 40
0.0
  9
$DIMDLE
 40
0.0
  9
$DIMEXE
 40
0.18
  9
$DIMTP
 40
0.0
  9
$DIMTM
 40
0.0
  9
$DIMTXT
 40
0.18
  9
$DIMCEN
 40
0.09
  9
$DIMTSZ
 40
0.0
  9
$DIMTOL
 70
         0
  9
$DIMLIM
 70
         0
  9
$DIMTIH
 70
         1
  9
$DIMTOH
 70
         1
  9
$DIMSE1
 70
         0
  9
$DIMSE2
 70
         0
  9
$DIMTAD
 70
         0
  9
$DIMZIN
 70
         0
  9
$DIMBLK
  1

  9
$DIMASO
 70
         1
  9
$DIMSHO
 70
         1
  9
$DIMPOST
  1

  9
$DIMAPOST
  1

  9
$DIMALT
 70
         0
  9
$DIMALTD
 70
         2
  9
$DIMALTF
 40
25.4
  9
$DIMLFAC
 40
1.0
  9
$DIMTOFL
 70
         0
  9
$DIMTVP
 40
0.0
  9
$DIMTIX
 70
         0
  9
$DIMSOXD
 70
         0
  9
$DIMSAH
 70
         0
  9
$DIMBLK1
  1

  9
$DIMBLK2
  1

  9
$DIMSTYLE
  2
STANDARD
  9
$DIMCLRD
 70
         0
  9
$DIMCLRE
 70
         0
  9
$DIMCLRT
 70
         0
  9
$DIMTFAC
 40
1.0
  9
$DIMGAP
 40
0.09
  9
$DIMJUST
 70
         0
  9
$DIMSD1
 70
         0
  9
$DIMSD2
 70
         0
  9
$DIMTOLJ
 70
         1
  9
$DIMTZIN
 70
         0
  9
$DIMALTZ
 70
         0
  9
$DIMALTTZ
 70
         0
  9
$DIMFIT
 70
         3
  9
$DIMUPT
 70
         0
  9
$DIMUNIT
 70
         2
  9
$DIMDEC
 70
         4
  9
$DIMTDEC
 70
         4
  9
$DIMALTU
 70
         2
  9
$DIMALTTD
 70
         2
  9
$DIMTXSTY
  7
STANDARD
  9
$DIMAUNIT
 70
         0
  9
$LUNITS
 70
         2
  9
$LUPREC
 70
         4
  9
$SKETCHINC
 40
0.1
  9
$FILLETRAD
 40
0.0
  9
$AUNITS
 70
         0
  9
$AUPREC
 70
         0
  9
$MENU
  1
acad
  9
$ELEVATION
 40
0.0
  9
$PELEVATION
 40
0.0
  9
$THICKNESS
 40
0.0
  9
$LIMCHECK
 70
         0
  9
$BLIPMODE
 70
         1
  9
$CHAMFERA
 40
0.0
  9
$CHAMFERB
 40
0.0
  9
$CHAMFERC
 40
0.0
  9
$CHAMFERD
 40
0.0
  9
$SKPOLY
 70
         0
  9
$TDCREATE
 40
2456028.596620370
  9
$TDUPDATE
 40
0.000000000
  9
$TDINDWG
 40
0.0000000000
  9
$TDUSRTIMER
 40
0.0000000000
  9
$USRTIMER
 70
         1
  9
$ANGBASE
 50
0.0
  9
$ANGDIR
 70
         0
  9
$PDMODE
 70
         0
  9
$PDSIZE
 40
0.0
  9
$PLINEWID
 40
0.0
  9
$COORDS
 70
         0
  9
$SPLFRAME
 70
         0
  9
$SPLINETYPE
 70
         6
  9
$SPLINESEGS
 70
         8
  9
$ATTDIA
 70
         0
  9
$ATTREQ
 70
         1
  9
$HANDLING
 70
         1
  9
$HANDSEED
  5
275
  9
$SURFTAB1
 70
         6
  9
$SURFTAB2
 70
         6
  9
$SURFTYPE
 70
         6
  9
$SURFU
 70
         6
  9
$SURFV
 70
         6
  9
$UCSNAME
  2

  9
$UCSORG
 10
0.0
 20
0.0
 30
0.0
  9
$UCSXDIR
 10
1.0
 20
0.0
 30
0.0
  9
$UCSYDIR
 10
0.0
 20
1.0
 30
0.0
  9
$PUCSNAME
  2

  9
$PUCSORG
 10
0.0
 20
0.0
 30
0.0
  9
$PUCSXDIR
 10
1.0
 20
0.0
 30
0.0
  9
$PUCSYDIR
 10
0.0
 20
1.0
 30
0.0
  9
$USERI1
 70
        -3
  9
$USERI2
 70
         0
  9
$USERI3
 70
         0
  9
$USERI4
 70
         0
  9
$USERI5
 70
         0
  9
$USERR1
 40
0.0
  9
$USERR2
 40
0.0
  9
$USERR3
 40
0.0
  9
$USERR4
 40
0.0
  9
$USERR5
 40
0.0
  9
$WORLDVIEW
 70
         1
  9
$SHADEDGE
 70
         3
  9
$SHADEDIF
 70
        70
  9
$TILEMODE
 70
         1
  9
$MAXACTVP
 70
        16
  9
$PINSBASE
 10
0.0
 20
0.0
 30
0.0
  9
$PLIMCHECK
 70
         0
  9
$PEXTMIN
 10
1.0000000000E+20
 20
1.0000000000E+20
 30
1.0000000000E+20
  9
$PEXTMAX
 10
-1.0000000000E+20
 20
-1.0000000000E+20
 30
-1.0000000000E+20
  9
$PLIMMIN
 10
0.0
 20
0.0
  9
$PLIMMAX
 10
12.0
 20
9.0
  9
$UNITMODE
 70
         0
  9
$VISRETAIN
 70
         0
  9
$PLINEGEN
 70
         1
  9
$PSLTSCALE
 70
         0
  9
$TREEDEPTH
 70
      3020
  9
$PICKSTYLE
 70
         1
  9
$CMLSTYLE
  2
STANDARD
  9
$CMLJUST
 70
         0
  9
$CMLSCALE
 40
1.0
  9
$PROXYGRAPHICS
 70
         0
  9
$MEASUREMENT
 70
         0
  0
ENDSEC
  0
SECTION
  2
CLASSES
  0
CLASS
  1
LWPOLYLINE
  2
AcDbPolyline
  3
"AutoCAD"
 90
        0
280
         0
281
         1
  0
CLASS
  1
IMAGE
  2
AcDbRasterImage
  3
ISM
 90
      127
280
         0
281
         1
  0
CLASS
  1
OLE2FRAME
  2
AcDbOle2Frame
  3
""
 90
        0
280
         0
281
         1
  0
CLASS
  1
HATCH
  2
AcDbHatch
  3
"ACAD_SEDONA"
 90
        0
280
         0
281
         1
  0
CLASS
  1
DICTIONARYVAR
  2
AcDbDictionaryVar
  3
"AutoCAD"
 90
        0
280
         0
281
         0
  0
CLASS
  1
RASTERVARIABLES
  2
AcDbRasterVariables
  3
ISM
 90
        0
280
         0
281
         0
  0
CLASS
  1
IMAGEDEF
  2
AcDbRasterImageDef
  3
ISM
 90
        0
280
         0
281
         0
  0
CLASS
  1
IMAGEDEF_REACTOR
  2
AcDbRasterImageDefReactor
  3
ISM
 90
        1
280
         0
281
         0
  0
CLASS
  1
IDBUFFER
  2
AcDbIdBuffer
  3
"Acad"
 90
        0
280
         0
281
         0
  0
CLASS
  1
SPATIAL_FILTER
  2
AcDbSpatialFilter
  3
"Acad"
 90
        0
280
         0
281
         0
  0
CLASS
  1
XRECORD
  2
AcDbXrecord
  3
"<Built In>"
 90
        0
280
         0
281
         0
  0
CLASS
  1
SORTENTSTABLE
  2
AcDbSortentsTable
  3
"AutoCAD"
 90
        0
280
         0
281
         0
  0
CLASS
  1
LAYER_INDEX
  2
AcDbLayerIndex
  3
"Acad"
 90
        0
280
         0
281
         0
  0
CLASS
  1
SPATIAL_INDEX
  2
AcDbSpatialIndex
  3
"Acad"
 90
        0
280
         0
281
         0
  0
CLASS
  1
OBJECT_PTR
  2
CAseDLPNTableRecord
  3
"ASE-LPNTableRecord"
 90
        1
280
         0
281
         0
  0
CLASS
  1
LAYOUT
  2
AcDbLayout
  3
"AutoCAD 2000"
 90
        0
280
         0
281
         0
  0
CLASS
  1
PLOTSETTINGS
  2
AcDbPlotSettings
  3
"AutoCAD 2000"
 90
        0
280
         0
281
         0
  0
CLASS
  1
ACDBDICTIONARYWDFLT
  2
AcDbDictionaryWithDefault
  3
"AutoCAD 2000"
 90
        0
280
         0
281
         0
  0
CLASS
  1
ACDBPLACEHOLDER
  2
AcDbPlaceHolder
  3
"AutoCAD 2000"
 90
        0
280
         0
281
         0
  0
CLASS
  1
VBA_PROJECT
  2
AcDbVbaProject
  3
"acadvba"
 90
        0
280
         0
281
         0
  0
CLASS
  1
WIPEOUT
  2
AcDbWipeout
  3
WipeOut|AutoCAD Express Tool|expresstools@autodesk.com
 90
      127
280
         0
281
         1
  0
CLASS
  1
WIPEOUTVARIABLES
  2
AcDbWipeoutVariables
  3
WipeOut|AutoCAD Express Tool|expresstools@autodesk.com
 90
        0
280
         0
281
         0
  0
CLASS
  1
RTEXT
  2
RText
  3
RText|AutoCAD Express Tool|expresstools@autodesk.com
 90
        0
280
         0
281
         1
  0
CLASS
  1
ARCALIGNEDTEXT
  2
AcDbArcAlignedText
  3
ATEXT|AutoCAD Express Tool|expresstools@autodesk.com
 90
        0
280
         0
281
         1
  0
ENDSEC
  0
SECTION
  2
TABLES
  0
TABLE
  2
VPORT
  5
7
100
AcDbSymbolTable
 70
         1
  0
VPORT
  5
15
100
AcDbSymbolTableRecord
100
AcDbViewportTableRecord
  2
*ACTIVE
 70
         0
 10
0.0
 20
0.0
 11
1.0
 21
1.0
 12
6.591288
 22
4.579184
 13
0.0
 23
0.0
 14
1.0
 24
1.0
 15
0.0
 25
0.0
 16
0.0
 26
0.0
 36
1.0
 17
0.0
 27
0.0
 37
0.0
 40
9.158369
 41
0.688564
 42
50.0
 43
0.0
 44
0.0
 50
0.0
 51
0.0
 71
         0
 72
       100
 73
         1
 74
         1
 75
         0
 76
         0
 77
         0
 78
         0
  0
ENDTAB
  0
TABLE
  2
LTYPE
  5
4
100
AcDbSymbolTable
 70
         3
  0
LTYPE
  5
11
100
AcDbSymbolTableRecord
100
AcDbLinetypeTableRecord
  2
BYBLOCK
 70
        64
  3

 72
        65
 73
         0
 40
0.0
  0
LTYPE
  5
12
100
AcDbSymbolTableRecord
100
AcDbLinetypeTableRecord
  2
BYLAYER
 70
        64
  3

 72
        65
 73
         0
 40
0.0
  0
LTYPE
  5
13
100
AcDbSymbolTableRecord
100
AcDbLinetypeTableRecord
  2
CONTINUOUS
 70
        64
  3
Solid line
 72
        65
 73
         0
 40
0.0
  0
ENDTAB
  0
TABLE
  2
LAYER
  5
2
100
AcDbSymbolTable
 70
         6
  0
LAYER
  5
14
100
AcDbSymbolTableRecord
100
AcDbLayerTableRecord
  2
0
 70
         0
 62
         7
  6
CONTINUOUS
  0
LAYER
  5
24
100
AcDbSymbolTableRecord
100
AcDbLayerTableRecord
  2
ASSEMBLY_OUTLINES_TOP
 70
         0
 62
       102
  6
CONTINUOUS
  0
LAYER
  5
25
100
AcDbSymbolTableRecord
100
AcDbLayerTableRecord
  2
ASSEMBLY_REF_DES_TOP
 70
         0
 62
       102
  6
CONTINUOUS
  0
LAYER
  5
26
100
AcDbSymbolTableRecord
100
AcDbLayerTableRecord
  2
BOARD_OUTLINE
 70
         0
 62
        10
  6
CONTINUOUS
  0
LAYER
  5
27
100
AcDbSymbolTableRecord
100
AcDbLayerTableRecord
  2
MOUNTING_HOLES_LAYER_TOP
 70
         0
 62
        42
  6
CONTINUOUS
  0
LAYER
  5
28
100
AcDbSymbolTableRecord
100
AcDbLayerTableRecord
  2
PART_HOLES_LAYER_TOP
 70
         0
 62
        30
  6
CONTINUOUS
  0
ENDTAB
  0
TABLE
  2
STYLE
  5
3
100
AcDbSymbolTable
 70
         4
  0
STYLE
  5
17
100
AcDbSymbolTableRecord
100
AcDbTextStyleTableRecord
  2
STANDARD
 70
         0
 40
0.0
 41
1.0
 50
0.0
 71
         0
 42
0.0
  3
txt
  4

  0
STYLE
  5
79
100
AcDbSymbolTableRecord
100
AcDbTextStyleTableRecord
  2
VERIBEST_GERBER_0
 70
         0
 40
0.0
 41
1.0
 50
0.0
 71
         0
 42
0.0
  3
C:\Windows\Fonts\VBest0.ttf
  4

  0
STYLE
  5
7C
100
AcDbSymbolTableRecord
100
AcDbTextStyleTableRecord
  2
VERIBEST_GERBER_1
 70
         0
 40
0.0
 41
1.0
 50
0.0
 71
         0
 42
0.0
  3
C:\Windows\Fonts\VBest1.ttf
  4

  0
STYLE
  5
D3
100
AcDbSymbolTableRecord
100
AcDbTextStyleTableRecord
  2
GOST_TYPE_B
 70
         0
 40
0.0
 41
1.0
 50
0.0
 71
         0
 42
0.0
  3
gost_2.ttf
  4

  0
ENDTAB
  0
TABLE
  2
VIEW
  5
5
100
AcDbSymbolTable
 70
         0
  0
ENDTAB
  0
TABLE
  2
UCS
  5
6
100
AcDbSymbolTable
 70
         0
  0
ENDTAB
  0
TABLE
  2
APPID
  5
8
100
AcDbSymbolTable
 70
         1
  0
APPID
  5
16
100
AcDbSymbolTableRecord
100
AcDbRegAppTableRecord
  2
ACAD
 70
         0
  0
ENDTAB
  0
TABLE
  2
DIMSTYLE
  5
9
100
AcDbSymbolTable
 70
         1
  0
DIMSTYLE
105
18
100
AcDbSymbolTableRecord
100
AcDbDimStyleTableRecord
  2
STANDARD
 70
         0
  3

  4

  5

  6

  7

 40
1.0
 41
0.18
 42
0.0625
 43
0.38
 44
0.18
 45
0.0
 46
0.0
 47
0.0
 48
0.0
 71
         0
 72
         0
 73
         1
 74
         1
 75
         0
 76
         0
 77
         0
 78
         0
140
0.18
141
0.09
142
0.0
143
25.4
144
1.0
145
0.0
146
1.0
147
0.09
170
         0
171
         2
172
         0
173
         0
174
         0
175
         0
176
         0
177
         0
178
         0
270
         2
271
         4
272
         4
273
         2
274
         2
275
         0
280
         0
281
         0
282
         0
283
         1
284
         0
285
         0
286
         0
287
         3
288
         0
340
17
  0
ENDTAB
  0
TABLE
  2
BLOCK_RECORD
  5
1
100
AcDbSymbolTable
 70
         0
  0
BLOCK_RECORD
  5
A
100
AcDbSymbolTableRecord
100
AcDbBlockTableRecord
  2
*MODEL_SPACE
  0
BLOCK_RECORD
  5
B
100
AcDbSymbolTableRecord
100
AcDbBlockTableRecord
  2
*PAPER_SPACE
  0
ENDTAB
  0
ENDSEC
  0
SECTION
  2
BLOCKS
  0
BLOCK
  5
D
100
AcDbEntity
  8
0
100
AcDbBlockBegin
  2
*MODEL_SPACE
 70
         0
 10
0.0
 20
0.0
 30
0.0
  3
*MODEL_SPACE
  1

  0
ENDBLK
  5
E
100
AcDbEntity
  8
0
100
AcDbBlockEnd
  0
BLOCK
  5
F
100
AcDbEntity
 67
         1
  8
0
100
AcDbBlockBegin
  2
*PAPER_SPACE
 70
         0
 10
0.0
 20
0.0
 30
0.0
  3
*PAPER_SPACE
  1

  0
ENDBLK
  5
10
100
AcDbEntity
 67
         1
  8
0
100
AcDbBlockEnd
  0
ENDSEC
  0
SECTION
  2
ENTITIES
  0
LWPOLYLINE
  5
29
100
AcDbEntity
  8
ASSEMBLY_OUTLINES_TOP
100
AcDbPolyline
 90
        3
 70
         1
 10
178.0
 20
-7.5
 10
177.4285
 20
-6.357
 10
178.5715
 20
-6.357
  0
HATCH
  5
2A
100
AcDbEntity
  8
ASSEMBLY_OUTLINES_TOP
100
AcDbHatch
 10
0.0
 20
0.0
 30
0.0
210
0.0
220
0.0
230
1.0
  2
SOLID
 70
         1
 71
         1
 91
        1
 92
        2
 72
         0
 73
         1
 93
        3
 10
178.0
 20
-7.5
 10
177.42850000000001
 20
-6.3570000000000002
 10
178.57149999999999
 20
-6.3570000000000002
 97
        1
330
29
 75
         0
 76
         1
 98
        1
 10
0.0
 20
0.0
  0
LWPOLYLINE
  5
2B
100
AcDbEntity
  8
ASSEMBLY_OUTLINES_TOP
100
AcDbPolyline
 90
        3
 70
         1
 10
178.0
 20
100.5
 10
178.571499
 20
99.357
 10
177.4285
 20
99.357001
  0
HATCH
  5
2C
100
AcDbEntity
  8
ASSEMBLY_OUTLINES_TOP
100
AcDbHatch
 10
0.0
 20
0.0
 30
0.0
210
0.0
220
0.0
230
1.0
  2
SOLID
 70
         1
 71
         1
 91
        1
 92
        2
 72
         0
 73
         1
 93
        3
 10
178.0
 20
100.5
 10
178.57149899999999
 20
99.356999999999999
 10
177.42850000000001
 20
99.357000999999997
 97
        1
330
2B
 75
         0
 76
         1
 98
        1
 10
0.0
 20
0.0
  0
LWPOLYLINE
  5
2D
100
AcDbEntity
  8
ASSEMBLY_OUTLINES_TOP
100
AcDbPolyline
 90
        2
 70
         0
 43
0.2032
 10
178.0
 20
43.14666
 10
178.0
 20
-6.9285
  0
LWPOLYLINE
  5
2E
100
AcDbEntity
  8
ASSEMBLY_OUTLINES_TOP
100
AcDbPolyline
 90
        2
 70
         0
 43
0.2032
 10
178.0
 20
99.9285
 10
178.0
 20
49.85334
  0
LWPOLYLINE
  5
2F
100
AcDbEntity
  8
ASSEMBLY_OUTLINES_TOP
100
AcDbPolyline
 90
        2
 70
         0
 43
0.2032
 10
165.008
 20
-7.5
 10
178.508
 20
-7.5
  0
LWPOLYLINE
  5
30
100
AcDbEntity
  8
ASSEMBLY_OUTLINES_TOP
100
AcDbPolyline
 90
        2
 70
         0
 43
0.2032
 10
165.008
 20
100.5
 10
178.508
 20
100.5
  0
LWPOLYLINE
  5
31
100
AcDbEntity
  8
ASSEMBLY_OUTLINES_TOP
100
AcDbPolyline
 90
        3
 70
         1
 10
164.5
 20
108.0
 10
163.357
 20
107.428501
 10
163.357001
 20
108.5715
  0
HATCH
  5
32
100
AcDbEntity
  8
ASSEMBLY_OUTLINES_TOP
100
AcDbHatch
 10
0.0
 20
0.0
 30
0.0
210
0.0
220
0.0
230
1.0
  2
SOLID
 70
         1
 71
         1
 91
        1
 92
        2
 72
         0
 73
         1
 93
        3
 10
164.5
 20
108.0
 10
163.357
 20
107.428501
 10
163.357001
 20
108.5715
 97
        1
330
31
 75
         0
 76
         1
 98
        1
 10
0.0
 20
0.0
  0
LWPOLYLINE
  5
33
100
AcDbEntity
  8
ASSEMBLY_OUTLINES_TOP
100
AcDbPolyline
 90
        3
 70
         1
 10
82.5
 20
108.0
 10
83.643
 20
108.5715
 10
83.643
 20
107.4285
  0
HATCH
  5
34
100
AcDbEntity
  8
ASSEMBLY_OUTLINES_TOP
100
AcDbHatch
 10
0.0
 20
0.0
 30
0.0
210
0.0
220
0.0
230
1.0
  2
SOLID
 70
         1
 71
         1
 91
        1
 92
        2
 72
         0
 73
         1
 93
        3
 10
82.5
 20
108.0
 10
83.643000000000001
 20
108.5715
 10
83.643000000000001
 20
107.4285
 97
        1
330
33
 75
         0
 76
         1
 98
        1
 10
0.0
 20
0.0
  0
LWPOLYLINE
  5
35
100
AcDbEntity
  8
ASSEMBLY_OUTLINES_TOP
100
AcDbPolyline
 90
        2
 70
         0
 43
0.2032
 10
126.246597
 20
108.0
 10
163.9285
 20
108.0
  0
LWPOLYLINE
  5
36
100
AcDbEntity
  8
ASSEMBLY_OUTLINES_TOP
100
AcDbPolyline
 90
        2
 70
         0
 43
0.2032
 10
83.0715
 20
108.0
 10
120.753403
 20
108.0
  0
LWPOLYLINE
  5
37
100
AcDbEntity
  8
ASSEMBLY_OUTLINES_TOP
100
AcDbPolyline
 90
        2
 70
         0
 43
0.2032
 10
164.5
 20
101.008
 10
164.5
 20
108.508
  0
LWPOLYLINE
  5
38
100
AcDbEntity
  8
ASSEMBLY_OUTLINES_TOP
100
AcDbPolyline
 90
        2
 70
         0
 43
0.2032
 10
82.5
 20
101.008
 10
82.5
 20
108.508
  0
LWPOLYLINE
  5
39
100
AcDbEntity
  8
ASSEMBLY_OUTLINES_TOP
100
AcDbPolyline
 90
        2
 70
         0
 43
0.2032
 10
81.992
 20
100.5
 10
76.692
 20
100.5
  0
LWPOLYLINE
  5
3A
100
AcDbEntity
  8
ASSEMBLY_OUTLINES_TOP
100
AcDbPolyline
 90
        2
 70
         0
 43
0.2032
 10
85.992
 20
88.8
 10
76.692
 20
88.8
  0
LWPOLYLINE
  5
3B
100
AcDbEntity
  8
ASSEMBLY_OUTLINES_TOP
100
AcDbPolyline
 90
        2
 70
         0
 43
0.2032
 10
77.2
 20
99.9285
 10
77.2
 20
98.362718
  0
LWPOLYLINE
  5
3C
100
AcDbEntity
  8
ASSEMBLY_OUTLINES_TOP
100
AcDbPolyline
 90
        2
 70
         0
 43
0.2032
 10
77.2
 20
90.937282
 10
77.2
 20
89.3715
  0
LWPOLYLINE
  5
3D
100
AcDbEntity
  8
ASSEMBLY_OUTLINES_TOP
100
AcDbPolyline
 90
        3
 70
         1
 10
77.2
 20
100.5
 10
77.771499
 20
99.357
 10
76.6285
 20
99.357001
  0
HATCH
  5
3E
100
AcDbEntity
  8
ASSEMBLY_OUTLINES_TOP
100
AcDbHatch
 10
0.0
 20
0.0
 30
0.0
210
0.0
220
0.0
230
1.0
  2
SOLID
 70
         1
 71
         1
 91
        1
 92
        2
 72
         0
 73
         1
 93
        3
 10
77.200000000000003
 20
100.5
 10
77.771499000000006
 20
99.356999999999999
 10
76.628500000000003
 20
99.357000999999997
 97
        1
330
3D
 75
         0
 76
         1
 98
        1
 10
0.0
 20
0.0
  0
LWPOLYLINE
  5
3F
100
AcDbEntity
  8
ASSEMBLY_OUTLINES_TOP
100
AcDbPolyline
 90
        3
 70
         1
 10
77.2
 20
88.8
 10
76.6285
 20
89.943
 10
77.7715
 20
89.943
  0
HATCH
  5
40
100
AcDbEntity
  8
ASSEMBLY_OUTLINES_TOP
100
AcDbHatch
 10
0.0
 20
0.0
 30
0.0
210
0.0
220
0.0
230
1.0
  2
SOLID
 70
         1
 71
         1
 91
        1
 92
        2
 72
         0
 73
         1
 93
        3
 10
77.200000000000003
 20
88.799999999999997
 10
76.628500000000003
 20
89.942999999999998
 10
77.771500000000003
 20
89.942999999999998
 97
        1
330
3F
 75
         0
 76
         1
 98
        1
 10
0.0
 20
0.0
  0
LWPOLYLINE
  5
41
100
AcDbEntity
  8
ASSEMBLY_OUTLINES_TOP
100
AcDbPolyline
 90
        2
 70
         0
 43
0.2032
 10
82.5
 20
101.008
 10
82.5
 20
104.908
  0
LWPOLYLINE
  5
42
100
AcDbEntity
  8
ASSEMBLY_OUTLINES_TOP
100
AcDbPolyline
 90
        2
 70
         0
 43
0.2032
 10
86.5
 20
89.308
 10
86.5
 20
104.908
  0
LWPOLYLINE
  5
43
100
AcDbEntity
  8
ASSEMBLY_OUTLINES_TOP
100
AcDbPolyline
 90
        2
 70
         0
 43
0.2032
 10
81.9285
 20
104.4
 10
79.6425
 20
104.4
  0
LWPOLYLINE
  5
44
100
AcDbEntity
  8
ASSEMBLY_OUTLINES_TOP
100
AcDbPolyline
 90
        2
 70
         0
 43
0.2032
 10
87.0715
 20
104.4
 10
89.3575
 20
104.4
  0
LWPOLYLINE
  5
45
100
AcDbEntity
  8
ASSEMBLY_OUTLINES_TOP
100
AcDbPolyline
 90
        3
 70
         1
 10
82.5
 20
104.4
 10
81.357
 20
103.828501
 10
81.357001
 20
104.9715
  0
HATCH
  5
46
100
AcDbEntity
  8
ASSEMBLY_OUTLINES_TOP
100
AcDbHatch
 10
0.0
 20
0.0
 30
0.0
210
0.0
220
0.0
230
1.0
  2
SOLID
 70
         1
 71
         1
 91
        1
 92
        2
 72
         0
 73
         1
 93
        3
 10
82.5
 20
104.40000000000001
 10
81.356999999999999
 20
103.828501
 10
81.357000999999997
 20
104.97150000000001
 97
        1
330
45
 75
         0
 76
         1
 98
        1
 10
0.0
 20
0.0
  0
LWPOLYLINE
  5
47
100
AcDbEntity
  8
ASSEMBLY_OUTLINES_TOP
100
AcDbPolyline
 90
        3
 70
         1
 10
86.5
 20
104.4
 10
87.643
 20
104.9715
 10
87.643
 20
103.8285
  0
HATCH
  5
48
100
AcDbEntity
  8
ASSEMBLY_OUTLINES_TOP
100
AcDbHatch
 10
0.0
 20
0.0
 30
0.0
210
0.0
220
0.0
230
1.0
  2
SOLID
 70
         1
 71
         1
 91
        1
 92
        2
 72
         0
 73
         1
 93
        3
 10
86.5
 20
104.40000000000001
 10
87.643000000000001
 20
104.97150000000001
 10
87.643000000000001
 20
103.82850000000001
 97
        1
330
47
 75
         0
 76
         1
 98
        1
 10
0.0
 20
0.0
  0
LWPOLYLINE
  5
49
100
AcDbEntity
  8
ASSEMBLY_OUTLINES_TOP
100
AcDbPolyline
 90
        2
 70
         0
 43
0.2032
 10
82.5
 20
-8.008
 10
82.5
 20
-11.808
  0
LWPOLYLINE
  5
4A
100
AcDbEntity
  8
ASSEMBLY_OUTLINES_TOP
100
AcDbPolyline
 90
        2
 70
         0
 43
0.2032
 10
86.5
 20
-4.008
 10
86.5
 20
-11.808
  0
LWPOLYLINE
  5
4B
100
AcDbEntity
  8
ASSEMBLY_OUTLINES_TOP
100
AcDbPolyline
 90
        2
 70
         0
 43
0.2032
 10
81.9285
 20
-11.3
 10
79.6425
 20
-11.3
  0
LWPOLYLINE
  5
4C
100
AcDbEntity
  8
ASSEMBLY_OUTLINES_TOP
100
AcDbPolyline
 90
        2
 70
         0
 43
0.2032
 10
87.0715
 20
-11.3
 10
89.3575
 20
-11.3
  0
LWPOLYLINE
  5
4D
100
AcDbEntity
  8
ASSEMBLY_OUTLINES_TOP
100
AcDbPolyline
 90
        3
 70
         1
 10
82.5
 20
-11.3
 10
81.357
 20
-11.871499
 10
81.357001
 20
-10.7285
  0
HATCH
  5
4E
100
AcDbEntity
  8
ASSEMBLY_OUTLINES_TOP
100
AcDbHatch
 10
0.0
 20
0.0
 30
0.0
210
0.0
220
0.0
230
1.0
  2
SOLID
 70
         1
 71
         1
 91
        1
 92
        2
 72
         0
 73
         1
 93
        3
 10
82.5
 20
-11.300000000000001
 10
81.356999999999999
 20
-11.871499
 10
81.357000999999997
 20
-10.7285
 97
        1
330
4D
 75
         0
 76
         1
 98
        1
 10
0.0
 20
0.0
  0
LWPOLYLINE
  5
4F
100
AcDbEntity
  8
ASSEMBLY_OUTLINES_TOP
100
AcDbPolyline
 90
        3
 70
         1
 10
86.5
 20
-11.3
 10
87.643
 20
-10.7285
 10
87.643
 20
-11.8715
  0
HATCH
  5
50
100
AcDbEntity
  8
ASSEMBLY_OUTLINES_TOP
100
AcDbHatch
 10
0.0
 20
0.0
 30
0.0
210
0.0
220
0.0
230
1.0
  2
SOLID
 70
         1
 71
         1
 91
        1
 92
        2
 72
         0
 73
         1
 93
        3
 10
86.5
 20
-11.300000000000001
 10
87.643000000000001
 20
-10.7285
 10
87.643000000000001
 20
-11.871499999999999
 97
        1
330
4F
 75
         0
 76
         1
 98
        1
 10
0.0
 20
0.0
  0
LWPOLYLINE
  5
51
100
AcDbEntity
  8
ASSEMBLY_OUTLINES_TOP
100
AcDbPolyline
 90
        2
 70
         0
 43
0.2032
 10
161.008
 20
-3.5
 10
169.608
 20
-3.5
  0
LWPOLYLINE
  5
52
100
AcDbEntity
  8
ASSEMBLY_OUTLINES_TOP
100
AcDbPolyline
 90
        2
 70
         0
 43
0.2032
 10
165.008
 20
-7.5
 10
169.608
 20
-7.5
  0
LWPOLYLINE
  5
53
100
AcDbEntity
  8
ASSEMBLY_OUTLINES_TOP
100
AcDbPolyline
 90
        2
 70
         0
 43
0.2032
 10
169.1
 20
-2.9285
 10
169.1
 20
-0.6425
  0
LWPOLYLINE
  5
54
100
AcDbEntity
  8
ASSEMBLY_OUTLINES_TOP
100
AcDbPolyline
 90
        2
 70
         0
 43
0.2032
 10
169.1
 20
-8.0715
 10
169.1
 20
-10.3575
  0
LWPOLYLINE
  5
55
100
AcDbEntity
  8
ASSEMBLY_OUTLINES_TOP
100
AcDbPolyline
 90
        3
 70
         1
 10
169.1
 20
-3.5
 10
168.5285
 20
-2.357
 10
169.6715
 20
-2.357
  0
HATCH
  5
56
100
AcDbEntity
  8
ASSEMBLY_OUTLINES_TOP
100
AcDbHatch
 10
0.0
 20
0.0
 30
0.0
210
0.0
220
0.0
230
1.0
  2
SOLID
 70
         1
 71
         1
 91
        1
 92
        2
 72
         0
 73
         1
 93
        3
 10
169.09999999999999
 20
-3.5
 10
168.52850000000001
 20
-2.3570000000000002
 10
169.67150000000001
 20
-2.3570000000000002
 97
        1
330
55
 75
         0
 76
         1
 98
        1
 10
0.0
 20
0.0
  0
LWPOLYLINE
  5
57
100
AcDbEntity
  8
ASSEMBLY_OUTLINES_TOP
100
AcDbPolyline
 90
        3
 70
         1
 10
169.1
 20
-7.5
 10
169.671499
 20
-8.643
 10
168.5285
 20
-8.642999
  0
HATCH
  5
58
100
AcDbEntity
  8
ASSEMBLY_OUTLINES_TOP
100
AcDbHatch
 10
0.0
 20
0.0
 30
0.0
210
0.0
220
0.0
230
1.0
  2
SOLID
 70
         1
 71
         1
 91
        1
 92
        2
 72
         0
 73
         1
 93
        3
 10
169.09999999999999
 20
-7.5
 10
169.67149900000001
 20
-8.6430000000000007
 10
168.52850000000001
 20
-8.6429989999999997
 97
        1
330
57
 75
         0
 76
         1
 98
        1
 10
0.0
 20
0.0
  0
LWPOLYLINE
  5
59
100
AcDbEntity
  8
ASSEMBLY_OUTLINES_TOP
100
AcDbPolyline
 90
        2
 70
         0
 43
0.2032
 10
160.5
 20
-4.008
 10
160.5
 20
-12.025806
  0
LWPOLYLINE
  5
5A
100
AcDbEntity
  8
ASSEMBLY_OUTLINES_TOP
100
AcDbPolyline
 90
        2
 70
         0
 43
0.2032
 10
164.5
 20
-8.008
 10
164.5
 20
-12.025806
  0
LWPOLYLINE
  5
5B
100
AcDbEntity
  8
ASSEMBLY_OUTLINES_TOP
100
AcDbPolyline
 90
        2
 70
         0
 43
0.2032
 10
159.9285
 20
-11.517806
 10
157.6425
 20
-11.517806
  0
LWPOLYLINE
  5
5C
100
AcDbEntity
  8
ASSEMBLY_OUTLINES_TOP
100
AcDbPolyline
 90
        2
 70
         0
 43
0.2032
 10
165.0715
 20
-11.517806
 10
167.3575
 20
-11.517806
  0
LWPOLYLINE
  5
5D
100
AcDbEntity
  8
ASSEMBLY_OUTLINES_TOP
100
AcDbPolyline
 90
        3
 70
         1
 10
160.5
 20
-11.517806
 10
159.357
 20
-12.089305
 10
159.357001
 20
-10.946306
  0
HATCH
  5
5E
100
AcDbEntity
  8
ASSEMBLY_OUTLINES_TOP
100
AcDbHatch
 10
0.0
 20
0.0
 30
0.0
210
0.0
220
0.0
230
1.0
  2
SOLID
 70
         1
 71
         1
 91
        1
 92
        2
 72
         0
 73
         1
 93
        3
 10
160.5
 20
-11.517806
 10
159.357
 20
-12.089305
 10
159.357001
 20
-10.946306
 97
        1
330
5D
 75
         0
 76
         1
 98
        1
 10
0.0
 20
0.0
  0
LWPOLYLINE
  5
5F
100
AcDbEntity
  8
ASSEMBLY_OUTLINES_TOP
100
AcDbPolyline
 90
        3
 70
         1
 10
164.5
 20
-11.517806
 10
165.643
 20
-10.946306
 10
165.643
 20
-12.089306
  0
HATCH
  5
60
100
AcDbEntity
  8
ASSEMBLY_OUTLINES_TOP
100
AcDbHatch
 10
0.0
 20
0.0
 30
0.0
210
0.0
220
0.0
230
1.0
  2
SOLID
 70
         1
 71
         1
 91
        1
 92
        2
 72
         0
 73
         1
 93
        3
 10
164.5
 20
-11.517806
 10
165.643
 20
-10.946306
 10
165.643
 20
-12.089306000000001
 97
        1
330
5F
 75
         0
 76
         1
 98
        1
 10
0.0
 20
0.0
  0
LWPOLYLINE
  5
61
100
AcDbEntity
  8
ASSEMBLY_OUTLINES_TOP
100
AcDbPolyline
 90
        2
 70
         0
 43
0.2032
 10
160.5
 20
97.008
 10
160.5
 20
104.408
  0
LWPOLYLINE
  5
62
100
AcDbEntity
  8
ASSEMBLY_OUTLINES_TOP
100
AcDbPolyline
 90
        2
 70
         0
 43
0.2032
 10
164.5
 20
101.008
 10
164.5
 20
104.408
  0
LWPOLYLINE
  5
63
100
AcDbEntity
  8
ASSEMBLY_OUTLINES_TOP
100
AcDbPolyline
 90
        2
 70
         0
 43
0.2032
 10
159.9285
 20
103.9
 10
157.6425
 20
103.9
  0
LWPOLYLINE
  5
64
100
AcDbEntity
  8
ASSEMBLY_OUTLINES_TOP
100
AcDbPolyline
 90
        2
 70
         0
 43
0.2032
 10
165.0715
 20
103.9
 10
167.3575
 20
103.9
  0
LWPOLYLINE
  5
65
100
AcDbEntity
  8
ASSEMBLY_OUTLINES_TOP
100
AcDbPolyline
 90
        3
 70
         1
 10
160.5
 20
103.9
 10
159.357
 20
103.328501
 10
159.357001
 20
104.4715
  0
HATCH
  5
66
100
AcDbEntity
  8
ASSEMBLY_OUTLINES_TOP
100
AcDbHatch
 10
0.0
 20
0.0
 30
0.0
210
0.0
220
0.0
230
1.0
  2
SOLID
 70
         1
 71
         1
 91
        1
 92
        2
 72
         0
 73
         1
 93
        3
 10
160.5
 20
103.90000000000001
 10
159.357
 20
103.328501
 10
159.357001
 20
104.47150000000001
 97
        1
330
65
 75
         0
 76
         1
 98
        1
 10
0.0
 20
0.0
  0
LWPOLYLINE
  5
67
100
AcDbEntity
  8
ASSEMBLY_OUTLINES_TOP
100
AcDbPolyline
 90
        3
 70
         1
 10
164.5
 20
103.9
 10
165.643
 20
104.4715
 10
165.643
 20
103.3285
  0
HATCH
  5
68
100
AcDbEntity
  8
ASSEMBLY_OUTLINES_TOP
100
AcDbHatch
 10
0.0
 20
0.0
 30
0.0
210
0.0
220
0.0
230
1.0
  2
SOLID
 70
         1
 71
         1
 91
        1
 92
        2
 72
         0
 73
         1
 93
        3
 10
164.5
 20
103.90000000000001
 10
165.643
 20
104.47150000000001
 10
165.643
 20
103.32850000000001
 97
        1
330
67
 75
         0
 76
         1
 98
        1
 10
0.0
 20
0.0
  0
LWPOLYLINE
  5
69
100
AcDbEntity
  8
ASSEMBLY_OUTLINES_TOP
100
AcDbPolyline
 90
        2
 70
         0
 43
0.2032
 10
165.008
 20
100.5
 10
169.708
 20
100.5
  0
LWPOLYLINE
  5
6A
100
AcDbEntity
  8
ASSEMBLY_OUTLINES_TOP
100
AcDbPolyline
 90
        2
 70
         0
 43
0.2032
 10
161.008
 20
96.5
 10
169.708
 20
96.5
  0
LWPOLYLINE
  5
6B
100
AcDbEntity
  8
ASSEMBLY_OUTLINES_TOP
100
AcDbPolyline
 90
        2
 70
         0
 43
0.2032
 10
169.2
 20
101.0715
 10
169.2
 20
103.3575
  0
LWPOLYLINE
  5
6C
100
AcDbEntity
  8
ASSEMBLY_OUTLINES_TOP
100
AcDbPolyline
 90
        2
 70
         0
 43
0.2032
 10
169.2
 20
95.9285
 10
169.2
 20
93.6425
  0
LWPOLYLINE
  5
6D
100
AcDbEntity
  8
ASSEMBLY_OUTLINES_TOP
100
AcDbPolyline
 90
        3
 70
         1
 10
169.2
 20
100.5
 10
168.6285
 20
101.643
 10
169.7715
 20
101.643
  0
HATCH
  5
6E
100
AcDbEntity
  8
ASSEMBLY_OUTLINES_TOP
100
AcDbHatch
 10
0.0
 20
0.0
 30
0.0
210
0.0
220
0.0
230
1.0
  2
SOLID
 70
         1
 71
         1
 91
        1
 92
        2
 72
         0
 73
         1
 93
        3
 10
169.19999999999999
 20
100.5
 10
168.6285
 20
101.643
 10
169.7715
 20
101.643
 97
        1
330
6D
 75
         0
 76
         1
 98
        1
 10
0.0
 20
0.0
  0
LWPOLYLINE
  5
6F
100
AcDbEntity
  8
ASSEMBLY_OUTLINES_TOP
100
AcDbPolyline
 90
        3
 70
         1
 10
169.2
 20
96.5
 10
169.771499
 20
95.357
 10
168.6285
 20
95.357001
  0
HATCH
  5
70
100
AcDbEntity
  8
ASSEMBLY_OUTLINES_TOP
100
AcDbHatch
 10
0.0
 20
0.0
 30
0.0
210
0.0
220
0.0
230
1.0
  2
SOLID
 70
         1
 71
         1
 91
        1
 92
        2
 72
         0
 73
         1
 93
        3
 10
169.19999999999999
 20
96.5
 10
169.77149900000001
 20
95.356999999999999
 10
168.6285
 20
95.357000999999997
 97
        1
330
6F
 75
         0
 76
         1
 98
        1
 10
0.0
 20
0.0
  0
LWPOLYLINE
  5
71
100
AcDbEntity
  8
ASSEMBLY_OUTLINES_TOP
100
AcDbPolyline
 90
        2
 70
         0
 43
0.2032
 10
85.992
 20
-3.5
 10
78.792
 20
-3.5
  0
LWPOLYLINE
  5
72
100
AcDbEntity
  8
ASSEMBLY_OUTLINES_TOP
100
AcDbPolyline
 90
        2
 70
         0
 43
0.2032
 10
81.992
 20
-7.5
 10
78.792
 20
-7.5
  0
LWPOLYLINE
  5
73
100
AcDbEntity
  8
ASSEMBLY_OUTLINES_TOP
100
AcDbPolyline
 90
        2
 70
         0
 43
0.2032
 10
79.3
 20
-2.9285
 10
79.3
 20
-0.6425
  0
LWPOLYLINE
  5
74
100
AcDbEntity
  8
ASSEMBLY_OUTLINES_TOP
100
AcDbPolyline
 90
        2
 70
         0
 43
0.2032
 10
79.3
 20
-8.0715
 10
79.3
 20
-10.3575
  0
LWPOLYLINE
  5
75
100
AcDbEntity
  8
ASSEMBLY_OUTLINES_TOP
100
AcDbPolyline
 90
        3
 70
         1
 10
79.3
 20
-3.5
 10
78.7285
 20
-2.357
 10
79.8715
 20
-2.357
  0
HATCH
  5
76
100
AcDbEntity
  8
ASSEMBLY_OUTLINES_TOP
100
AcDbHatch
 10
0.0
 20
0.0
 30
0.0
210
0.0
220
0.0
230
1.0
  2
SOLID
 70
         1
 71
         1
 91
        1
 92
        2
 72
         0
 73
         1
 93
        3
 10
79.299999999999997
 20
-3.5
 10
78.728499999999997
 20
-2.3570000000000002
 10
79.871499999999997
 20
-2.3570000000000002
 97
        1
330
75
 75
         0
 76
         1
 98
        1
 10
0.0
 20
0.0
  0
LWPOLYLINE
  5
77
100
AcDbEntity
  8
ASSEMBLY_OUTLINES_TOP
100
AcDbPolyline
 90
        3
 70
         1
 10
79.3
 20
-7.5
 10
79.871499
 20
-8.643
 10
78.7285
 20
-8.642999
  0
HATCH
  5
78
100
AcDbEntity
  8
ASSEMBLY_OUTLINES_TOP
100
AcDbHatch
 10
0.0
 20
0.0
 30
0.0
210
0.0
220
0.0
230
1.0
  2
SOLID
 70
         1
 71
         1
 91
        1
 92
        2
 72
         0
 73
         1
 93
        3
 10
79.299999999999997
 20
-7.5
 10
79.871499
 20
-8.6430000000000007
 10
78.728499999999997
 20
-8.6429989999999997
 97
        1
330
77
 75
         0
 76
         1
 98
        1
 10
0.0
 20
0.0
  0
TEXT
  5
7A
100
AcDbEntity
  8
ASSEMBLY_OUTLINES_TOP
100
AcDbText
 10
178.635
 20
43.530105
 30
0.0
 40
1.27
  1
108mm
 50
90.0
  7
VERIBEST_GERBER_0
 72
         1
 11
178.0
 21
46.5
 31
0.0
100
AcDbText
 73
         2
  0
TEXT
  5
7B
100
AcDbEntity
  8
ASSEMBLY_OUTLINES_TOP
100
AcDbText
 10
121.107955
 20
107.365
 30
0.0
 40
1.27
  1
82mm
  7
VERIBEST_GERBER_0
 72
         1
 11
123.5
 21
108.0
 31
0.0
100
AcDbText
 73
         2
  0
TEXT
  5
7D
100
AcDbEntity
  8
ASSEMBLY_OUTLINES_TOP
100
AcDbText
 10
77.835
 20
91.33784
 30
0.0
 40
1.27
  1
11.7mm
 50
90.0
  7
VERIBEST_GERBER_1
 72
         1
 11
77.2
 21
94.65
 31
0.0
100
AcDbText
 73
         2
  0
TEXT
  5
7E
100
AcDbEntity
  8
ASSEMBLY_OUTLINES_TOP
100
AcDbText
 10
75.823896
 20
103.765
 30
0.0
 40
1.27
  1
4mm
  7
VERIBEST_GERBER_1
 72
         1
 11
77.621581
 21
104.4
 31
0.0
100
AcDbText
 73
         2
  0
TEXT
  5
7F
100
AcDbEntity
  8
ASSEMBLY_OUTLINES_TOP
100
AcDbText
 10
75.823896
 20
-11.935
 30
0.0
 40
1.27
  1
4mm
  7
VERIBEST_GERBER_1
 72
         1
 11
77.621581
 21
-11.3
 31
0.0
100
AcDbText
 73
         2
  0
TEXT
  5
80
100
AcDbEntity
  8
ASSEMBLY_OUTLINES_TOP
100
AcDbText
 10
169.643166
 20
-14.544614
 30
0.0
 40
1.27
  1
4mm
 50
90.0
  7
VERIBEST_GERBER_1
 72
         1
 11
169.008166
 21
-12.746929
 31
0.0
100
AcDbText
 73
         2
  0
TEXT
  5
81
100
AcDbEntity
  8
ASSEMBLY_OUTLINES_TOP
100
AcDbText
 10
153.823896
 20
-12.152806
 30
0.0
 40
1.27
  1
4mm
  7
VERIBEST_GERBER_1
 72
         1
 11
155.621581
 21
-11.517806
 31
0.0
100
AcDbText
 73
         2
  0
TEXT
  5
82
100
AcDbEntity
  8
ASSEMBLY_OUTLINES_TOP
100
AcDbText
 10
153.823896
 20
103.265
 30
0.0
 40
1.27
  1
4mm
  7
VERIBEST_GERBER_1
 72
         1
 11
155.621581
 21
103.9
 31
0.0
100
AcDbText
 73
         2
  0
TEXT
  5
83
100
AcDbEntity
  8
ASSEMBLY_OUTLINES_TOP
100
AcDbText
 10
169.835
 20
103.580734
 30
0.0
 40
1.27
  1
4mm
 50
90.0
  7
VERIBEST_GERBER_1
 72
         1
 11
169.2
 21
105.378419
 31
0.0
100
AcDbText
 73
         2
  0
TEXT
  5
84
100
AcDbEntity
  8
ASSEMBLY_OUTLINES_TOP
100
AcDbText
 10
79.935
 20
-0.419266
 30
0.0
 40
1.27
  1
4mm
 50
90.0
  7
VERIBEST_GERBER_1
 72
         1
 11
79.3
 21
1.378419
 31
0.0
100
AcDbText
 73
         2
  0
LWPOLYLINE
  5
85
100
AcDbEntity
  8
ASSEMBLY_OUTLINES_TOP
100
AcDbPolyline
 90
        4
 70
         1
 10
142.776915
 20
16.890213
 10
142.776915
 20
49.890213
 10
151.476915
 20
49.890213
 10
151.476915
 20
16.890213
  0
LWPOLYLINE
  5
86
100
AcDbEntity
  8
ASSEMBLY_OUTLINES_TOP
100
AcDbPolyline
 90
        4
 70
         1
 10
142.776915
 20
30.320213
 10
142.776915
 20
36.820213
 10
143.356915
 20
36.820213
 10
143.356915
 20
30.320213
  0
LWPOLYLINE
  5
87
100
AcDbEntity
  8
ASSEMBLY_OUTLINES_TOP
100
AcDbPolyline
 90
        4
 70
         1
 10
85.457583
 20
92.835611
 10
85.457583
 20
97.835611
 10
136.357583
 20
97.835611
 10
136.357583
 20
92.835611
  0
LWPOLYLINE
  5
88
100
AcDbEntity
  8
ASSEMBLY_OUTLINES_TOP
100
AcDbPolyline
 90
        4
 70
         1
 43
0.1
 10
140.635
 20
88.598
 10
140.635
 20
94.818
 10
147.365
 20
94.818
 10
147.365
 20
88.598
  0
LWPOLYLINE
  5
89
100
AcDbEntity
  8
ASSEMBLY_OUTLINES_TOP
100
AcDbPolyline
 90
        4
 70
         1
 10
158.79
 20
48.13
 10
158.79
 20
50.67
 10
163.87
 20
50.67
 10
163.87
 20
48.13
  0
LWPOLYLINE
  5
8A
100
AcDbEntity
  8
ASSEMBLY_OUTLINES_TOP
100
AcDbPolyline
 90
        4
 70
         1
 43
0.1
 10
118.277944
 20
15.012796
 10
118.277944
 20
22.012796
 10
125.277944
 20
22.012796
 10
125.277944
 20
15.012796
  0
LWPOLYLINE
  5
8B
100
AcDbEntity
  8
ASSEMBLY_OUTLINES_TOP
100
AcDbPolyline
 90
        2
 70
         1
 43
0.1
 10
123.777944
 20
21.012796
 42
-1.0
 10
124.777944
 20
21.012796
 42
-1.0
  0
LWPOLYLINE
  5
8C
100
AcDbEntity
  8
ASSEMBLY_OUTLINES_TOP
100
AcDbPolyline
 90
        4
 70
         1
 43
0.1
 10
87.8
 20
6.1
 10
87.8
 20
10.1
 10
92.8
 20
10.1
 10
92.8
 20
6.1
  0
LWPOLYLINE
  5
8D
100
AcDbEntity
  8
ASSEMBLY_OUTLINES_TOP
100
AcDbPolyline
 90
        2
 70
         1
 43
0.1
 10
91.3
 20
9.1
 42
-1.0
 10
92.3
 20
9.1
 42
-1.0
  0
LWPOLYLINE
  5
8E
100
AcDbEntity
  8
ASSEMBLY_OUTLINES_TOP
100
AcDbPolyline
 90
        8
 70
         0
 10
117.1
 20
74.0
 42
-2.549150321
 10
117.1
 20
84.2
 10
117.1
 20
86.1
 10
119.1
 20
86.1
 10
119.1
 20
72.1
 10
117.1
 20
72.1
 10
117.1
 20
74.0
 10
117.1
 20
73.9
  0
LWPOLYLINE
  5
8F
100
AcDbEntity
  8
ASSEMBLY_OUTLINES_TOP
100
AcDbPolyline
 90
        4
 70
         1
 43
0.1
 10
108.742299
 20
39.329735
 10
108.742299
 20
59.329735
 10
128.742299
 20
59.329735
 10
128.742299
 20
39.329735
  0
LWPOLYLINE
  5
90
100
AcDbEntity
  8
ASSEMBLY_OUTLINES_TOP
100
AcDbPolyline
 90
        2
 70
         1
 43
0.1
 10
127.242299
 20
40.329735
 42
-1.0
 10
128.242299
 20
40.329735
 42
-1.0
  0
LWPOLYLINE
  5
91
100
AcDbEntity
  8
ASSEMBLY_OUTLINES_TOP
100
AcDbPolyline
 90
        4
 70
         1
 10
151.532315
 20
84.056537
 10
151.532315
 20
93.056537
 10
166.032315
 20
93.056537
 10
166.032315
 20
84.056537
  0
LWPOLYLINE
  5
92
100
AcDbEntity
  8
ASSEMBLY_OUTLINES_TOP
100
AcDbPolyline
 90
        4
 70
         1
 43
0.1
 10
105.959474
 20
11.766678
 10
105.959474
 20
19.466678
 10
111.239474
 20
19.466678
 10
111.239474
 20
11.766678
  0
LWPOLYLINE
  5
93
100
AcDbEntity
  8
ASSEMBLY_OUTLINES_TOP
100
AcDbPolyline
 90
        2
 70
         0
 43
0.1
 10
111.239474
 20
11.866678
 10
111.139474
 20
11.766678
  0
LWPOLYLINE
  5
94
100
AcDbEntity
  8
ASSEMBLY_OUTLINES_TOP
100
AcDbPolyline
 90
        2
 70
         0
 43
0.1
 10
111.239474
 20
11.966678
 10
111.039474
 20
11.766678
  0
LWPOLYLINE
  5
95
100
AcDbEntity
  8
ASSEMBLY_OUTLINES_TOP
100
AcDbPolyline
 90
        2
 70
         0
 43
0.1
 10
111.239474
 20
12.066678
 10
110.939474
 20
11.766678
  0
LWPOLYLINE
  5
96
100
AcDbEntity
  8
ASSEMBLY_OUTLINES_TOP
100
AcDbPolyline
 90
        2
 70
         0
 43
0.1
 10
111.239474
 20
12.166678
 10
110.839474
 20
11.766678
  0
LWPOLYLINE
  5
97
100
AcDbEntity
  8
ASSEMBLY_OUTLINES_TOP
100
AcDbPolyline
 90
        2
 70
         0
 43
0.1
 10
111.239474
 20
12.266678
 10
110.739474
 20
11.766678
  0
LWPOLYLINE
  5
98
100
AcDbEntity
  8
ASSEMBLY_OUTLINES_TOP
100
AcDbPolyline
 90
        2
 70
         0
 43
0.1
 10
111.239474
 20
12.366678
 10
110.639474
 20
11.766678
  0
LWPOLYLINE
  5
99
100
AcDbEntity
  8
ASSEMBLY_OUTLINES_TOP
100
AcDbPolyline
 90
        6
 70
         1
 43
0.1
 10
142.45
 20
77.8
 10
144.1
 20
76.15
 10
144.1
 20
71.2
 10
137.5
 20
71.2
 10
137.5
 20
76.15
 10
139.15
 20
77.8
  0
LWPOLYLINE
  5
9A
100
AcDbEntity
  8
ASSEMBLY_OUTLINES_TOP
100
AcDbPolyline
 90
        4
 70
         1
 43
0.1
 10
138.85
 20
66.65
 10
138.85
 20
68.35
 10
141.95
 20
68.35
 10
141.95
 20
66.65
  0
LWPOLYLINE
  5
9B
100
AcDbEntity
  8
ASSEMBLY_OUTLINES_TOP
100
AcDbPolyline
 90
        2
 70
         0
 43
0.1
 10
138.95
 20
66.65
 10
138.95
 20
68.35
  0
LWPOLYLINE
  5
9C
100
AcDbEntity
  8
ASSEMBLY_OUTLINES_TOP
100
AcDbPolyline
 90
        2
 70
         0
 43
0.1
 10
139.05
 20
66.65
 10
139.05
 20
68.35
  0
LWPOLYLINE
  5
9D
100
AcDbEntity
  8
ASSEMBLY_OUTLINES_TOP
100
AcDbPolyline
 90
        2
 70
         0
 43
0.1
 10
139.15
 20
66.65
 10
139.15
 20
68.35
  0
LWPOLYLINE
  5
9E
100
AcDbEntity
  8
ASSEMBLY_OUTLINES_TOP
100
AcDbPolyline
 90
        2
 70
         0
 43
0.1
 10
139.25
 20
66.65
 10
139.25
 20
68.35
  0
LWPOLYLINE
  5
9F
100
AcDbEntity
  8
ASSEMBLY_OUTLINES_TOP
100
AcDbPolyline
 90
        2
 70
         0
 43
0.1
 10
139.35
 20
66.65
 10
139.35
 20
68.35
  0
LWPOLYLINE
  5
A0
100
AcDbEntity
  8
ASSEMBLY_OUTLINES_TOP
100
AcDbPolyline
 90
        2
 70
         0
 43
0.1
 10
139.45
 20
66.65
 10
139.45
 20
68.35
  0
LWPOLYLINE
  5
A1
100
AcDbEntity
  8
ASSEMBLY_OUTLINES_TOP
100
AcDbPolyline
 90
        4
 70
         1
 10
88.49
 20
-0.67
 10
88.49
 20
1.87
 10
93.57
 20
1.87
 10
93.57
 20
-0.67
  0
LWPOLYLINE
  5
A2
100
AcDbEntity
  8
ASSEMBLY_OUTLINES_TOP
100
AcDbPolyline
 90
        4
 70
         1
 43
0.1
 10
135.634805
 20
24.177645
 10
135.634805
 20
34.177645
 10
139.634805
 20
34.177645
 10
139.634805
 20
24.177645
  0
LWPOLYLINE
  5
A3
100
AcDbEntity
  8
ASSEMBLY_OUTLINES_TOP
100
AcDbPolyline
 90
        2
 70
         1
 43
0.1
 10
138.134805
 20
25.177645
 42
-1.0
 10
139.134805
 20
25.177645
 42
-1.0
  0
LWPOLYLINE
  5
A4
100
AcDbEntity
  8
ASSEMBLY_OUTLINES_TOP
100
AcDbPolyline
 90
        4
 70
         1
 10
142.03
 20
49.99
 10
142.03
 20
57.49
 10
144.57
 20
57.49
 10
144.57
 20
49.99
  0
LWPOLYLINE
  5
A5
100
AcDbEntity
  8
ASSEMBLY_OUTLINES_TOP
100
AcDbPolyline
 90
        6
 70
         1
 43
0.1
 10
136.55
 20
87.0
 10
138.2
 20
85.35
 10
138.2
 20
80.4
 10
131.6
 20
80.4
 10
131.6
 20
85.35
 10
133.25
 20
87.0
  0
LWPOLYLINE
  5
A6
100
AcDbEntity
  8
ASSEMBLY_OUTLINES_TOP
100
AcDbPolyline
 90
        4
 70
         1
 10
149.620469
 20
71.489351
 10
149.620469
 20
83.489351
 10
165.570469
 20
83.489351
 10
165.570469
 20
71.489351
  0
LWPOLYLINE
  5
A7
100
AcDbEntity
  8
ASSEMBLY_OUTLINES_TOP
100
AcDbPolyline
 90
        4
 70
         1
 10
82.4
 20
71.2
 10
82.4
 20
84.6
 10
94.5
 20
84.6
 10
94.5
 20
71.2
  0
LWPOLYLINE
  5
A8
100
AcDbEntity
  8
ASSEMBLY_OUTLINES_TOP
100
AcDbPolyline
 90
        4
 70
         1
 10
75.4
 20
72.9
 10
75.4
 20
83.9
 10
82.4
 20
83.9
 10
82.4
 20
72.9
  0
LWPOLYLINE
  5
A9
100
AcDbEntity
  8
ASSEMBLY_OUTLINES_TOP
100
AcDbPolyline
 90
        4
 70
         1
 43
0.1
 10
145.4
 20
75.0
 10
145.4
 20
80.6
 10
149.2
 20
80.6
 10
149.2
 20
75.0
  0
LWPOLYLINE
  5
AA
100
AcDbEntity
  8
ASSEMBLY_OUTLINES_TOP
100
AcDbPolyline
 90
        2
 70
         0
 43
0.1
 10
149.2
 20
75.1
 10
145.4
 20
75.1
  0
LWPOLYLINE
  5
AB
100
AcDbEntity
  8
ASSEMBLY_OUTLINES_TOP
100
AcDbPolyline
 90
        2
 70
         0
 43
0.1
 10
149.2
 20
75.2
 10
145.4
 20
75.2
  0
LWPOLYLINE
  5
AC
100
AcDbEntity
  8
ASSEMBLY_OUTLINES_TOP
100
AcDbPolyline
 90
        2
 70
         0
 43
0.1
 10
149.2
 20
75.3
 10
145.4
 20
75.3
  0
LWPOLYLINE
  5
AD
100
AcDbEntity
  8
ASSEMBLY_OUTLINES_TOP
100
AcDbPolyline
 90
        2
 70
         0
 43
0.1
 10
149.2
 20
75.4
 10
145.4
 20
75.4
  0
LWPOLYLINE
  5
AE
100
AcDbEntity
  8
ASSEMBLY_OUTLINES_TOP
100
AcDbPolyline
 90
        2
 70
         0
 43
0.1
 10
149.2
 20
75.5
 10
145.4
 20
75.5
  0
LWPOLYLINE
  5
AF
100
AcDbEntity
  8
ASSEMBLY_OUTLINES_TOP
100
AcDbPolyline
 90
        2
 70
         0
 43
0.1
 10
149.2
 20
75.6
 10
145.4
 20
75.6
  0
LWPOLYLINE
  5
B0
100
AcDbEntity
  8
ASSEMBLY_OUTLINES_TOP
100
AcDbPolyline
 90
        2
 70
         0
 43
0.1
 10
149.2
 20
75.7
 10
145.4
 20
75.7
  0
LWPOLYLINE
  5
B1
100
AcDbEntity
  8
ASSEMBLY_OUTLINES_TOP
100
AcDbPolyline
 90
        2
 70
         0
 43
0.1
 10
149.2
 20
75.8
 10
145.4
 20
75.8
  0
LWPOLYLINE
  5
B2
100
AcDbEntity
  8
ASSEMBLY_OUTLINES_TOP
100
AcDbPolyline
 90
        2
 70
         0
 10
136.071994
 20
53.934646
 10
136.071994
 20
61.434646
  0
LWPOLYLINE
  5
B3
100
AcDbEntity
  8
ASSEMBLY_OUTLINES_TOP
100
AcDbPolyline
 90
        2
 70
         0
 10
132.071994
 20
53.934646
 10
132.071994
 20
61.434646
  0
LWPOLYLINE
  5
B4
100
AcDbEntity
  8
ASSEMBLY_OUTLINES_TOP
100
AcDbPolyline
 90
        2
 70
         0
 10
136.071994
 20
61.434646
 42
1.0
 10
132.071994
 20
61.434646
  0
LWPOLYLINE
  5
B5
100
AcDbEntity
  8
ASSEMBLY_OUTLINES_TOP
100
AcDbPolyline
 90
        2
 70
         0
 10
132.071994
 20
53.934646
 42
1.0
 10
136.071994
 20
53.934646
  0
LWPOLYLINE
  5
B6
100
AcDbEntity
  8
ASSEMBLY_OUTLINES_TOP
100
AcDbPolyline
 90
        4
 70
         1
 10
140.65
 20
-0.1
 10
140.65
 20
15.9
 10
166.05
 20
15.9
 10
166.05
 20
-0.1
  0
LWPOLYLINE
  5
B7
100
AcDbEntity
  8
ASSEMBLY_OUTLINES_TOP
100
AcDbPolyline
 90
        4
 70
         1
 43
0.1
 10
109.05
 20
6.2
 10
109.05
 20
9.2
 10
112.75
 20
9.2
 10
112.75
 20
6.2
  0
LWPOLYLINE
  5
B8
100
AcDbEntity
  8
ASSEMBLY_OUTLINES_TOP
100
AcDbPolyline
 90
        2
 70
         0
 43
0.1
 10
109.15
 20
6.2
 10
109.15
 20
9.2
  0
LWPOLYLINE
  5
B9
100
AcDbEntity
  8
ASSEMBLY_OUTLINES_TOP
100
AcDbPolyline
 90
        2
 70
         0
 43
0.1
 10
109.25
 20
6.2
 10
109.25
 20
9.2
  0
LWPOLYLINE
  5
BA
100
AcDbEntity
  8
ASSEMBLY_OUTLINES_TOP
100
AcDbPolyline
 90
        2
 70
         0
 43
0.1
 10
109.35
 20
6.2
 10
109.35
 20
9.2
  0
LWPOLYLINE
  5
BB
100
AcDbEntity
  8
ASSEMBLY_OUTLINES_TOP
100
AcDbPolyline
 90
        2
 70
         0
 43
0.1
 10
109.45
 20
6.2
 10
109.45
 20
9.2
  0
LWPOLYLINE
  5
BC
100
AcDbEntity
  8
ASSEMBLY_OUTLINES_TOP
100
AcDbPolyline
 90
        2
 70
         0
 43
0.1
 10
109.55
 20
6.2
 10
109.55
 20
9.2
  0
LWPOLYLINE
  5
BD
100
AcDbEntity
  8
ASSEMBLY_OUTLINES_TOP
100
AcDbPolyline
 90
        2
 70
         0
 43
0.1
 10
109.65
 20
6.2
 10
109.65
 20
9.2
  0
LWPOLYLINE
  5
BE
100
AcDbEntity
  8
ASSEMBLY_OUTLINES_TOP
100
AcDbPolyline
 90
        2
 70
         0
 43
0.1
 10
109.75
 20
6.2
 10
109.75
 20
9.2
  0
LWPOLYLINE
  5
BF
100
AcDbEntity
  8
ASSEMBLY_OUTLINES_TOP
100
AcDbPolyline
 90
        2
 70
         0
 43
0.1
 10
109.85
 20
6.2
 10
109.85
 20
9.2
  0
LWPOLYLINE
  5
C0
100
AcDbEntity
  8
ASSEMBLY_OUTLINES_TOP
100
AcDbPolyline
 90
        4
 70
         1
 10
96.003596
 20
7.955462
 10
96.003596
 20
33.455462
 10
101.003596
 20
33.455462
 10
101.003596
 20
7.955462
  0
LWPOLYLINE
  5
C1
100
AcDbEntity
  8
ASSEMBLY_OUTLINES_TOP
100
AcDbPolyline
 90
        4
 70
         1
 10
96.21
 20
-5.17
 10
96.21
 20
-2.63
 10
103.71
 20
-2.63
 10
103.71
 20
-5.17
  0
CIRCLE
  5
C2
100
AcDbEntity
  8
ASSEMBLY_OUTLINES_TOP
100
AcDbCircle
 10
134.914696
 20
49.689144
 30
0.0
 40
2.0
  0
LWPOLYLINE
  5
C3
100
AcDbEntity
  8
ASSEMBLY_OUTLINES_TOP
100
AcDbPolyline
 90
        4
 70
         1
 10
145.25
 20
56.5
 10
145.25
 20
61.5
 10
151.55
 20
61.5
 10
151.55
 20
56.5
  0
LWPOLYLINE
  5
C4
100
AcDbEntity
  8
ASSEMBLY_OUTLINES_TOP
100
AcDbPolyline
 90
        4
 70
         1
 10
84.359485
 20
17.075609
 10
84.359485
 20
67.975609
 10
89.359485
 20
67.975609
 10
89.359485
 20
17.075609
  0
LWPOLYLINE
  5
C5
100
AcDbEntity
  8
ASSEMBLY_OUTLINES_TOP
100
AcDbPolyline
 90
        4
 70
         1
 10
152.04
 20
52.86
 10
152.04
 20
66.06
 10
166.04
 20
66.06
 10
166.04
 20
52.86
  0
LWPOLYLINE
  5
C6
100
AcDbEntity
  8
ASSEMBLY_OUTLINES_TOP
100
AcDbPolyline
 90
        4
 70
         1
 10
151.89
 20
48.13
 10
151.89
 20
50.67
 10
156.97
 20
50.67
 10
156.97
 20
48.13
  0
LWPOLYLINE
  5
C7
100
AcDbEntity
  8
ASSEMBLY_OUTLINES_TOP
100
AcDbPolyline
 90
        4
 70
         1
 10
158.09
 20
67.53
 10
158.09
 20
70.07
 10
163.17
 20
70.07
 10
163.17
 20
67.53
  0
LWPOLYLINE
  5
C8
100
AcDbEntity
  8
ASSEMBLY_OUTLINES_TOP
100
AcDbPolyline
 90
        4
 70
         1
 43
0.1
 10
147.2
 20
66.8
 10
147.2
 20
70.6
 10
152.8
 20
70.6
 10
152.8
 20
66.8
  0
LWPOLYLINE
  5
C9
100
AcDbEntity
  8
ASSEMBLY_OUTLINES_TOP
100
AcDbPolyline
 90
        2
 70
         0
 43
0.1
 10
147.3
 20
66.8
 10
147.3
 20
70.6
  0
LWPOLYLINE
  5
CA
100
AcDbEntity
  8
ASSEMBLY_OUTLINES_TOP
100
AcDbPolyline
 90
        2
 70
         0
 43
0.1
 10
147.4
 20
66.8
 10
147.4
 20
70.6
  0
LWPOLYLINE
  5
CB
100
AcDbEntity
  8
ASSEMBLY_OUTLINES_TOP
100
AcDbPolyline
 90
        2
 70
         0
 43
0.1
 10
147.5
 20
66.8
 10
147.5
 20
70.6
  0
LWPOLYLINE
  5
CC
100
AcDbEntity
  8
ASSEMBLY_OUTLINES_TOP
100
AcDbPolyline
 90
        2
 70
         0
 43
0.1
 10
147.6
 20
66.8
 10
147.6
 20
70.6
  0
LWPOLYLINE
  5
CD
100
AcDbEntity
  8
ASSEMBLY_OUTLINES_TOP
100
AcDbPolyline
 90
        2
 70
         0
 43
0.1
 10
147.7
 20
66.8
 10
147.7
 20
70.6
  0
LWPOLYLINE
  5
CE
100
AcDbEntity
  8
ASSEMBLY_OUTLINES_TOP
100
AcDbPolyline
 90
        2
 70
         0
 43
0.1
 10
147.8
 20
66.8
 10
147.8
 20
70.6
  0
LWPOLYLINE
  5
CF
100
AcDbEntity
  8
ASSEMBLY_OUTLINES_TOP
100
AcDbPolyline
 90
        2
 70
         0
 43
0.1
 10
147.9
 20
66.8
 10
147.9
 20
70.6
  0
LWPOLYLINE
  5
D0
100
AcDbEntity
  8
ASSEMBLY_OUTLINES_TOP
100
AcDbPolyline
 90
        2
 70
         0
 43
0.1
 10
148.0
 20
66.8
 10
148.0
 20
70.6
  0
LWPOLYLINE
  5
D1
100
AcDbEntity
  8
ASSEMBLY_OUTLINES_TOP
100
AcDbPolyline
 90
        4
 70
         1
 10
164.51053
 20
23.99604
 10
164.51053
 20
39.99604
 10
170.41053
 20
39.99604
 10
170.41053
 20
23.99604
  0
LWPOLYLINE
  5
D2
100
AcDbEntity
  8
ASSEMBLY_OUTLINES_TOP
100
AcDbPolyline
 90
        4
 70
         1
 10
152.11053
 20
16.59604
 10
152.11053
 20
47.39604
 10
164.51053
 20
47.39604
 10
164.51053
 20
16.59604
  0
TEXT
  5
D4
100
AcDbEntity
  8
ASSEMBLY_REF_DES_TOP
100
AcDbText
 10
147.82434
 20
32.327188
 30
0.0
 40
1.2
  1
X7
 50
90.0
  7
GOST_TYPE_B
 72
         2
 11
147.82434
 21
34.202788
 31
0.0
100
AcDbText
 73
         1
  0
TEXT
  5
D5
100
AcDbEntity
  8
ASSEMBLY_REF_DES_TOP
100
AcDbText
 10
111.407428
 20
94.513055
 30
0.0
 40
1.2
  1
X1
 50
90.0
  7
GOST_TYPE_B
 72
         1
 11
110.815228
 21
95.333255
 31
0.0
100
AcDbText
 73
         2
  0
TEXT
  5
D6
100
AcDbEntity
  8
ASSEMBLY_REF_DES_TOP
100
AcDbText
 10
143.0078
 20
93.8894
 30
0.0
 40
1.2
  1
DA1
 50
270.0
  7
GOST_TYPE_B
 72
         1
 11
143.6
 21
92.6
 31
0.0
100
AcDbText
 73
         2
  0
TEXT
  5
D7
100
AcDbEntity
  8
ASSEMBLY_REF_DES_TOP
100
AcDbText
 10
161.8
 20
48.5584
 30
0.0
 40
1.2
  1
J4
 50
90.0
  7
GOST_TYPE_B
 72
         2
 11
161.8
 21
50.2
 31
0.0
100
AcDbText
 73
         1
  0
TEXT
  5
D8
100
AcDbEntity
  8
ASSEMBLY_REF_DES_TOP
100
AcDbText
 10
122.370144
 20
17.163996
 30
0.0
 40
1.2
  1
DD2
 50
90.0
  7
GOST_TYPE_B
 72
         1
 11
121.777944
 21
18.512796
 31
0.0
100
AcDbText
 73
         2
  0
TEXT
  5
D9
100
AcDbEntity
  8
ASSEMBLY_REF_DES_TOP
100
AcDbText
 10
90.8922
 20
6.6342
 30
0.0
 40
1.2
  1
DA4
 50
90.0
  7
GOST_TYPE_B
 72
         1
 11
90.3
 21
8.1
 31
0.0
100
AcDbText
 73
         2
  0
TEXT
  5
DA
100
AcDbEntity
  8
ASSEMBLY_REF_DES_TOP
100
AcDbText
 10
112.1922
 20
77.576
 30
0.0
 40
1.2
  1
Bat1
 50
90.0
  7
GOST_TYPE_B
 72
         1
 11
111.6
 21
79.1
 31
0.0
100
AcDbText
 73
         2
  0
TEXT
  5
DB
100
AcDbEntity
  8
ASSEMBLY_REF_DES_TOP
100
AcDbText
 10
119.334499
 20
48.098535
 30
0.0
 40
1.2
  1
DD1
 50
90.0
  7
GOST_TYPE_B
 72
         1
 11
118.742299
 21
49.329735
 31
0.0
100
AcDbText
 73
         2
  0
TEXT
  5
DC
100
AcDbEntity
  8
ASSEMBLY_REF_DES_TOP
100
AcDbText
 10
154.932315
 20
85.330937
 30
0.0
 40
1.2
  1
X2
 50
90.0
  7
GOST_TYPE_B
 72
         2
 11
154.932315
 21
87.206537
 31
0.0
100
AcDbText
 73
         1
  0
TEXT
  5
DD
100
AcDbEntity
  8
ASSEMBLY_REF_DES_TOP
100
AcDbText
 10
109.191674
 20
14.209678
 30
0.0
 40
1.2
  1
DA3
 50
90.0
  7
GOST_TYPE_B
 72
         1
 11
108.599474
 21
15.616678
 31
0.0
100
AcDbText
 73
         2
  0
TEXT
  5
DE
100
AcDbEntity
  8
ASSEMBLY_REF_DES_TOP
100
AcDbText
 10
141.3922
 20
73.6792
 30
0.0
 40
1.2
  1
C2
 50
90.0
  7
GOST_TYPE_B
 72
         1
 11
140.8
 21
74.5
 31
0.0
100
AcDbText
 73
         2
  0
TEXT
  5
DF
100
AcDbEntity
  8
ASSEMBLY_REF_DES_TOP
100
AcDbText
 10
140.9922
 20
66.3276
 30
0.0
 40
1.2
  1
HL1
 50
90.0
  7
GOST_TYPE_B
 72
         1
 11
140.4
 21
67.5
 31
0.0
100
AcDbText
 73
         2
  0
TEXT
  5
E0
100
AcDbEntity
  8
ASSEMBLY_REF_DES_TOP
100
AcDbText
 10
91.6
 20
-0.224
 30
0.0
 40
1.2
  1
J5
 50
90.0
  7
GOST_TYPE_B
 72
         2
 11
91.6
 21
1.3
 31
0.0
100
AcDbText
 73
         1
  0
TEXT
  5
E1
100
AcDbEntity
  8
ASSEMBLY_REF_DES_TOP
100
AcDbText
 10
138.227005
 20
27.770645
 30
0.0
 40
1.2
  1
DA2
 50
90.0
  7
GOST_TYPE_B
 72
         1
 11
137.634805
 21
29.177645
 31
0.0
100
AcDbText
 73
         2
  0
TEXT
  5
E2
100
AcDbEntity
  8
ASSEMBLY_REF_DES_TOP
100
AcDbText
 10
144.0
 20
52.926
 30
0.0
 40
1.2
  1
J2
 50
90.0
  7
GOST_TYPE_B
 72
         2
 11
144.0
 21
54.45
 31
0.0
100
AcDbText
 73
         1
  0
TEXT
  5
E3
100
AcDbEntity
  8
ASSEMBLY_REF_DES_TOP
100
AcDbText
 10
135.4922
 20
82.9968
 30
0.0
 40
1.2
  1
C1
 50
90.0
  7
GOST_TYPE_B
 72
         1
 11
134.9
 21
83.7
 31
0.0
100
AcDbText
 73
         2
  0
TEXT
  5
E4
100
AcDbEntity
  8
ASSEMBLY_REF_DES_TOP
100
AcDbText
 10
157.987894
 20
76.878726
 30
0.0
 40
1.2
  1
X4
 50
90.0
  7
GOST_TYPE_B
 72
         2
 11
157.987894
 21
78.871926
 31
0.0
100
AcDbText
 73
         1
  0
TEXT
  5
E5
100
AcDbEntity
  8
ASSEMBLY_REF_DES_TOP
100
AcDbText
 10
90.2422
 20
76.9622
 30
0.0
 40
1.2
  1
X3
 50
90.0
  7
GOST_TYPE_B
 72
         1
 11
89.65
 21
77.9
 31
0.0
100
AcDbText
 73
         2
  0
TEXT
  5
E6
100
AcDbEntity
  8
ASSEMBLY_REF_DES_TOP
100
AcDbText
 10
147.8922
 20
76.5106
 30
0.0
 40
1.2
  1
VD1
 50
90.0
  7
GOST_TYPE_B
 72
         1
 11
147.3
 21
77.8
 31
0.0
100
AcDbText
 73
         2
  0
TEXT
  5
E7
100
AcDbEntity
  8
ASSEMBLY_REF_DES_TOP
100
AcDbText
 10
135.164194
 20
56.337046
 30
0.0
 40
1.2
  1
ZQ1
 50
90.0
  7
GOST_TYPE_B
 72
         1
 11
134.571994
 21
57.684646
 31
0.0
100
AcDbText
 73
         2
  0
TEXT
  5
E8
100
AcDbEntity
  8
ASSEMBLY_REF_DES_TOP
100
AcDbText
 10
151.9922
 20
6.888
 30
0.0
 40
1.2
  1
T1
 50
90.0
  7
GOST_TYPE_B
 72
         1
 11
151.4
 21
7.65
 31
0.0
100
AcDbText
 73
         2
  0
TEXT
  5
E9
100
AcDbEntity
  8
ASSEMBLY_REF_DES_TOP
100
AcDbText
 10
111.4922
 20
6.8792
 30
0.0
 40
1.2
  1
C3
 50
90.0
  7
GOST_TYPE_B
 72
         1
 11
110.9
 21
7.7
 31
0.0
100
AcDbText
 73
         2
  0
TEXT
  5
EA
100
AcDbEntity
  8
ASSEMBLY_REF_DES_TOP
100
AcDbText
 10
99.916521
 20
18.457937
 30
0.0
 40
1.2
  1
X9
 50
90.0
  7
GOST_TYPE_B
 72
         2
 11
99.916521
 21
20.333537
 31
0.0
100
AcDbText
 73
         1
  0
TEXT
  5
EB
100
AcDbEntity
  8
ASSEMBLY_REF_DES_TOP
100
AcDbText
 10
100.45
 20
-4.724
 30
0.0
 40
1.2
  1
J6
 50
90.0
  7
GOST_TYPE_B
 72
         2
 11
100.45
 21
-3.2
 31
0.0
100
AcDbText
 73
         1
  0
TEXT
  5
EC
100
AcDbEntity
  8
ASSEMBLY_REF_DES_TOP
100
AcDbText
 10
135.5
 20
48.1596
 30
0.0
 40
1.2
  1
ZQ2
 50
90.0
  7
GOST_TYPE_B
 72
         2
 11
135.5
 21
51.09
 31
0.0
100
AcDbText
 73
         1
  0
TEXT
  5
ED
100
AcDbEntity
  8
ASSEMBLY_REF_DES_TOP
100
AcDbText
 10
148.95
 20
57.586
 30
0.0
 40
1.2
  1
SW1
 50
90.0
  7
GOST_TYPE_B
 72
         2
 11
148.95
 21
60.4
 31
0.0
100
AcDbText
 73
         1
  0
TEXT
  5
EE
100
AcDbEntity
  8
ASSEMBLY_REF_DES_TOP
100
AcDbText
 10
87.321466
 20
41.428029
 30
0.0
 40
1.2
  1
X6
 50
90.0
  7
GOST_TYPE_B
 72
         1
 11
86.729266
 21
42.365829
 31
0.0
100
AcDbText
 73
         2
  0
TEXT
  5
EF
100
AcDbEntity
  8
ASSEMBLY_REF_DES_TOP
100
AcDbText
 10
159.04
 20
58.7344
 30
0.0
 40
1.2
  1
X5
 50
90.0
  7
GOST_TYPE_B
 72
         2
 11
159.04
 21
60.61
 31
0.0
100
AcDbText
 73
         1
  0
TEXT
  5
F0
100
AcDbEntity
  8
ASSEMBLY_REF_DES_TOP
100
AcDbText
 10
154.9
 20
48.676
 30
0.0
 40
1.2
  1
J3
 50
90.0
  7
GOST_TYPE_B
 72
         2
 11
154.9
 21
50.2
 31
0.0
100
AcDbText
 73
         1
  0
TEXT
  5
F1
100
AcDbEntity
  8
ASSEMBLY_REF_DES_TOP
100
AcDbText
 10
161.4
 20
68.3112
 30
0.0
 40
1.2
  1
J1
 50
90.0
  7
GOST_TYPE_B
 72
         2
 11
161.4
 21
69.6
 31
0.0
100
AcDbText
 73
         1
  0
TEXT
  5
F2
100
AcDbEntity
  8
ASSEMBLY_REF_DES_TOP
100
AcDbText
 10
150.5922
 20
67.293
 30
0.0
 40
1.2
  1
VD2
 50
90.0
  7
GOST_TYPE_B
 72
         1
 11
150.0
 21
68.7
 31
0.0
100
AcDbText
 73
         2
  0
TEXT
  5
F3
100
AcDbEntity
  8
ASSEMBLY_REF_DES_TOP
100
AcDbText
 10
159.26053
 20
31.49284
 30
0.0
 40
1.2
  1
X8
 50
90.0
  7
GOST_TYPE_B
 72
         2
 11
159.26053
 21
33.48604
 31
0.0
100
AcDbText
 73
         1
  0
LWPOLYLINE
  5
F4
100
AcDbEntity
  8
BOARD_OUTLINE
100
AcDbPolyline
 90
        4
 70
         1
 43
0.25
 10
82.5
 20
-7.5
 10
82.5
 20
100.5
 10
164.5
 20
100.5
 10
164.5
 20
-7.5
  0
CIRCLE
  5
F5
100
AcDbEntity
  8
MOUNTING_HOLES_LAYER_TOP
100
AcDbCircle
 10
160.5
 20
96.5
 30
0.0
 40
2.25
  0
HATCH
  5
F6
100
AcDbEntity
  8
MOUNTING_HOLES_LAYER_TOP
100
AcDbHatch
 10
0.0
 20
0.0
 30
0.0
210
0.0
220
0.0
230
1.0
  2
SOLID
 70
         1
 71
         1
 91
        1
 92
        1
 93
        1
 72
         2
 10
160.5
 20
96.5
 40
2.25
 50
0.0
 51
360.0
 73
         1
 97
        1
330
F5
 75
         0
 76
         1
 98
        1
 10
0.0
 20
0.0
  0
CIRCLE
  5
F7
100
AcDbEntity
  8
MOUNTING_HOLES_LAYER_TOP
100
AcDbCircle
 10
160.5
 20
-3.5
 30
0.0
 40
2.25
  0
HATCH
  5
F8
100
AcDbEntity
  8
MOUNTING_HOLES_LAYER_TOP
100
AcDbHatch
 10
0.0
 20
0.0
 30
0.0
210
0.0
220
0.0
230
1.0
  2
SOLID
 70
         1
 71
         1
 91
        1
 92
        1
 93
        1
 72
         2
 10
160.5
 20
-3.5
 40
2.25
 50
0.0
 51
360.0
 73
         1
 97
        1
330
F7
 75
         0
 76
         1
 98
        1
 10
0.0
 20
0.0
  0
CIRCLE
  5
F9
100
AcDbEntity
  8
MOUNTING_HOLES_LAYER_TOP
100
AcDbCircle
 10
86.5
 20
-3.5
 30
0.0
 40
2.25
  0
HATCH
  5
FA
100
AcDbEntity
  8
MOUNTING_HOLES_LAYER_TOP
100
AcDbHatch
 10
0.0
 20
0.0
 30
0.0
210
0.0
220
0.0
230
1.0
  2
SOLID
 70
         1
 71
         1
 91
        1
 92
        1
 93
        1
 72
         2
 10
86.5
 20
-3.5
 40
2.25
 50
0.0
 51
360.0
 73
         1
 97
        1
330
F9
 75
         0
 76
         1
 98
        1
 10
0.0
 20
0.0
  0
CIRCLE
  5
FB
100
AcDbEntity
  8
MOUNTING_HOLES_LAYER_TOP
100
AcDbCircle
 10
86.5
 20
88.8
 30
0.0
 40
2.25
  0
HATCH
  5
FC
100
AcDbEntity
  8
MOUNTING_HOLES_LAYER_TOP
100
AcDbHatch
 10
0.0
 20
0.0
 30
0.0
210
0.0
220
0.0
230
1.0
  2
SOLID
 70
         1
 71
         1
 91
        1
 92
        1
 93
        1
 72
         2
 10
86.5
 20
88.799999999999997
 40
2.25
 50
0.0
 51
360.0
 73
         1
 97
        1
330
FB
 75
         0
 76
         1
 98
        1
 10
0.0
 20
0.0
  0
CIRCLE
  5
FD
100
AcDbEntity
  8
MOUNTING_HOLES_LAYER_TOP
100
AcDbCircle
 10
115.85
 20
79.1
 30
0.0
 40
0.75
  0
HATCH
  5
FE
100
AcDbEntity
  8
MOUNTING_HOLES_LAYER_TOP
100
AcDbHatch
 10
0.0
 20
0.0
 30
0.0
210
0.0
220
0.0
230
1.0
  2
SOLID
 70
         1
 71
         1
 91
        1
 92
        1
 93
        1
 72
         2
 10
115.84999999999999
 20
79.099999999999994
 40
0.75
 50
0.0
 51
360.0
 73
         1
 97
        1
330
FD
 75
         0
 76
         1
 98
        1
 10
0.0
 20
0.0
  0
CIRCLE
  5
FF
100
AcDbEntity
  8
MOUNTING_HOLES_LAYER_TOP
100
AcDbCircle
 10
108.35
 20
79.1
 30
0.0
 40
0.75
  0
HATCH
  5
100
100
AcDbEntity
  8
MOUNTING_HOLES_LAYER_TOP
100
AcDbHatch
 10
0.0
 20
0.0
 30
0.0
210
0.0
220
0.0
230
1.0
  2
SOLID
 70
         1
 71
         1
 91
        1
 92
        1
 93
        1
 72
         2
 10
108.34999999999999
 20
79.099999999999994
 40
0.75
 50
0.0
 51
360.0
 73
         1
 97
        1
330
FF
 75
         0
 76
         1
 98
        1
 10
0.0
 20
0.0
  0
CIRCLE
  5
101
100
AcDbEntity
  8
MOUNTING_HOLES_LAYER_TOP
100
AcDbCircle
 10
91.9
 20
72.9
 30
0.0
 40
0.75
  0
HATCH
  5
102
100
AcDbEntity
  8
MOUNTING_HOLES_LAYER_TOP
100
AcDbHatch
 10
0.0
 20
0.0
 30
0.0
210
0.0
220
0.0
230
1.0
  2
SOLID
 70
         1
 71
         1
 91
        1
 92
        1
 93
        1
 72
         2
 10
91.900000000000006
 20
72.900000000000006
 40
0.75
 50
0.0
 51
360.0
 73
         1
 97
        1
330
101
 75
         0
 76
         1
 98
        1
 10
0.0
 20
0.0
  0
CIRCLE
  5
103
100
AcDbEntity
  8
MOUNTING_HOLES_LAYER_TOP
100
AcDbCircle
 10
91.9
 20
82.9
 30
0.0
 40
0.75
  0
HATCH
  5
104
100
AcDbEntity
  8
MOUNTING_HOLES_LAYER_TOP
100
AcDbHatch
 10
0.0
 20
0.0
 30
0.0
210
0.0
220
0.0
230
1.0
  2
SOLID
 70
         1
 71
         1
 91
        1
 92
        1
 93
        1
 72
         2
 10
91.900000000000006
 20
82.900000000000006
 40
0.75
 50
0.0
 51
360.0
 73
         1
 97
        1
330
103
 75
         0
 76
         1
 98
        1
 10
0.0
 20
0.0
  0
CIRCLE
  5
105
100
AcDbEntity
  8
PART_HOLES_LAYER_TOP
100
AcDbCircle
 10
145.856915
 20
44.820213
 30
0.0
 40
0.45
  0
HATCH
  5
106
100
AcDbEntity
  8
PART_HOLES_LAYER_TOP
100
AcDbHatch
 10
0.0
 20
0.0
 30
0.0
210
0.0
220
0.0
230
1.0
  2
SOLID
 70
         1
 71
         1
 91
        1
 92
        1
 93
        1
 72
         2
 10
145.85691499999999
 20
44.820213000000003
 40
0.45
 50
0.0
 51
360.0
 73
         1
 97
        1
330
105
 75
         0
 76
         1
 98
        1
 10
0.0
 20
0.0
  0
CIRCLE
  5
107
100
AcDbEntity
  8
PART_HOLES_LAYER_TOP
100
AcDbCircle
 10
148.396915
 20
42.280213
 30
0.0
 40
0.45
  0
HATCH
  5
108
100
AcDbEntity
  8
PART_HOLES_LAYER_TOP
100
AcDbHatch
 10
0.0
 20
0.0
 30
0.0
210
0.0
220
0.0
230
1.0
  2
SOLID
 70
         1
 71
         1
 91
        1
 92
        1
 93
        1
 72
         2
 10
148.39691500000001
 20
42.280213000000003
 40
0.45
 50
0.0
 51
360.0
 73
         1
 97
        1
330
107
 75
         0
 76
         1
 98
        1
 10
0.0
 20
0.0
  0
CIRCLE
  5
109
100
AcDbEntity
  8
PART_HOLES_LAYER_TOP
100
AcDbCircle
 10
148.396915
 20
39.740213
 30
0.0
 40
0.45
  0
HATCH
  5
10A
100
AcDbEntity
  8
PART_HOLES_LAYER_TOP
100
AcDbHatch
 10
0.0
 20
0.0
 30
0.0
210
0.0
220
0.0
230
1.0
  2
SOLID
 70
         1
 71
         1
 91
        1
 92
        1
 93
        1
 72
         2
 10
148.39691500000001
 20
39.740212999999997
 40
0.45
 50
0.0
 51
360.0
 73
         1
 97
        1
330
109
 75
         0
 76
         1
 98
        1
 10
0.0
 20
0.0
  0
CIRCLE
  5
10B
100
AcDbEntity
  8
PART_HOLES_LAYER_TOP
100
AcDbCircle
 10
148.396915
 20
37.200213
 30
0.0
 40
0.45
  0
HATCH
  5
10C
100
AcDbEntity
  8
PART_HOLES_LAYER_TOP
100
AcDbHatch
 10
0.0
 20
0.0
 30
0.0
210
0.0
220
0.0
230
1.0
  2
SOLID
 70
         1
 71
         1
 91
        1
 92
        1
 93
        1
 72
         2
 10
148.39691500000001
 20
37.200212999999998
 40
0.45
 50
0.0
 51
360.0
 73
         1
 97
        1
330
10B
 75
         0
 76
         1
 98
        1
 10
0.0
 20
0.0
  0
CIRCLE
  5
10D
100
AcDbEntity
  8
PART_HOLES_LAYER_TOP
100
AcDbCircle
 10
148.396915
 20
34.660213
 30
0.0
 40
0.45
  0
HATCH
  5
10E
100
AcDbEntity
  8
PART_HOLES_LAYER_TOP
100
AcDbHatch
 10
0.0
 20
0.0
 30
0.0
210
0.0
220
0.0
230
1.0
  2
SOLID
 70
         1
 71
         1
 91
        1
 92
        1
 93
        1
 72
         2
 10
148.39691500000001
 20
34.660212999999999
 40
0.45
 50
0.0
 51
360.0
 73
         1
 97
        1
330
10D
 75
         0
 76
         1
 98
        1
 10
0.0
 20
0.0
  0
CIRCLE
  5
10F
100
AcDbEntity
  8
PART_HOLES_LAYER_TOP
100
AcDbCircle
 10
148.396915
 20
32.120213
 30
0.0
 40
0.45
  0
HATCH
  5
110
100
AcDbEntity
  8
PART_HOLES_LAYER_TOP
100
AcDbHatch
 10
0.0
 20
0.0
 30
0.0
210
0.0
220
0.0
230
1.0
  2
SOLID
 70
         1
 71
         1
 91
        1
 92
        1
 93
        1
 72
         2
 10
148.39691500000001
 20
32.120213
 40
0.45
 50
0.0
 51
360.0
 73
         1
 97
        1
330
10F
 75
         0
 76
         1
 98
        1
 10
0.0
 20
0.0
  0
CIRCLE
  5
111
100
AcDbEntity
  8
PART_HOLES_LAYER_TOP
100
AcDbCircle
 10
148.396915
 20
29.580213
 30
0.0
 40
0.45
  0
HATCH
  5
112
100
AcDbEntity
  8
PART_HOLES_LAYER_TOP
100
AcDbHatch
 10
0.0
 20
0.0
 30
0.0
210
0.0
220
0.0
230
1.0
  2
SOLID
 70
         1
 71
         1
 91
        1
 92
        1
 93
        1
 72
         2
 10
148.39691500000001
 20
29.580213000000001
 40
0.45
 50
0.0
 51
360.0
 73
         1
 97
        1
330
111
 75
         0
 76
         1
 98
        1
 10
0.0
 20
0.0
  0
CIRCLE
  5
113
100
AcDbEntity
  8
PART_HOLES_LAYER_TOP
100
AcDbCircle
 10
148.396915
 20
27.040213
 30
0.0
 40
0.45
  0
HATCH
  5
114
100
AcDbEntity
  8
PART_HOLES_LAYER_TOP
100
AcDbHatch
 10
0.0
 20
0.0
 30
0.0
210
0.0
220
0.0
230
1.0
  2
SOLID
 70
         1
 71
         1
 91
        1
 92
        1
 93
        1
 72
         2
 10
148.39691500000001
 20
27.040213000000001
 40
0.45
 50
0.0
 51
360.0
 73
         1
 97
        1
330
113
 75
         0
 76
         1
 98
        1
 10
0.0
 20
0.0
  0
CIRCLE
  5
115
100
AcDbEntity
  8
PART_HOLES_LAYER_TOP
100
AcDbCircle
 10
148.396915
 20
24.500213
 30
0.0
 40
0.45
  0
HATCH
  5
116
100
AcDbEntity
  8
PART_HOLES_LAYER_TOP
100
AcDbHatch
 10
0.0
 20
0.0
 30
0.0
210
0.0
220
0.0
230
1.0
  2
SOLID
 70
         1
 71
         1
 91
        1
 92
        1
 93
        1
 72
         2
 10
148.39691500000001
 20
24.500212999999999
 40
0.45
 50
0.0
 51
360.0
 73
         1
 97
        1
330
115
 75
         0
 76
         1
 98
        1
 10
0.0
 20
0.0
  0
CIRCLE
  5
117
100
AcDbEntity
  8
PART_HOLES_LAYER_TOP
100
AcDbCircle
 10
148.396915
 20
21.960213
 30
0.0
 40
0.45
  0
HATCH
  5
118
100
AcDbEntity
  8
PART_HOLES_LAYER_TOP
100
AcDbHatch
 10
0.0
 20
0.0
 30
0.0
210
0.0
220
0.0
230
1.0
  2
SOLID
 70
         1
 71
         1
 91
        1
 92
        1
 93
        1
 72
         2
 10
148.39691500000001
 20
21.960213
 40
0.45
 50
0.0
 51
360.0
 73
         1
 97
        1
330
117
 75
         0
 76
         1
 98
        1
 10
0.0
 20
0.0
  0
CIRCLE
  5
119
100
AcDbEntity
  8
PART_HOLES_LAYER_TOP
100
AcDbCircle
 10
148.396915
 20
44.820213
 30
0.0
 40
0.45
  0
HATCH
  5
11A
100
AcDbEntity
  8
PART_HOLES_LAYER_TOP
100
AcDbHatch
 10
0.0
 20
0.0
 30
0.0
210
0.0
220
0.0
230
1.0
  2
SOLID
 70
         1
 71
         1
 91
        1
 92
        1
 93
        1
 72
         2
 10
148.39691500000001
 20
44.820213000000003
 40
0.45
 50
0.0
 51
360.0
 73
         1
 97
        1
330
119
 75
         0
 76
         1
 98
        1
 10
0.0
 20
0.0
  0
CIRCLE
  5
11B
100
AcDbEntity
  8
PART_HOLES_LAYER_TOP
100
AcDbCircle
 10
145.856915
 20
27.040213
 30
0.0
 40
0.45
  0
HATCH
  5
11C
100
AcDbEntity
  8
PART_HOLES_LAYER_TOP
100
AcDbHatch
 10
0.0
 20
0.0
 30
0.0
210
0.0
220
0.0
230
1.0
  2
SOLID
 70
         1
 71
         1
 91
        1
 92
        1
 93
        1
 72
         2
 10
145.85691499999999
 20
27.040213000000001
 40
0.45
 50
0.0
 51
360.0
 73
         1
 97
        1
330
11B
 75
         0
 76
         1
 98
        1
 10
0.0
 20
0.0
  0
CIRCLE
  5
11D
100
AcDbEntity
  8
PART_HOLES_LAYER_TOP
100
AcDbCircle
 10
145.856915
 20
32.120213
 30
0.0
 40
0.45
  0
HATCH
  5
11E
100
AcDbEntity
  8
PART_HOLES_LAYER_TOP
100
AcDbHatch
 10
0.0
 20
0.0
 30
0.0
210
0.0
220
0.0
230
1.0
  2
SOLID
 70
         1
 71
         1
 91
        1
 92
        1
 93
        1
 72
         2
 10
145.85691499999999
 20
32.120213
 40
0.45
 50
0.0
 51
360.0
 73
         1
 97
        1
330
11D
 75
         0
 76
         1
 98
        1
 10
0.0
 20
0.0
  0
CIRCLE
  5
11F
100
AcDbEntity
  8
PART_HOLES_LAYER_TOP
100
AcDbCircle
 10
145.856915
 20
39.740213
 30
0.0
 40
0.45
  0
HATCH
  5
120
100
AcDbEntity
  8
PART_HOLES_LAYER_TOP
100
AcDbHatch
 10
0.0
 20
0.0
 30
0.0
210
0.0
220
0.0
230
1.0
  2
SOLID
 70
         1
 71
         1
 91
        1
 92
        1
 93
        1
 72
         2
 10
145.85691499999999
 20
39.740212999999997
 40
0.45
 50
0.0
 51
360.0
 73
         1
 97
        1
330
11F
 75
         0
 76
         1
 98
        1
 10
0.0
 20
0.0
  0
CIRCLE
  5
121
100
AcDbEntity
  8
PART_HOLES_LAYER_TOP
100
AcDbCircle
 10
145.856915
 20
29.580213
 30
0.0
 40
0.45
  0
HATCH
  5
122
100
AcDbEntity
  8
PART_HOLES_LAYER_TOP
100
AcDbHatch
 10
0.0
 20
0.0
 30
0.0
210
0.0
220
0.0
230
1.0
  2
SOLID
 70
         1
 71
         1
 91
        1
 92
        1
 93
        1
 72
         2
 10
145.85691499999999
 20
29.580213000000001
 40
0.45
 50
0.0
 51
360.0
 73
         1
 97
        1
330
121
 75
         0
 76
         1
 98
        1
 10
0.0
 20
0.0
  0
CIRCLE
  5
123
100
AcDbEntity
  8
PART_HOLES_LAYER_TOP
100
AcDbCircle
 10
145.856915
 20
37.200213
 30
0.0
 40
0.45
  0
HATCH
  5
124
100
AcDbEntity
  8
PART_HOLES_LAYER_TOP
100
AcDbHatch
 10
0.0
 20
0.0
 30
0.0
210
0.0
220
0.0
230
1.0
  2
SOLID
 70
         1
 71
         1
 91
        1
 92
        1
 93
        1
 72
         2
 10
145.85691499999999
 20
37.200212999999998
 40
0.45
 50
0.0
 51
360.0
 73
         1
 97
        1
330
123
 75
         0
 76
         1
 98
        1
 10
0.0
 20
0.0
  0
CIRCLE
  5
125
100
AcDbEntity
  8
PART_HOLES_LAYER_TOP
100
AcDbCircle
 10
145.856915
 20
34.660213
 30
0.0
 40
0.45
  0
HATCH
  5
126
100
AcDbEntity
  8
PART_HOLES_LAYER_TOP
100
AcDbHatch
 10
0.0
 20
0.0
 30
0.0
210
0.0
220
0.0
230
1.0
  2
SOLID
 70
         1
 71
         1
 91
        1
 92
        1
 93
        1
 72
         2
 10
145.85691499999999
 20
34.660212999999999
 40
0.45
 50
0.0
 51
360.0
 73
         1
 97
        1
330
125
 75
         0
 76
         1
 98
        1
 10
0.0
 20
0.0
  0
CIRCLE
  5
127
100
AcDbEntity
  8
PART_HOLES_LAYER_TOP
100
AcDbCircle
 10
145.856915
 20
24.500213
 30
0.0
 40
0.45
  0
HATCH
  5
128
100
AcDbEntity
  8
PART_HOLES_LAYER_TOP
100
AcDbHatch
 10
0.0
 20
0.0
 30
0.0
210
0.0
220
0.0
230
1.0
  2
SOLID
 70
         1
 71
         1
 91
        1
 92
        1
 93
        1
 72
         2
 10
145.85691499999999
 20
24.500212999999999
 40
0.45
 50
0.0
 51
360.0
 73
         1
 97
        1
330
127
 75
         0
 76
         1
 98
        1
 10
0.0
 20
0.0
  0
CIRCLE
  5
129
100
AcDbEntity
  8
PART_HOLES_LAYER_TOP
100
AcDbCircle
 10
145.856915
 20
21.960213
 30
0.0
 40
0.45
  0
HATCH
  5
12A
100
AcDbEntity
  8
PART_HOLES_LAYER_TOP
100
AcDbHatch
 10
0.0
 20
0.0
 30
0.0
210
0.0
220
0.0
230
1.0
  2
SOLID
 70
         1
 71
         1
 91
        1
 92
        1
 93
        1
 72
         2
 10
145.85691499999999
 20
21.960213
 40
0.45
 50
0.0
 51
360.0
 73
         1
 97
        1
330
129
 75
         0
 76
         1
 98
        1
 10
0.0
 20
0.0
  0
CIRCLE
  5
12B
100
AcDbEntity
  8
PART_HOLES_LAYER_TOP
100
AcDbCircle
 10
145.856915
 20
42.280213
 30
0.0
 40
0.45
  0
HATCH
  5
12C
100
AcDbEntity
  8
PART_HOLES_LAYER_TOP
100
AcDbHatch
 10
0.0
 20
0.0
 30
0.0
210
0.0
220
0.0
230
1.0
  2
SOLID
 70
         1
 71
         1
 91
        1
 92
        1
 93
        1
 72
         2
 10
145.85691499999999
 20
42.280213000000003
 40
0.45
 50
0.0
 51
360.0
 73
         1
 97
        1
330
12B
 75
         0
 76
         1
 98
        1
 10
0.0
 20
0.0
  0
CIRCLE
  5
12D
100
AcDbEntity
  8
PART_HOLES_LAYER_TOP
100
AcDbCircle
 10
86.757583
 20
94.085611
 30
0.0
 40
0.45
  0
HATCH
  5
12E
100
AcDbEntity
  8
PART_HOLES_LAYER_TOP
100
AcDbHatch
 10
0.0
 20
0.0
 30
0.0
210
0.0
220
0.0
230
1.0
  2
SOLID
 70
         1
 71
         1
 91
        1
 92
        1
 93
        1
 72
         2
 10
86.757582999999997
 20
94.085611
 40
0.45
 50
0.0
 51
360.0
 73
         1
 97
        1
330
12D
 75
         0
 76
         1
 98
        1
 10
0.0
 20
0.0
  0
CIRCLE
  5
12F
100
AcDbEntity
  8
PART_HOLES_LAYER_TOP
100
AcDbCircle
 10
89.297583
 20
96.625611
 30
0.0
 40
0.45
  0
HATCH
  5
130
100
AcDbEntity
  8
PART_HOLES_LAYER_TOP
100
AcDbHatch
 10
0.0
 20
0.0
 30
0.0
210
0.0
220
0.0
230
1.0
  2
SOLID
 70
         1
 71
         1
 91
        1
 92
        1
 93
        1
 72
         2
 10
89.297583000000003
 20
96.625611000000006
 40
0.45
 50
0.0
 51
360.0
 73
         1
 97
        1
330
12F
 75
         0
 76
         1
 98
        1
 10
0.0
 20
0.0
  0
CIRCLE
  5
131
100
AcDbEntity
  8
PART_HOLES_LAYER_TOP
100
AcDbCircle
 10
109.617583
 20
94.085611
 30
0.0
 40
0.45
  0
HATCH
  5
132
100
AcDbEntity
  8
PART_HOLES_LAYER_TOP
100
AcDbHatch
 10
0.0
 20
0.0
 30
0.0
210
0.0
220
0.0
230
1.0
  2
SOLID
 70
         1
 71
         1
 91
        1
 92
        1
 93
        1
 72
         2
 10
109.617583
 20
94.085611
 40
0.45
 50
0.0
 51
360.0
 73
         1
 97
        1
330
131
 75
         0
 76
         1
 98
        1
 10
0.0
 20
0.0
  0
CIRCLE
  5
133
100
AcDbEntity
  8
PART_HOLES_LAYER_TOP
100
AcDbCircle
 10
107.077583
 20
96.625611
 30
0.0
 40
0.45
  0
HATCH
  5
134
100
AcDbEntity
  8
PART_HOLES_LAYER_TOP
100
AcDbHatch
 10
0.0
 20
0.0
 30
0.0
210
0.0
220
0.0
230
1.0
  2
SOLID
 70
         1
 71
         1
 91
        1
 92
        1
 93
        1
 72
         2
 10
107.077583
 20
96.625611000000006
 40
0.45
 50
0.0
 51
360.0
 73
         1
 97
        1
330
133
 75
         0
 76
         1
 98
        1
 10
0.0
 20
0.0
  0
CIRCLE
  5
135
100
AcDbEntity
  8
PART_HOLES_LAYER_TOP
100
AcDbCircle
 10
104.537583
 20
96.625611
 30
0.0
 40
0.45
  0
HATCH
  5
136
100
AcDbEntity
  8
PART_HOLES_LAYER_TOP
100
AcDbHatch
 10
0.0
 20
0.0
 30
0.0
210
0.0
220
0.0
230
1.0
  2
SOLID
 70
         1
 71
         1
 91
        1
 92
        1
 93
        1
 72
         2
 10
104.537583
 20
96.625611000000006
 40
0.45
 50
0.0
 51
360.0
 73
         1
 97
        1
330
135
 75
         0
 76
         1
 98
        1
 10
0.0
 20
0.0
  0
CIRCLE
  5
137
100
AcDbEntity
  8
PART_HOLES_LAYER_TOP
100
AcDbCircle
 10
101.997583
 20
96.625611
 30
0.0
 40
0.45
  0
HATCH
  5
138
100
AcDbEntity
  8
PART_HOLES_LAYER_TOP
100
AcDbHatch
 10
0.0
 20
0.0
 30
0.0
210
0.0
220
0.0
230
1.0
  2
SOLID
 70
         1
 71
         1
 91
        1
 92
        1
 93
        1
 72
         2
 10
101.99758300000001
 20
96.625611000000006
 40
0.45
 50
0.0
 51
360.0
 73
         1
 97
        1
330
137
 75
         0
 76
         1
 98
        1
 10
0.0
 20
0.0
  0
CIRCLE
  5
139
100
AcDbEntity
  8
PART_HOLES_LAYER_TOP
100
AcDbCircle
 10
101.997583
 20
94.085611
 30
0.0
 40
0.45
  0
HATCH
  5
13A
100
AcDbEntity
  8
PART_HOLES_LAYER_TOP
100
AcDbHatch
 10
0.0
 20
0.0
 30
0.0
210
0.0
220
0.0
230
1.0
  2
SOLID
 70
         1
 71
         1
 91
        1
 92
        1
 93
        1
 72
         2
 10
101.99758300000001
 20
94.085611
 40
0.45
 50
0.0
 51
360.0
 73
         1
 97
        1
330
139
 75
         0
 76
         1
 98
        1
 10
0.0
 20
0.0
  0
CIRCLE
  5
13B
100
AcDbEntity
  8
PART_HOLES_LAYER_TOP
100
AcDbCircle
 10
99.457583
 20
94.085611
 30
0.0
 40
0.45
  0
HATCH
  5
13C
100
AcDbEntity
  8
PART_HOLES_LAYER_TOP
100
AcDbHatch
 10
0.0
 20
0.0
 30
0.0
210
0.0
220
0.0
230
1.0
  2
SOLID
 70
         1
 71
         1
 91
        1
 92
        1
 93
        1
 72
         2
 10
99.457583
 20
94.085611
 40
0.45
 50
0.0
 51
360.0
 73
         1
 97
        1
330
13B
 75
         0
 76
         1
 98
        1
 10
0.0
 20
0.0
  0
CIRCLE
  5
13D
100
AcDbEntity
  8
PART_HOLES_LAYER_TOP
100
AcDbCircle
 10
96.917583
 20
96.625611
 30
0.0
 40
0.45
  0
HATCH
  5
13E
100
AcDbEntity
  8
PART_HOLES_LAYER_TOP
100
AcDbHatch
 10
0.0
 20
0.0
 30
0.0
210
0.0
220
0.0
230
1.0
  2
SOLID
 70
         1
 71
         1
 91
        1
 92
        1
 93
        1
 72
         2
 10
96.917582999999993
 20
96.625611000000006
 40
0.45
 50
0.0
 51
360.0
 73
         1
 97
        1
330
13D
 75
         0
 76
         1
 98
        1
 10
0.0
 20
0.0
  0
CIRCLE
  5
13F
100
AcDbEntity
  8
PART_HOLES_LAYER_TOP
100
AcDbCircle
 10
94.377583
 20
96.625611
 30
0.0
 40
0.45
  0
HATCH
  5
140
100
AcDbEntity
  8
PART_HOLES_LAYER_TOP
100
AcDbHatch
 10
0.0
 20
0.0
 30
0.0
210
0.0
220
0.0
230
1.0
  2
SOLID
 70
         1
 71
         1
 91
        1
 92
        1
 93
        1
 72
         2
 10
94.377583000000001
 20
96.625611000000006
 40
0.45
 50
0.0
 51
360.0
 73
         1
 97
        1
330
13F
 75
         0
 76
         1
 98
        1
 10
0.0
 20
0.0
  0
CIRCLE
  5
141
100
AcDbEntity
  8
PART_HOLES_LAYER_TOP
100
AcDbCircle
 10
91.837583
 20
96.625611
 30
0.0
 40
0.45
  0
HATCH
  5
142
100
AcDbEntity
  8
PART_HOLES_LAYER_TOP
100
AcDbHatch
 10
0.0
 20
0.0
 30
0.0
210
0.0
220
0.0
230
1.0
  2
SOLID
 70
         1
 71
         1
 91
        1
 92
        1
 93
        1
 72
         2
 10
91.837582999999995
 20
96.625611000000006
 40
0.45
 50
0.0
 51
360.0
 73
         1
 97
        1
330
141
 75
         0
 76
         1
 98
        1
 10
0.0
 20
0.0
  0
CIRCLE
  5
143
100
AcDbEntity
  8
PART_HOLES_LAYER_TOP
100
AcDbCircle
 10
89.297583
 20
94.085611
 30
0.0
 40
0.45
  0
HATCH
  5
144
100
AcDbEntity
  8
PART_HOLES_LAYER_TOP
100
AcDbHatch
 10
0.0
 20
0.0
 30
0.0
210
0.0
220
0.0
230
1.0
  2
SOLID
 70
         1
 71
         1
 91
        1
 92
        1
 93
        1
 72
         2
 10
89.297583000000003
 20
94.085611
 40
0.45
 50
0.0
 51
360.0
 73
         1
 97
        1
330
143
 75
         0
 76
         1
 98
        1
 10
0.0
 20
0.0
  0
CIRCLE
  5
145
100
AcDbEntity
  8
PART_HOLES_LAYER_TOP
100
AcDbCircle
 10
127.397583
 20
96.625611
 30
0.0
 40
0.45
  0
HATCH
  5
146
100
AcDbEntity
  8
PART_HOLES_LAYER_TOP
100
AcDbHatch
 10
0.0
 20
0.0
 30
0.0
210
0.0
220
0.0
230
1.0
  2
SOLID
 70
         1
 71
         1
 91
        1
 92
        1
 93
        1
 72
         2
 10
127.397583
 20
96.625611000000006
 40
0.45
 50
0.0
 51
360.0
 73
         1
 97
        1
330
145
 75
         0
 76
         1
 98
        1
 10
0.0
 20
0.0
  0
CIRCLE
  5
147
100
AcDbEntity
  8
PART_HOLES_LAYER_TOP
100
AcDbCircle
 10
122.317583
 20
96.625611
 30
0.0
 40
0.45
  0
HATCH
  5
148
100
AcDbEntity
  8
PART_HOLES_LAYER_TOP
100
AcDbHatch
 10
0.0
 20
0.0
 30
0.0
210
0.0
220
0.0
230
1.0
  2
SOLID
 70
         1
 71
         1
 91
        1
 92
        1
 93
        1
 72
         2
 10
122.317583
 20
96.625611000000006
 40
0.45
 50
0.0
 51
360.0
 73
         1
 97
        1
330
147
 75
         0
 76
         1
 98
        1
 10
0.0
 20
0.0
  0
CIRCLE
  5
149
100
AcDbEntity
  8
PART_HOLES_LAYER_TOP
100
AcDbCircle
 10
117.237583
 20
96.625611
 30
0.0
 40
0.45
  0
HATCH
  5
14A
100
AcDbEntity
  8
PART_HOLES_LAYER_TOP
100
AcDbHatch
 10
0.0
 20
0.0
 30
0.0
210
0.0
220
0.0
230
1.0
  2
SOLID
 70
         1
 71
         1
 91
        1
 92
        1
 93
        1
 72
         2
 10
117.237583
 20
96.625611000000006
 40
0.45
 50
0.0
 51
360.0
 73
         1
 97
        1
330
149
 75
         0
 76
         1
 98
        1
 10
0.0
 20
0.0
  0
CIRCLE
  5
14B
100
AcDbEntity
  8
PART_HOLES_LAYER_TOP
100
AcDbCircle
 10
117.237583
 20
94.085611
 30
0.0
 40
0.45
  0
HATCH
  5
14C
100
AcDbEntity
  8
PART_HOLES_LAYER_TOP
100
AcDbHatch
 10
0.0
 20
0.0
 30
0.0
210
0.0
220
0.0
230
1.0
  2
SOLID
 70
         1
 71
         1
 91
        1
 92
        1
 93
        1
 72
         2
 10
117.237583
 20
94.085611
 40
0.45
 50
0.0
 51
360.0
 73
         1
 97
        1
330
14B
 75
         0
 76
         1
 98
        1
 10
0.0
 20
0.0
  0
CIRCLE
  5
14D
100
AcDbEntity
  8
PART_HOLES_LAYER_TOP
100
AcDbCircle
 10
114.697583
 20
96.625611
 30
0.0
 40
0.45
  0
HATCH
  5
14E
100
AcDbEntity
  8
PART_HOLES_LAYER_TOP
100
AcDbHatch
 10
0.0
 20
0.0
 30
0.0
210
0.0
220
0.0
230
1.0
  2
SOLID
 70
         1
 71
         1
 91
        1
 92
        1
 93
        1
 72
         2
 10
114.69758299999999
 20
96.625611000000006
 40
0.45
 50
0.0
 51
360.0
 73
         1
 97
        1
330
14D
 75
         0
 76
         1
 98
        1
 10
0.0
 20
0.0
  0
CIRCLE
  5
14F
100
AcDbEntity
  8
PART_HOLES_LAYER_TOP
100
AcDbCircle
 10
112.157583
 20
94.085611
 30
0.0
 40
0.45
  0
HATCH
  5
150
100
AcDbEntity
  8
PART_HOLES_LAYER_TOP
100
AcDbHatch
 10
0.0
 20
0.0
 30
0.0
210
0.0
220
0.0
230
1.0
  2
SOLID
 70
         1
 71
         1
 91
        1
 92
        1
 93
        1
 72
         2
 10
112.157583
 20
94.085611
 40
0.45
 50
0.0
 51
360.0
 73
         1
 97
        1
330
14F
 75
         0
 76
         1
 98
        1
 10
0.0
 20
0.0
  0
CIRCLE
  5
151
100
AcDbEntity
  8
PART_HOLES_LAYER_TOP
100
AcDbCircle
 10
109.617583
 20
96.625611
 30
0.0
 40
0.45
  0
HATCH
  5
152
100
AcDbEntity
  8
PART_HOLES_LAYER_TOP
100
AcDbHatch
 10
0.0
 20
0.0
 30
0.0
210
0.0
220
0.0
230
1.0
  2
SOLID
 70
         1
 71
         1
 91
        1
 92
        1
 93
        1
 72
         2
 10
109.617583
 20
96.625611000000006
 40
0.45
 50
0.0
 51
360.0
 73
         1
 97
        1
330
151
 75
         0
 76
         1
 98
        1
 10
0.0
 20
0.0
  0
CIRCLE
  5
153
100
AcDbEntity
  8
PART_HOLES_LAYER_TOP
100
AcDbCircle
 10
96.917583
 20
94.085611
 30
0.0
 40
0.45
  0
HATCH
  5
154
100
AcDbEntity
  8
PART_HOLES_LAYER_TOP
100
AcDbHatch
 10
0.0
 20
0.0
 30
0.0
210
0.0
220
0.0
230
1.0
  2
SOLID
 70
         1
 71
         1
 91
        1
 92
        1
 93
        1
 72
         2
 10
96.917582999999993
 20
94.085611
 40
0.45
 50
0.0
 51
360.0
 73
         1
 97
        1
330
153
 75
         0
 76
         1
 98
        1
 10
0.0
 20
0.0
  0
CIRCLE
  5
155
100
AcDbEntity
  8
PART_HOLES_LAYER_TOP
100
AcDbCircle
 10
127.397583
 20
94.085611
 30
0.0
 40
0.45
  0
HATCH
  5
156
100
AcDbEntity
  8
PART_HOLES_LAYER_TOP
100
AcDbHatch
 10
0.0
 20
0.0
 30
0.0
210
0.0
220
0.0
230
1.0
  2
SOLID
 70
         1
 71
         1
 91
        1
 92
        1
 93
        1
 72
         2
 10
127.397583
 20
94.085611
 40
0.45
 50
0.0
 51
360.0
 73
         1
 97
        1
330
155
 75
         0
 76
         1
 98
        1
 10
0.0
 20
0.0
  0
CIRCLE
  5
157
100
AcDbEntity
  8
PART_HOLES_LAYER_TOP
100
AcDbCircle
 10
129.937583
 20
94.085611
 30
0.0
 40
0.45
  0
HATCH
  5
158
100
AcDbEntity
  8
PART_HOLES_LAYER_TOP
100
AcDbHatch
 10
0.0
 20
0.0
 30
0.0
210
0.0
220
0.0
230
1.0
  2
SOLID
 70
         1
 71
         1
 91
        1
 92
        1
 93
        1
 72
         2
 10
129.93758299999999
 20
94.085611
 40
0.45
 50
0.0
 51
360.0
 73
         1
 97
        1
330
157
 75
         0
 76
         1
 98
        1
 10
0.0
 20
0.0
  0
CIRCLE
  5
159
100
AcDbEntity
  8
PART_HOLES_LAYER_TOP
100
AcDbCircle
 10
112.157583
 20
96.625611
 30
0.0
 40
0.45
  0
HATCH
  5
15A
100
AcDbEntity
  8
PART_HOLES_LAYER_TOP
100
AcDbHatch
 10
0.0
 20
0.0
 30
0.0
210
0.0
220
0.0
230
1.0
  2
SOLID
 70
         1
 71
         1
 91
        1
 92
        1
 93
        1
 72
         2
 10
112.157583
 20
96.625611000000006
 40
0.45
 50
0.0
 51
360.0
 73
         1
 97
        1
330
159
 75
         0
 76
         1
 98
        1
 10
0.0
 20
0.0
  0
CIRCLE
  5
15B
100
AcDbEntity
  8
PART_HOLES_LAYER_TOP
100
AcDbCircle
 10
122.317583
 20
94.085611
 30
0.0
 40
0.45
  0
HATCH
  5
15C
100
AcDbEntity
  8
PART_HOLES_LAYER_TOP
100
AcDbHatch
 10
0.0
 20
0.0
 30
0.0
210
0.0
220
0.0
230
1.0
  2
SOLID
 70
         1
 71
         1
 91
        1
 92
        1
 93
        1
 72
         2
 10
122.317583
 20
94.085611
 40
0.45
 50
0.0
 51
360.0
 73
         1
 97
        1
330
15B
 75
         0
 76
         1
 98
        1
 10
0.0
 20
0.0
  0
CIRCLE
  5
15D
100
AcDbEntity
  8
PART_HOLES_LAYER_TOP
100
AcDbCircle
 10
99.457583
 20
96.625611
 30
0.0
 40
0.45
  0
HATCH
  5
15E
100
AcDbEntity
  8
PART_HOLES_LAYER_TOP
100
AcDbHatch
 10
0.0
 20
0.0
 30
0.0
210
0.0
220
0.0
230
1.0
  2
SOLID
 70
         1
 71
         1
 91
        1
 92
        1
 93
        1
 72
         2
 10
99.457583
 20
96.625611000000006
 40
0.45
 50
0.0
 51
360.0
 73
         1
 97
        1
330
15D
 75
         0
 76
         1
 98
        1
 10
0.0
 20
0.0
  0
CIRCLE
  5
15F
100
AcDbEntity
  8
PART_HOLES_LAYER_TOP
100
AcDbCircle
 10
104.537583
 20
94.085611
 30
0.0
 40
0.45
  0
HATCH
  5
160
100
AcDbEntity
  8
PART_HOLES_LAYER_TOP
100
AcDbHatch
 10
0.0
 20
0.0
 30
0.0
210
0.0
220
0.0
230
1.0
  2
SOLID
 70
         1
 71
         1
 91
        1
 92
        1
 93
        1
 72
         2
 10
104.537583
 20
94.085611
 40
0.45
 50
0.0
 51
360.0
 73
         1
 97
        1
330
15F
 75
         0
 76
         1
 98
        1
 10
0.0
 20
0.0
  0
CIRCLE
  5
161
100
AcDbEntity
  8
PART_HOLES_LAYER_TOP
100
AcDbCircle
 10
107.077583
 20
94.085611
 30
0.0
 40
0.45
  0
HATCH
  5
162
100
AcDbEntity
  8
PART_HOLES_LAYER_TOP
100
AcDbHatch
 10
0.0
 20
0.0
 30
0.0
210
0.0
220
0.0
230
1.0
  2
SOLID
 70
         1
 71
         1
 91
        1
 92
        1
 93
        1
 72
         2
 10
107.077583
 20
94.085611
 40
0.45
 50
0.0
 51
360.0
 73
         1
 97
        1
330
161
 75
         0
 76
         1
 98
        1
 10
0.0
 20
0.0
  0
CIRCLE
  5
163
100
AcDbEntity
  8
PART_HOLES_LAYER_TOP
100
AcDbCircle
 10
86.757583
 20
96.625611
 30
0.0
 40
0.45
  0
HATCH
  5
164
100
AcDbEntity
  8
PART_HOLES_LAYER_TOP
100
AcDbHatch
 10
0.0
 20
0.0
 30
0.0
210
0.0
220
0.0
230
1.0
  2
SOLID
 70
         1
 71
         1
 91
        1
 92
        1
 93
        1
 72
         2
 10
86.757582999999997
 20
96.625611000000006
 40
0.45
 50
0.0
 51
360.0
 73
         1
 97
        1
330
163
 75
         0
 76
         1
 98
        1
 10
0.0
 20
0.0
  0
CIRCLE
  5
165
100
AcDbEntity
  8
PART_HOLES_LAYER_TOP
100
AcDbCircle
 10
114.697583
 20
94.085611
 30
0.0
 40
0.45
  0
HATCH
  5
166
100
AcDbEntity
  8
PART_HOLES_LAYER_TOP
100
AcDbHatch
 10
0.0
 20
0.0
 30
0.0
210
0.0
220
0.0
230
1.0
  2
SOLID
 70
         1
 71
         1
 91
        1
 92
        1
 93
        1
 72
         2
 10
114.69758299999999
 20
94.085611
 40
0.45
 50
0.0
 51
360.0
 73
         1
 97
        1
330
165
 75
         0
 76
         1
 98
        1
 10
0.0
 20
0.0
  0
CIRCLE
  5
167
100
AcDbEntity
  8
PART_HOLES_LAYER_TOP
100
AcDbCircle
 10
119.777583
 20
94.085611
 30
0.0
 40
0.45
  0
HATCH
  5
168
100
AcDbEntity
  8
PART_HOLES_LAYER_TOP
100
AcDbHatch
 10
0.0
 20
0.0
 30
0.0
210
0.0
220
0.0
230
1.0
  2
SOLID
 70
         1
 71
         1
 91
        1
 92
        1
 93
        1
 72
         2
 10
119.77758300000001
 20
94.085611
 40
0.45
 50
0.0
 51
360.0
 73
         1
 97
        1
330
167
 75
         0
 76
         1
 98
        1
 10
0.0
 20
0.0
  0
CIRCLE
  5
169
100
AcDbEntity
  8
PART_HOLES_LAYER_TOP
100
AcDbCircle
 10
94.377583
 20
94.085611
 30
0.0
 40
0.45
  0
HATCH
  5
16A
100
AcDbEntity
  8
PART_HOLES_LAYER_TOP
100
AcDbHatch
 10
0.0
 20
0.0
 30
0.0
210
0.0
220
0.0
230
1.0
  2
SOLID
 70
         1
 71
         1
 91
        1
 92
        1
 93
        1
 72
         2
 10
94.377583000000001
 20
94.085611
 40
0.45
 50
0.0
 51
360.0
 73
         1
 97
        1
330
169
 75
         0
 76
         1
 98
        1
 10
0.0
 20
0.0
  0
CIRCLE
  5
16B
100
AcDbEntity
  8
PART_HOLES_LAYER_TOP
100
AcDbCircle
 10
135.017583
 20
94.085611
 30
0.0
 40
0.45
  0
HATCH
  5
16C
100
AcDbEntity
  8
PART_HOLES_LAYER_TOP
100
AcDbHatch
 10
0.0
 20
0.0
 30
0.0
210
0.0
220
0.0
230
1.0
  2
SOLID
 70
         1
 71
         1
 91
        1
 92
        1
 93
        1
 72
         2
 10
135.017583
 20
94.085611
 40
0.45
 50
0.0
 51
360.0
 73
         1
 97
        1
330
16B
 75
         0
 76
         1
 98
        1
 10
0.0
 20
0.0
  0
CIRCLE
  5
16D
100
AcDbEntity
  8
PART_HOLES_LAYER_TOP
100
AcDbCircle
 10
135.017583
 20
96.625611
 30
0.0
 40
0.45
  0
HATCH
  5
16E
100
AcDbEntity
  8
PART_HOLES_LAYER_TOP
100
AcDbHatch
 10
0.0
 20
0.0
 30
0.0
210
0.0
220
0.0
230
1.0
  2
SOLID
 70
         1
 71
         1
 91
        1
 92
        1
 93
        1
 72
         2
 10
135.017583
 20
96.625611000000006
 40
0.45
 50
0.0
 51
360.0
 73
         1
 97
        1
330
16D
 75
         0
 76
         1
 98
        1
 10
0.0
 20
0.0
  0
CIRCLE
  5
16F
100
AcDbEntity
  8
PART_HOLES_LAYER_TOP
100
AcDbCircle
 10
132.477583
 20
94.085611
 30
0.0
 40
0.45
  0
HATCH
  5
170
100
AcDbEntity
  8
PART_HOLES_LAYER_TOP
100
AcDbHatch
 10
0.0
 20
0.0
 30
0.0
210
0.0
220
0.0
230
1.0
  2
SOLID
 70
         1
 71
         1
 91
        1
 92
        1
 93
        1
 72
         2
 10
132.47758300000001
 20
94.085611
 40
0.45
 50
0.0
 51
360.0
 73
         1
 97
        1
330
16F
 75
         0
 76
         1
 98
        1
 10
0.0
 20
0.0
  0
CIRCLE
  5
171
100
AcDbEntity
  8
PART_HOLES_LAYER_TOP
100
AcDbCircle
 10
132.477583
 20
96.625611
 30
0.0
 40
0.45
  0
HATCH
  5
172
100
AcDbEntity
  8
PART_HOLES_LAYER_TOP
100
AcDbHatch
 10
0.0
 20
0.0
 30
0.0
210
0.0
220
0.0
230
1.0
  2
SOLID
 70
         1
 71
         1
 91
        1
 92
        1
 93
        1
 72
         2
 10
132.47758300000001
 20
96.625611000000006
 40
0.45
 50
0.0
 51
360.0
 73
         1
 97
        1
330
171
 75
         0
 76
         1
 98
        1
 10
0.0
 20
0.0
  0
CIRCLE
  5
173
100
AcDbEntity
  8
PART_HOLES_LAYER_TOP
100
AcDbCircle
 10
124.857583
 20
96.625611
 30
0.0
 40
0.45
  0
HATCH
  5
174
100
AcDbEntity
  8
PART_HOLES_LAYER_TOP
100
AcDbHatch
 10
0.0
 20
0.0
 30
0.0
210
0.0
220
0.0
230
1.0
  2
SOLID
 70
         1
 71
         1
 91
        1
 92
        1
 93
        1
 72
         2
 10
124.85758300000001
 20
96.625611000000006
 40
0.45
 50
0.0
 51
360.0
 73
         1
 97
        1
330
173
 75
         0
 76
         1
 98
        1
 10
0.0
 20
0.0
  0
CIRCLE
  5
175
100
AcDbEntity
  8
PART_HOLES_LAYER_TOP
100
AcDbCircle
 10
91.837583
 20
94.085611
 30
0.0
 40
0.45
  0
HATCH
  5
176
100
AcDbEntity
  8
PART_HOLES_LAYER_TOP
100
AcDbHatch
 10
0.0
 20
0.0
 30
0.0
210
0.0
220
0.0
230
1.0
  2
SOLID
 70
         1
 71
         1
 91
        1
 92
        1
 93
        1
 72
         2
 10
91.837582999999995
 20
94.085611
 40
0.45
 50
0.0
 51
360.0
 73
         1
 97
        1
330
175
 75
         0
 76
         1
 98
        1
 10
0.0
 20
0.0
  0
CIRCLE
  5
177
100
AcDbEntity
  8
PART_HOLES_LAYER_TOP
100
AcDbCircle
 10
119.777583
 20
96.625611
 30
0.0
 40
0.45
  0
HATCH
  5
178
100
AcDbEntity
  8
PART_HOLES_LAYER_TOP
100
AcDbHatch
 10
0.0
 20
0.0
 30
0.0
210
0.0
220
0.0
230
1.0
  2
SOLID
 70
         1
 71
         1
 91
        1
 92
        1
 93
        1
 72
         2
 10
119.77758300000001
 20
96.625611000000006
 40
0.45
 50
0.0
 51
360.0
 73
         1
 97
        1
330
177
 75
         0
 76
         1
 98
        1
 10
0.0
 20
0.0
  0
CIRCLE
  5
179
100
AcDbEntity
  8
PART_HOLES_LAYER_TOP
100
AcDbCircle
 10
124.857583
 20
94.085611
 30
0.0
 40
0.45
  0
HATCH
  5
17A
100
AcDbEntity
  8
PART_HOLES_LAYER_TOP
100
AcDbHatch
 10
0.0
 20
0.0
 30
0.0
210
0.0
220
0.0
230
1.0
  2
SOLID
 70
         1
 71
         1
 91
        1
 92
        1
 93
        1
 72
         2
 10
124.85758300000001
 20
94.085611
 40
0.45
 50
0.0
 51
360.0
 73
         1
 97
        1
330
179
 75
         0
 76
         1
 98
        1
 10
0.0
 20
0.0
  0
CIRCLE
  5
17B
100
AcDbEntity
  8
PART_HOLES_LAYER_TOP
100
AcDbCircle
 10
129.937583
 20
96.625611
 30
0.0
 40
0.45
  0
HATCH
  5
17C
100
AcDbEntity
  8
PART_HOLES_LAYER_TOP
100
AcDbHatch
 10
0.0
 20
0.0
 30
0.0
210
0.0
220
0.0
230
1.0
  2
SOLID
 70
         1
 71
         1
 91
        1
 92
        1
 93
        1
 72
         2
 10
129.93758299999999
 20
96.625611000000006
 40
0.45
 50
0.0
 51
360.0
 73
         1
 97
        1
330
17B
 75
         0
 76
         1
 98
        1
 10
0.0
 20
0.0
  0
CIRCLE
  5
17D
100
AcDbEntity
  8
PART_HOLES_LAYER_TOP
100
AcDbCircle
 10
162.6
 20
49.4
 30
0.0
 40
0.45
  0
HATCH
  5
17E
100
AcDbEntity
  8
PART_HOLES_LAYER_TOP
100
AcDbHatch
 10
0.0
 20
0.0
 30
0.0
210
0.0
220
0.0
230
1.0
  2
SOLID
 70
         1
 71
         1
 91
        1
 92
        1
 93
        1
 72
         2
 10
162.59999999999999
 20
49.399999999999999
 40
0.45
 50
0.0
 51
360.0
 73
         1
 97
        1
330
17D
 75
         0
 76
         1
 98
        1
 10
0.0
 20
0.0
  0
CIRCLE
  5
17F
100
AcDbEntity
  8
PART_HOLES_LAYER_TOP
100
AcDbCircle
 10
160.06
 20
49.4
 30
0.0
 40
0.45
  0
HATCH
  5
180
100
AcDbEntity
  8
PART_HOLES_LAYER_TOP
100
AcDbHatch
 10
0.0
 20
0.0
 30
0.0
210
0.0
220
0.0
230
1.0
  2
SOLID
 70
         1
 71
         1
 91
        1
 92
        1
 93
        1
 72
         2
 10
160.06
 20
49.399999999999999
 40
0.45
 50
0.0
 51
360.0
 73
         1
 97
        1
330
17F
 75
         0
 76
         1
 98
        1
 10
0.0
 20
0.0
  0
CIRCLE
  5
181
100
AcDbEntity
  8
PART_HOLES_LAYER_TOP
100
AcDbCircle
 10
158.332313
 20
88.356537
 30
0.0
 40
1.4
  0
HATCH
  5
182
100
AcDbEntity
  8
PART_HOLES_LAYER_TOP
100
AcDbHatch
 10
0.0
 20
0.0
 30
0.0
210
0.0
220
0.0
230
1.0
  2
SOLID
 70
         1
 71
         1
 91
        1
 92
        1
 93
        1
 72
         2
 10
158.332313
 20
88.356537000000003
 40
1.3999999999999999
 50
0.0
 51
360.0
 73
         1
 97
        1
330
181
 75
         0
 76
         1
 98
        1
 10
0.0
 20
0.0
  0
CIRCLE
  5
183
100
AcDbEntity
  8
PART_HOLES_LAYER_TOP
100
AcDbCircle
 10
155.332315
 20
93.056537
 30
0.0
 40
1.4
  0
HATCH
  5
184
100
AcDbEntity
  8
PART_HOLES_LAYER_TOP
100
AcDbHatch
 10
0.0
 20
0.0
 30
0.0
210
0.0
220
0.0
230
1.0
  2
SOLID
 70
         1
 71
         1
 91
        1
 92
        1
 93
        1
 72
         2
 10
155.33231499999999
 20
93.056537000000006
 40
1.3999999999999999
 50
0.0
 51
360.0
 73
         1
 97
        1
330
183
 75
         0
 76
         1
 98
        1
 10
0.0
 20
0.0
  0
CIRCLE
  5
185
100
AcDbEntity
  8
PART_HOLES_LAYER_TOP
100
AcDbCircle
 10
152.132313
 20
88.356537
 30
0.0
 40
1.4
  0
HATCH
  5
186
100
AcDbEntity
  8
PART_HOLES_LAYER_TOP
100
AcDbHatch
 10
0.0
 20
0.0
 30
0.0
210
0.0
220
0.0
230
1.0
  2
SOLID
 70
         1
 71
         1
 91
        1
 92
        1
 93
        1
 72
         2
 10
152.13231300000001
 20
88.356537000000003
 40
1.3999999999999999
 50
0.0
 51
360.0
 73
         1
 97
        1
330
185
 75
         0
 76
         1
 98
        1
 10
0.0
 20
0.0
  0
CIRCLE
  5
187
100
AcDbEntity
  8
PART_HOLES_LAYER_TOP
100
AcDbCircle
 10
92.3
 20
0.6
 30
0.0
 40
0.45
  0
HATCH
  5
188
100
AcDbEntity
  8
PART_HOLES_LAYER_TOP
100
AcDbHatch
 10
0.0
 20
0.0
 30
0.0
210
0.0
220
0.0
230
1.0
  2
SOLID
 70
         1
 71
         1
 91
        1
 92
        1
 93
        1
 72
         2
 10
92.299999999999997
 20
0.6
 40
0.45
 50
0.0
 51
360.0
 73
         1
 97
        1
330
187
 75
         0
 76
         1
 98
        1
 10
0.0
 20
0.0
  0
CIRCLE
  5
189
100
AcDbEntity
  8
PART_HOLES_LAYER_TOP
100
AcDbCircle
 10
89.76
 20
0.6
 30
0.0
 40
0.45
  0
HATCH
  5
18A
100
AcDbEntity
  8
PART_HOLES_LAYER_TOP
100
AcDbHatch
 10
0.0
 20
0.0
 30
0.0
210
0.0
220
0.0
230
1.0
  2
SOLID
 70
         1
 71
         1
 91
        1
 92
        1
 93
        1
 72
         2
 10
89.760000000000005
 20
0.6
 40
0.45
 50
0.0
 51
360.0
 73
         1
 97
        1
330
189
 75
         0
 76
         1
 98
        1
 10
0.0
 20
0.0
  0
CIRCLE
  5
18B
100
AcDbEntity
  8
PART_HOLES_LAYER_TOP
100
AcDbCircle
 10
143.3
 20
51.2
 30
0.0
 40
0.45
  0
HATCH
  5
18C
100
AcDbEntity
  8
PART_HOLES_LAYER_TOP
100
AcDbHatch
 10
0.0
 20
0.0
 30
0.0
210
0.0
220
0.0
230
1.0
  2
SOLID
 70
         1
 71
         1
 91
        1
 92
        1
 93
        1
 72
         2
 10
143.30000000000001
 20
51.200000000000003
 40
0.45
 50
0.0
 51
360.0
 73
         1
 97
        1
330
18B
 75
         0
 76
         1
 98
        1
 10
0.0
 20
0.0
  0
CIRCLE
  5
18D
100
AcDbEntity
  8
PART_HOLES_LAYER_TOP
100
AcDbCircle
 10
143.3
 20
56.28
 30
0.0
 40
0.45
  0
HATCH
  5
18E
100
AcDbEntity
  8
PART_HOLES_LAYER_TOP
100
AcDbHatch
 10
0.0
 20
0.0
 30
0.0
210
0.0
220
0.0
230
1.0
  2
SOLID
 70
         1
 71
         1
 91
        1
 92
        1
 93
        1
 72
         2
 10
143.30000000000001
 20
56.280000000000001
 40
0.45
 50
0.0
 51
360.0
 73
         1
 97
        1
330
18D
 75
         0
 76
         1
 98
        1
 10
0.0
 20
0.0
  0
CIRCLE
  5
18F
100
AcDbEntity
  8
PART_HOLES_LAYER_TOP
100
AcDbCircle
 10
143.3
 20
53.74
 30
0.0
 40
0.45
  0
HATCH
  5
190
100
AcDbEntity
  8
PART_HOLES_LAYER_TOP
100
AcDbHatch
 10
0.0
 20
0.0
 30
0.0
210
0.0
220
0.0
230
1.0
  2
SOLID
 70
         1
 71
         1
 91
        1
 92
        1
 93
        1
 72
         2
 10
143.30000000000001
 20
53.740000000000002
 40
0.45
 50
0.0
 51
360.0
 73
         1
 97
        1
330
18F
 75
         0
 76
         1
 98
        1
 10
0.0
 20
0.0
  0
CIRCLE
  5
191
100
AcDbEntity
  8
PART_HOLES_LAYER_TOP
100
AcDbCircle
 10
155.620469
 20
83.489351
 30
0.0
 40
1.25
  0
HATCH
  5
192
100
AcDbEntity
  8
PART_HOLES_LAYER_TOP
100
AcDbHatch
 10
0.0
 20
0.0
 30
0.0
210
0.0
220
0.0
230
1.0
  2
SOLID
 70
         1
 71
         1
 91
        1
 92
        1
 93
        1
 72
         2
 10
155.62046900000001
 20
83.489350999999999
 40
1.25
 50
0.0
 51
360.0
 73
         1
 97
        1
330
191
 75
         0
 76
         1
 98
        1
 10
0.0
 20
0.0
  0
CIRCLE
  5
193
100
AcDbEntity
  8
PART_HOLES_LAYER_TOP
100
AcDbCircle
 10
155.620469
 20
71.489351
 30
0.0
 40
1.25
  0
HATCH
  5
194
100
AcDbEntity
  8
PART_HOLES_LAYER_TOP
100
AcDbHatch
 10
0.0
 20
0.0
 30
0.0
210
0.0
220
0.0
230
1.0
  2
SOLID
 70
         1
 71
         1
 91
        1
 92
        1
 93
        1
 72
         2
 10
155.62046900000001
 20
71.489350999999999
 40
1.25
 50
0.0
 51
360.0
 73
         1
 97
        1
330
193
 75
         0
 76
         1
 98
        1
 10
0.0
 20
0.0
  0
CIRCLE
  5
195
100
AcDbEntity
  8
PART_HOLES_LAYER_TOP
100
AcDbCircle
 10
150.820469
 20
78.689351
 30
0.0
 40
0.45
  0
HATCH
  5
196
100
AcDbEntity
  8
PART_HOLES_LAYER_TOP
100
AcDbHatch
 10
0.0
 20
0.0
 30
0.0
210
0.0
220
0.0
230
1.0
  2
SOLID
 70
         1
 71
         1
 91
        1
 92
        1
 93
        1
 72
         2
 10
150.820469
 20
78.689351000000002
 40
0.45
 50
0.0
 51
360.0
 73
         1
 97
        1
330
195
 75
         0
 76
         1
 98
        1
 10
0.0
 20
0.0
  0
CIRCLE
  5
197
100
AcDbEntity
  8
PART_HOLES_LAYER_TOP
100
AcDbCircle
 10
153.360469
 20
78.689351
 30
0.0
 40
0.45
  0
HATCH
  5
198
100
AcDbEntity
  8
PART_HOLES_LAYER_TOP
100
AcDbHatch
 10
0.0
 20
0.0
 30
0.0
210
0.0
220
0.0
230
1.0
  2
SOLID
 70
         1
 71
         1
 91
        1
 92
        1
 93
        1
 72
         2
 10
153.36046899999999
 20
78.689351000000002
 40
0.45
 50
0.0
 51
360.0
 73
         1
 97
        1
330
197
 75
         0
 76
         1
 98
        1
 10
0.0
 20
0.0
  0
CIRCLE
  5
199
100
AcDbEntity
  8
PART_HOLES_LAYER_TOP
100
AcDbCircle
 10
153.360469
 20
76.149351
 30
0.0
 40
0.45
  0
HATCH
  5
19A
100
AcDbEntity
  8
PART_HOLES_LAYER_TOP
100
AcDbHatch
 10
0.0
 20
0.0
 30
0.0
210
0.0
220
0.0
230
1.0
  2
SOLID
 70
         1
 71
         1
 91
        1
 92
        1
 93
        1
 72
         2
 10
153.36046899999999
 20
76.149350999999996
 40
0.45
 50
0.0
 51
360.0
 73
         1
 97
        1
330
199
 75
         0
 76
         1
 98
        1
 10
0.0
 20
0.0
  0
CIRCLE
  5
19B
100
AcDbEntity
  8
PART_HOLES_LAYER_TOP
100
AcDbCircle
 10
150.820469
 20
76.149351
 30
0.0
 40
0.45
  0
HATCH
  5
19C
100
AcDbEntity
  8
PART_HOLES_LAYER_TOP
100
AcDbHatch
 10
0.0
 20
0.0
 30
0.0
210
0.0
220
0.0
230
1.0
  2
SOLID
 70
         1
 71
         1
 91
        1
 92
        1
 93
        1
 72
         2
 10
150.820469
 20
76.149350999999996
 40
0.45
 50
0.0
 51
360.0
 73
         1
 97
        1
330
19B
 75
         0
 76
         1
 98
        1
 10
0.0
 20
0.0
  0
CIRCLE
  5
19D
100
AcDbEntity
  8
PART_HOLES_LAYER_TOP
100
AcDbCircle
 10
134.071994
 20
55.244646
 30
0.0
 40
0.45
  0
HATCH
  5
19E
100
AcDbEntity
  8
PART_HOLES_LAYER_TOP
100
AcDbHatch
 10
0.0
 20
0.0
 30
0.0
210
0.0
220
0.0
230
1.0
  2
SOLID
 70
         1
 71
         1
 91
        1
 92
        1
 93
        1
 72
         2
 10
134.07199399999999
 20
55.244646000000003
 40
0.45
 50
0.0
 51
360.0
 73
         1
 97
        1
330
19D
 75
         0
 76
         1
 98
        1
 10
0.0
 20
0.0
  0
CIRCLE
  5
19F
100
AcDbEntity
  8
PART_HOLES_LAYER_TOP
100
AcDbCircle
 10
134.071994
 20
60.124646
 30
0.0
 40
0.45
  0
HATCH
  5
1A0
100
AcDbEntity
  8
PART_HOLES_LAYER_TOP
100
AcDbHatch
 10
0.0
 20
0.0
 30
0.0
210
0.0
220
0.0
230
1.0
  2
SOLID
 70
         1
 71
         1
 91
        1
 92
        1
 93
        1
 72
         2
 10
134.07199399999999
 20
60.124645999999998
 40
0.45
 50
0.0
 51
360.0
 73
         1
 97
        1
330
19F
 75
         0
 76
         1
 98
        1
 10
0.0
 20
0.0
  0
CIRCLE
  5
1A1
100
AcDbEntity
  8
PART_HOLES_LAYER_TOP
100
AcDbCircle
 10
148.9
 20
3.455
 30
0.0
 40
0.45
  0
HATCH
  5
1A2
100
AcDbEntity
  8
PART_HOLES_LAYER_TOP
100
AcDbHatch
 10
0.0
 20
0.0
 30
0.0
210
0.0
220
0.0
230
1.0
  2
SOLID
 70
         1
 71
         1
 91
        1
 92
        1
 93
        1
 72
         2
 10
148.90000000000001
 20
3.4550000000000001
 40
0.45
 50
0.0
 51
360.0
 73
         1
 97
        1
330
1A1
 75
         0
 76
         1
 98
        1
 10
0.0
 20
0.0
  0
CIRCLE
  5
1A3
100
AcDbEntity
  8
PART_HOLES_LAYER_TOP
100
AcDbCircle
 10
148.9
 20
8.535
 30
0.0
 40
0.45
  0
HATCH
  5
1A4
100
AcDbEntity
  8
PART_HOLES_LAYER_TOP
100
AcDbHatch
 10
0.0
 20
0.0
 30
0.0
210
0.0
220
0.0
230
1.0
  2
SOLID
 70
         1
 71
         1
 91
        1
 92
        1
 93
        1
 72
         2
 10
148.90000000000001
 20
8.5350000000000001
 40
0.45
 50
0.0
 51
360.0
 73
         1
 97
        1
330
1A3
 75
         0
 76
         1
 98
        1
 10
0.0
 20
0.0
  0
CIRCLE
  5
1A5
100
AcDbEntity
  8
PART_HOLES_LAYER_TOP
100
AcDbCircle
 10
146.36
 20
7.265
 30
0.0
 40
0.45
  0
HATCH
  5
1A6
100
AcDbEntity
  8
PART_HOLES_LAYER_TOP
100
AcDbHatch
 10
0.0
 20
0.0
 30
0.0
210
0.0
220
0.0
230
1.0
  2
SOLID
 70
         1
 71
         1
 91
        1
 92
        1
 93
        1
 72
         2
 10
146.36000000000001
 20
7.2649999999999997
 40
0.45
 50
0.0
 51
360.0
 73
         1
 97
        1
330
1A5
 75
         0
 76
         1
 98
        1
 10
0.0
 20
0.0
  0
CIRCLE
  5
1A7
100
AcDbEntity
  8
PART_HOLES_LAYER_TOP
100
AcDbCircle
 10
155.25
 20
2.19
 30
0.0
 40
1.625
  0
HATCH
  5
1A8
100
AcDbEntity
  8
PART_HOLES_LAYER_TOP
100
AcDbHatch
 10
0.0
 20
0.0
 30
0.0
210
0.0
220
0.0
230
1.0
  2
SOLID
 70
         1
 71
         1
 91
        1
 92
        1
 93
        1
 72
         2
 10
155.25
 20
2.1899999999999999
 40
1.625
 50
0.0
 51
360.0
 73
         1
 97
        1
330
1A7
 75
         0
 76
         1
 98
        1
 10
0.0
 20
0.0
  0
CIRCLE
  5
1A9
100
AcDbEntity
  8
PART_HOLES_LAYER_TOP
100
AcDbCircle
 10
155.25
 20
13.61
 30
0.0
 40
1.625
  0
HATCH
  5
1AA
100
AcDbEntity
  8
PART_HOLES_LAYER_TOP
100
AcDbHatch
 10
0.0
 20
0.0
 30
0.0
210
0.0
220
0.0
230
1.0
  2
SOLID
 70
         1
 71
         1
 91
        1
 92
        1
 93
        1
 72
         2
 10
155.25
 20
13.609999999999999
 40
1.625
 50
0.0
 51
360.0
 73
         1
 97
        1
330
1A9
 75
         0
 76
         1
 98
        1
 10
0.0
 20
0.0
  0
CIRCLE
  5
1AB
100
AcDbEntity
  8
PART_HOLES_LAYER_TOP
100
AcDbCircle
 10
152.2
 20
0.03
 30
0.0
 40
0.95
  0
HATCH
  5
1AC
100
AcDbEntity
  8
PART_HOLES_LAYER_TOP
100
AcDbHatch
 10
0.0
 20
0.0
 30
0.0
210
0.0
220
0.0
230
1.0
  2
SOLID
 70
         1
 71
         1
 91
        1
 92
        1
 93
        1
 72
         2
 10
152.19999999999999
 20
0.03
 40
0.95
 50
0.0
 51
360.0
 73
         1
 97
        1
330
1AB
 75
         0
 76
         1
 98
        1
 10
0.0
 20
0.0
  0
CIRCLE
  5
1AD
100
AcDbEntity
  8
PART_HOLES_LAYER_TOP
100
AcDbCircle
 10
152.2
 20
15.77
 30
0.0
 40
0.95
  0
HATCH
  5
1AE
100
AcDbEntity
  8
PART_HOLES_LAYER_TOP
100
AcDbHatch
 10
0.0
 20
0.0
 30
0.0
210
0.0
220
0.0
230
1.0
  2
SOLID
 70
         1
 71
         1
 91
        1
 92
        1
 93
        1
 72
         2
 10
152.19999999999999
 20
15.77
 40
0.95
 50
0.0
 51
360.0
 73
         1
 97
        1
330
1AD
 75
         0
 76
         1
 98
        1
 10
0.0
 20
0.0
  0
CIRCLE
  5
1AF
100
AcDbEntity
  8
PART_HOLES_LAYER_TOP
100
AcDbCircle
 10
148.9
 20
11.075
 30
0.0
 40
0.45
  0
HATCH
  5
1B0
100
AcDbEntity
  8
PART_HOLES_LAYER_TOP
100
AcDbHatch
 10
0.0
 20
0.0
 30
0.0
210
0.0
220
0.0
230
1.0
  2
SOLID
 70
         1
 71
         1
 91
        1
 92
        1
 93
        1
 72
         2
 10
148.90000000000001
 20
11.074999999999999
 40
0.45
 50
0.0
 51
360.0
 73
         1
 97
        1
330
1AF
 75
         0
 76
         1
 98
        1
 10
0.0
 20
0.0
  0
CIRCLE
  5
1B1
100
AcDbEntity
  8
PART_HOLES_LAYER_TOP
100
AcDbCircle
 10
146.36
 20
12.345
 30
0.0
 40
0.45
  0
HATCH
  5
1B2
100
AcDbEntity
  8
PART_HOLES_LAYER_TOP
100
AcDbHatch
 10
0.0
 20
0.0
 30
0.0
210
0.0
220
0.0
230
1.0
  2
SOLID
 70
         1
 71
         1
 91
        1
 92
        1
 93
        1
 72
         2
 10
146.36000000000001
 20
12.345000000000001
 40
0.45
 50
0.0
 51
360.0
 73
         1
 97
        1
330
1B1
 75
         0
 76
         1
 98
        1
 10
0.0
 20
0.0
  0
CIRCLE
  5
1B3
100
AcDbEntity
  8
PART_HOLES_LAYER_TOP
100
AcDbCircle
 10
146.36
 20
4.725
 30
0.0
 40
0.45
  0
HATCH
  5
1B4
100
AcDbEntity
  8
PART_HOLES_LAYER_TOP
100
AcDbHatch
 10
0.0
 20
0.0
 30
0.0
210
0.0
220
0.0
230
1.0
  2
SOLID
 70
         1
 71
         1
 91
        1
 92
        1
 93
        1
 72
         2
 10
146.36000000000001
 20
4.7249999999999996
 40
0.45
 50
0.0
 51
360.0
 73
         1
 97
        1
330
1B3
 75
         0
 76
         1
 98
        1
 10
0.0
 20
0.0
  0
CIRCLE
  5
1B5
100
AcDbEntity
  8
PART_HOLES_LAYER_TOP
100
AcDbCircle
 10
141.53
 20
2.44
 30
0.0
 40
0.75
  0
HATCH
  5
1B6
100
AcDbEntity
  8
PART_HOLES_LAYER_TOP
100
AcDbHatch
 10
0.0
 20
0.0
 30
0.0
210
0.0
220
0.0
230
1.0
  2
SOLID
 70
         1
 71
         1
 91
        1
 92
        1
 93
        1
 72
         2
 10
141.53
 20
2.4399999999999999
 40
0.75
 50
0.0
 51
360.0
 73
         1
 97
        1
330
1B5
 75
         0
 76
         1
 98
        1
 10
0.0
 20
0.0
  0
CIRCLE
  5
1B7
100
AcDbEntity
  8
PART_HOLES_LAYER_TOP
100
AcDbCircle
 10
160.33
 20
1.57
 30
0.0
 40
0.6
  0
HATCH
  5
1B8
100
AcDbEntity
  8
PART_HOLES_LAYER_TOP
100
AcDbHatch
 10
0.0
 20
0.0
 30
0.0
210
0.0
220
0.0
230
1.0
  2
SOLID
 70
         1
 71
         1
 91
        1
 92
        1
 93
        1
 72
         2
 10
160.33000000000001
 20
1.5700000000000001
 40
0.6
 50
0.0
 51
360.0
 73
         1
 97
        1
330
1B7
 75
         0
 76
         1
 98
        1
 10
0.0
 20
0.0
  0
CIRCLE
  5
1B9
100
AcDbEntity
  8
PART_HOLES_LAYER_TOP
100
AcDbCircle
 10
141.53
 20
4.98
 30
0.0
 40
0.75
  0
HATCH
  5
1BA
100
AcDbEntity
  8
PART_HOLES_LAYER_TOP
100
AcDbHatch
 10
0.0
 20
0.0
 30
0.0
210
0.0
220
0.0
230
1.0
  2
SOLID
 70
         1
 71
         1
 91
        1
 92
        1
 93
        1
 72
         2
 10
141.53
 20
4.9800000000000004
 40
0.75
 50
0.0
 51
360.0
 73
         1
 97
        1
330
1B9
 75
         0
 76
         1
 98
        1
 10
0.0
 20
0.0
  0
CIRCLE
  5
1BB
100
AcDbEntity
  8
PART_HOLES_LAYER_TOP
100
AcDbCircle
 10
158.63
 20
4.11
 30
0.0
 40
0.6
  0
HATCH
  5
1BC
100
AcDbEntity
  8
PART_HOLES_LAYER_TOP
100
AcDbHatch
 10
0.0
 20
0.0
 30
0.0
210
0.0
220
0.0
230
1.0
  2
SOLID
 70
         1
 71
         1
 91
        1
 92
        1
 93
        1
 72
         2
 10
158.63
 20
4.1100000000000003
 40
0.6
 50
0.0
 51
360.0
 73
         1
 97
        1
330
1BB
 75
         0
 76
         1
 98
        1
 10
0.0
 20
0.0
  0
CIRCLE
  5
1BD
100
AcDbEntity
  8
PART_HOLES_LAYER_TOP
100
AcDbCircle
 10
141.53
 20
10.82
 30
0.0
 40
0.75
  0
HATCH
  5
1BE
100
AcDbEntity
  8
PART_HOLES_LAYER_TOP
100
AcDbHatch
 10
0.0
 20
0.0
 30
0.0
210
0.0
220
0.0
230
1.0
  2
SOLID
 70
         1
 71
         1
 91
        1
 92
        1
 93
        1
 72
         2
 10
141.53
 20
10.82
 40
0.75
 50
0.0
 51
360.0
 73
         1
 97
        1
330
1BD
 75
         0
 76
         1
 98
        1
 10
0.0
 20
0.0
  0
CIRCLE
  5
1BF
100
AcDbEntity
  8
PART_HOLES_LAYER_TOP
100
AcDbCircle
 10
160.33
 20
11.69
 30
0.0
 40
0.6
  0
HATCH
  5
1C0
100
AcDbEntity
  8
PART_HOLES_LAYER_TOP
100
AcDbHatch
 10
0.0
 20
0.0
 30
0.0
210
0.0
220
0.0
230
1.0
  2
SOLID
 70
         1
 71
         1
 91
        1
 92
        1
 93
        1
 72
         2
 10
160.33000000000001
 20
11.69
 40
0.6
 50
0.0
 51
360.0
 73
         1
 97
        1
330
1BF
 75
         0
 76
         1
 98
        1
 10
0.0
 20
0.0
  0
CIRCLE
  5
1C1
100
AcDbEntity
  8
PART_HOLES_LAYER_TOP
100
AcDbCircle
 10
141.53
 20
13.36
 30
0.0
 40
0.75
  0
HATCH
  5
1C2
100
AcDbEntity
  8
PART_HOLES_LAYER_TOP
100
AcDbHatch
 10
0.0
 20
0.0
 30
0.0
210
0.0
220
0.0
230
1.0
  2
SOLID
 70
         1
 71
         1
 91
        1
 92
        1
 93
        1
 72
         2
 10
141.53
 20
13.359999999999999
 40
0.75
 50
0.0
 51
360.0
 73
         1
 97
        1
330
1C1
 75
         0
 76
         1
 98
        1
 10
0.0
 20
0.0
  0
CIRCLE
  5
1C3
100
AcDbEntity
  8
PART_HOLES_LAYER_TOP
100
AcDbCircle
 10
158.63
 20
14.23
 30
0.0
 40
0.6
  0
HATCH
  5
1C4
100
AcDbEntity
  8
PART_HOLES_LAYER_TOP
100
AcDbHatch
 10
0.0
 20
0.0
 30
0.0
210
0.0
220
0.0
230
1.0
  2
SOLID
 70
         1
 71
         1
 91
        1
 92
        1
 93
        1
 72
         2
 10
158.63
 20
14.23
 40
0.6
 50
0.0
 51
360.0
 73
         1
 97
        1
330
1C3
 75
         0
 76
         1
 98
        1
 10
0.0
 20
0.0
  0
CIRCLE
  5
1C5
100
AcDbEntity
  8
PART_HOLES_LAYER_TOP
100
AcDbCircle
 10
146.36
 20
9.805
 30
0.0
 40
0.45
  0
HATCH
  5
1C6
100
AcDbEntity
  8
PART_HOLES_LAYER_TOP
100
AcDbHatch
 10
0.0
 20
0.0
 30
0.0
210
0.0
220
0.0
230
1.0
  2
SOLID
 70
         1
 71
         1
 91
        1
 92
        1
 93
        1
 72
         2
 10
146.36000000000001
 20
9.8049999999999997
 40
0.45
 50
0.0
 51
360.0
 73
         1
 97
        1
330
1C5
 75
         0
 76
         1
 98
        1
 10
0.0
 20
0.0
  0
CIRCLE
  5
1C7
100
AcDbEntity
  8
PART_HOLES_LAYER_TOP
100
AcDbCircle
 10
148.9
 20
5.995
 30
0.0
 40
0.45
  0
HATCH
  5
1C8
100
AcDbEntity
  8
PART_HOLES_LAYER_TOP
100
AcDbHatch
 10
0.0
 20
0.0
 30
0.0
210
0.0
220
0.0
230
1.0
  2
SOLID
 70
         1
 71
         1
 91
        1
 92
        1
 93
        1
 72
         2
 10
148.90000000000001
 20
5.9950000000000001
 40
0.45
 50
0.0
 51
360.0
 73
         1
 97
        1
330
1C7
 75
         0
 76
         1
 98
        1
 10
0.0
 20
0.0
  0
CIRCLE
  5
1C9
100
AcDbEntity
  8
PART_HOLES_LAYER_TOP
100
AcDbCircle
 10
99.753596
 20
9.255462
 30
0.0
 40
0.45
  0
HATCH
  5
1CA
100
AcDbEntity
  8
PART_HOLES_LAYER_TOP
100
AcDbHatch
 10
0.0
 20
0.0
 30
0.0
210
0.0
220
0.0
230
1.0
  2
SOLID
 70
         1
 71
         1
 91
        1
 92
        1
 93
        1
 72
         2
 10
99.753596000000002
 20
9.2554619999999996
 40
0.45
 50
0.0
 51
360.0
 73
         1
 97
        1
330
1C9
 75
         0
 76
         1
 98
        1
 10
0.0
 20
0.0
  0
CIRCLE
  5
1CB
100
AcDbEntity
  8
PART_HOLES_LAYER_TOP
100
AcDbCircle
 10
99.753596
 20
24.495462
 30
0.0
 40
0.45
  0
HATCH
  5
1CC
100
AcDbEntity
  8
PART_HOLES_LAYER_TOP
100
AcDbHatch
 10
0.0
 20
0.0
 30
0.0
210
0.0
220
0.0
230
1.0
  2
SOLID
 70
         1
 71
         1
 91
        1
 92
        1
 93
        1
 72
         2
 10
99.753596000000002
 20
24.495462
 40
0.45
 50
0.0
 51
360.0
 73
         1
 97
        1
330
1CB
 75
         0
 76
         1
 98
        1
 10
0.0
 20
0.0
  0
CIRCLE
  5
1CD
100
AcDbEntity
  8
PART_HOLES_LAYER_TOP
100
AcDbCircle
 10
99.753596
 20
21.955462
 30
0.0
 40
0.45
  0
HATCH
  5
1CE
100
AcDbEntity
  8
PART_HOLES_LAYER_TOP
100
AcDbHatch
 10
0.0
 20
0.0
 30
0.0
210
0.0
220
0.0
230
1.0
  2
SOLID
 70
         1
 71
         1
 91
        1
 92
        1
 93
        1
 72
         2
 10
99.753596000000002
 20
21.955462000000001
 40
0.45
 50
0.0
 51
360.0
 73
         1
 97
        1
330
1CD
 75
         0
 76
         1
 98
        1
 10
0.0
 20
0.0
  0
CIRCLE
  5
1CF
100
AcDbEntity
  8
PART_HOLES_LAYER_TOP
100
AcDbCircle
 10
97.213596
 20
19.415462
 30
0.0
 40
0.45
  0
HATCH
  5
1D0
100
AcDbEntity
  8
PART_HOLES_LAYER_TOP
100
AcDbHatch
 10
0.0
 20
0.0
 30
0.0
210
0.0
220
0.0
230
1.0
  2
SOLID
 70
         1
 71
         1
 91
        1
 92
        1
 93
        1
 72
         2
 10
97.213595999999995
 20
19.415462000000002
 40
0.45
 50
0.0
 51
360.0
 73
         1
 97
        1
330
1CF
 75
         0
 76
         1
 98
        1
 10
0.0
 20
0.0
  0
CIRCLE
  5
1D1
100
AcDbEntity
  8
PART_HOLES_LAYER_TOP
100
AcDbCircle
 10
99.753596
 20
19.415462
 30
0.0
 40
0.45
  0
HATCH
  5
1D2
100
AcDbEntity
  8
PART_HOLES_LAYER_TOP
100
AcDbHatch
 10
0.0
 20
0.0
 30
0.0
210
0.0
220
0.0
230
1.0
  2
SOLID
 70
         1
 71
         1
 91
        1
 92
        1
 93
        1
 72
         2
 10
99.753596000000002
 20
19.415462000000002
 40
0.45
 50
0.0
 51
360.0
 73
         1
 97
        1
330
1D1
 75
         0
 76
         1
 98
        1
 10
0.0
 20
0.0
  0
CIRCLE
  5
1D3
100
AcDbEntity
  8
PART_HOLES_LAYER_TOP
100
AcDbCircle
 10
97.213596
 20
16.875462
 30
0.0
 40
0.45
  0
HATCH
  5
1D4
100
AcDbEntity
  8
PART_HOLES_LAYER_TOP
100
AcDbHatch
 10
0.0
 20
0.0
 30
0.0
210
0.0
220
0.0
230
1.0
  2
SOLID
 70
         1
 71
         1
 91
        1
 92
        1
 93
        1
 72
         2
 10
97.213595999999995
 20
16.875461999999999
 40
0.45
 50
0.0
 51
360.0
 73
         1
 97
        1
330
1D3
 75
         0
 76
         1
 98
        1
 10
0.0
 20
0.0
  0
CIRCLE
  5
1D5
100
AcDbEntity
  8
PART_HOLES_LAYER_TOP
100
AcDbCircle
 10
99.753596
 20
16.875462
 30
0.0
 40
0.45
  0
HATCH
  5
1D6
100
AcDbEntity
  8
PART_HOLES_LAYER_TOP
100
AcDbHatch
 10
0.0
 20
0.0
 30
0.0
210
0.0
220
0.0
230
1.0
  2
SOLID
 70
         1
 71
         1
 91
        1
 92
        1
 93
        1
 72
         2
 10
99.753596000000002
 20
16.875461999999999
 40
0.45
 50
0.0
 51
360.0
 73
         1
 97
        1
330
1D5
 75
         0
 76
         1
 98
        1
 10
0.0
 20
0.0
  0
CIRCLE
  5
1D7
100
AcDbEntity
  8
PART_HOLES_LAYER_TOP
100
AcDbCircle
 10
99.753596
 20
14.335462
 30
0.0
 40
0.45
  0
HATCH
  5
1D8
100
AcDbEntity
  8
PART_HOLES_LAYER_TOP
100
AcDbHatch
 10
0.0
 20
0.0
 30
0.0
210
0.0
220
0.0
230
1.0
  2
SOLID
 70
         1
 71
         1
 91
        1
 92
        1
 93
        1
 72
         2
 10
99.753596000000002
 20
14.335462
 40
0.45
 50
0.0
 51
360.0
 73
         1
 97
        1
330
1D7
 75
         0
 76
         1
 98
        1
 10
0.0
 20
0.0
  0
CIRCLE
  5
1D9
100
AcDbEntity
  8
PART_HOLES_LAYER_TOP
100
AcDbCircle
 10
99.753596
 20
11.795462
 30
0.0
 40
0.45
  0
HATCH
  5
1DA
100
AcDbEntity
  8
PART_HOLES_LAYER_TOP
100
AcDbHatch
 10
0.0
 20
0.0
 30
0.0
210
0.0
220
0.0
230
1.0
  2
SOLID
 70
         1
 71
         1
 91
        1
 92
        1
 93
        1
 72
         2
 10
99.753596000000002
 20
11.795462000000001
 40
0.45
 50
0.0
 51
360.0
 73
         1
 97
        1
330
1D9
 75
         0
 76
         1
 98
        1
 10
0.0
 20
0.0
  0
CIRCLE
  5
1DB
100
AcDbEntity
  8
PART_HOLES_LAYER_TOP
100
AcDbCircle
 10
97.213596
 20
21.955462
 30
0.0
 40
0.45
  0
HATCH
  5
1DC
100
AcDbEntity
  8
PART_HOLES_LAYER_TOP
100
AcDbHatch
 10
0.0
 20
0.0
 30
0.0
210
0.0
220
0.0
230
1.0
  2
SOLID
 70
         1
 71
         1
 91
        1
 92
        1
 93
        1
 72
         2
 10
97.213595999999995
 20
21.955462000000001
 40
0.45
 50
0.0
 51
360.0
 73
         1
 97
        1
330
1DB
 75
         0
 76
         1
 98
        1
 10
0.0
 20
0.0
  0
CIRCLE
  5
1DD
100
AcDbEntity
  8
PART_HOLES_LAYER_TOP
100
AcDbCircle
 10
97.213596
 20
14.335462
 30
0.0
 40
0.45
  0
HATCH
  5
1DE
100
AcDbEntity
  8
PART_HOLES_LAYER_TOP
100
AcDbHatch
 10
0.0
 20
0.0
 30
0.0
210
0.0
220
0.0
230
1.0
  2
SOLID
 70
         1
 71
         1
 91
        1
 92
        1
 93
        1
 72
         2
 10
97.213595999999995
 20
14.335462
 40
0.45
 50
0.0
 51
360.0
 73
         1
 97
        1
330
1DD
 75
         0
 76
         1
 98
        1
 10
0.0
 20
0.0
  0
CIRCLE
  5
1DF
100
AcDbEntity
  8
PART_HOLES_LAYER_TOP
100
AcDbCircle
 10
97.213596
 20
11.795462
 30
0.0
 40
0.45
  0
HATCH
  5
1E0
100
AcDbEntity
  8
PART_HOLES_LAYER_TOP
100
AcDbHatch
 10
0.0
 20
0.0
 30
0.0
210
0.0
220
0.0
230
1.0
  2
SOLID
 70
         1
 71
         1
 91
        1
 92
        1
 93
        1
 72
         2
 10
97.213595999999995
 20
11.795462000000001
 40
0.45
 50
0.0
 51
360.0
 73
         1
 97
        1
330
1DF
 75
         0
 76
         1
 98
        1
 10
0.0
 20
0.0
  0
CIRCLE
  5
1E1
100
AcDbEntity
  8
PART_HOLES_LAYER_TOP
100
AcDbCircle
 10
97.213596
 20
9.255462
 30
0.0
 40
0.45
  0
HATCH
  5
1E2
100
AcDbEntity
  8
PART_HOLES_LAYER_TOP
100
AcDbHatch
 10
0.0
 20
0.0
 30
0.0
210
0.0
220
0.0
230
1.0
  2
SOLID
 70
         1
 71
         1
 91
        1
 92
        1
 93
        1
 72
         2
 10
97.213595999999995
 20
9.2554619999999996
 40
0.45
 50
0.0
 51
360.0
 73
         1
 97
        1
330
1E1
 75
         0
 76
         1
 98
        1
 10
0.0
 20
0.0
  0
CIRCLE
  5
1E3
100
AcDbEntity
  8
PART_HOLES_LAYER_TOP
100
AcDbCircle
 10
97.213596
 20
29.575462
 30
0.0
 40
0.45
  0
HATCH
  5
1E4
100
AcDbEntity
  8
PART_HOLES_LAYER_TOP
100
AcDbHatch
 10
0.0
 20
0.0
 30
0.0
210
0.0
220
0.0
230
1.0
  2
SOLID
 70
         1
 71
         1
 91
        1
 92
        1
 93
        1
 72
         2
 10
97.213595999999995
 20
29.575462000000002
 40
0.45
 50
0.0
 51
360.0
 73
         1
 97
        1
330
1E3
 75
         0
 76
         1
 98
        1
 10
0.0
 20
0.0
  0
CIRCLE
  5
1E5
100
AcDbEntity
  8
PART_HOLES_LAYER_TOP
100
AcDbCircle
 10
99.753596
 20
29.575462
 30
0.0
 40
0.45
  0
HATCH
  5
1E6
100
AcDbEntity
  8
PART_HOLES_LAYER_TOP
100
AcDbHatch
 10
0.0
 20
0.0
 30
0.0
210
0.0
220
0.0
230
1.0
  2
SOLID
 70
         1
 71
         1
 91
        1
 92
        1
 93
        1
 72
         2
 10
99.753596000000002
 20
29.575462000000002
 40
0.45
 50
0.0
 51
360.0
 73
         1
 97
        1
330
1E5
 75
         0
 76
         1
 98
        1
 10
0.0
 20
0.0
  0
CIRCLE
  5
1E7
100
AcDbEntity
  8
PART_HOLES_LAYER_TOP
100
AcDbCircle
 10
97.213596
 20
27.035462
 30
0.0
 40
0.45
  0
HATCH
  5
1E8
100
AcDbEntity
  8
PART_HOLES_LAYER_TOP
100
AcDbHatch
 10
0.0
 20
0.0
 30
0.0
210
0.0
220
0.0
230
1.0
  2
SOLID
 70
         1
 71
         1
 91
        1
 92
        1
 93
        1
 72
         2
 10
97.213595999999995
 20
27.035461999999999
 40
0.45
 50
0.0
 51
360.0
 73
         1
 97
        1
330
1E7
 75
         0
 76
         1
 98
        1
 10
0.0
 20
0.0
  0
CIRCLE
  5
1E9
100
AcDbEntity
  8
PART_HOLES_LAYER_TOP
100
AcDbCircle
 10
99.753596
 20
27.035462
 30
0.0
 40
0.45
  0
HATCH
  5
1EA
100
AcDbEntity
  8
PART_HOLES_LAYER_TOP
100
AcDbHatch
 10
0.0
 20
0.0
 30
0.0
210
0.0
220
0.0
230
1.0
  2
SOLID
 70
         1
 71
         1
 91
        1
 92
        1
 93
        1
 72
         2
 10
99.753596000000002
 20
27.035461999999999
 40
0.45
 50
0.0
 51
360.0
 73
         1
 97
        1
330
1E9
 75
         0
 76
         1
 98
        1
 10
0.0
 20
0.0
  0
CIRCLE
  5
1EB
100
AcDbEntity
  8
PART_HOLES_LAYER_TOP
100
AcDbCircle
 10
97.213596
 20
24.495462
 30
0.0
 40
0.45
  0
HATCH
  5
1EC
100
AcDbEntity
  8
PART_HOLES_LAYER_TOP
100
AcDbHatch
 10
0.0
 20
0.0
 30
0.0
210
0.0
220
0.0
230
1.0
  2
SOLID
 70
         1
 71
         1
 91
        1
 92
        1
 93
        1
 72
         2
 10
97.213595999999995
 20
24.495462
 40
0.45
 50
0.0
 51
360.0
 73
         1
 97
        1
330
1EB
 75
         0
 76
         1
 98
        1
 10
0.0
 20
0.0
  0
CIRCLE
  5
1ED
100
AcDbEntity
  8
PART_HOLES_LAYER_TOP
100
AcDbCircle
 10
99.753596
 20
32.115462
 30
0.0
 40
0.45
  0
HATCH
  5
1EE
100
AcDbEntity
  8
PART_HOLES_LAYER_TOP
100
AcDbHatch
 10
0.0
 20
0.0
 30
0.0
210
0.0
220
0.0
230
1.0
  2
SOLID
 70
         1
 71
         1
 91
        1
 92
        1
 93
        1
 72
         2
 10
99.753596000000002
 20
32.115462000000001
 40
0.45
 50
0.0
 51
360.0
 73
         1
 97
        1
330
1ED
 75
         0
 76
         1
 98
        1
 10
0.0
 20
0.0
  0
CIRCLE
  5
1EF
100
AcDbEntity
  8
PART_HOLES_LAYER_TOP
100
AcDbCircle
 10
97.213596
 20
32.115462
 30
0.0
 40
0.45
  0
HATCH
  5
1F0
100
AcDbEntity
  8
PART_HOLES_LAYER_TOP
100
AcDbHatch
 10
0.0
 20
0.0
 30
0.0
210
0.0
220
0.0
230
1.0
  2
SOLID
 70
         1
 71
         1
 91
        1
 92
        1
 93
        1
 72
         2
 10
97.213595999999995
 20
32.115462000000001
 40
0.45
 50
0.0
 51
360.0
 73
         1
 97
        1
330
1EF
 75
         0
 76
         1
 98
        1
 10
0.0
 20
0.0
  0
CIRCLE
  5
1F1
100
AcDbEntity
  8
PART_HOLES_LAYER_TOP
100
AcDbCircle
 10
102.5
 20
-3.9
 30
0.0
 40
0.45
  0
HATCH
  5
1F2
100
AcDbEntity
  8
PART_HOLES_LAYER_TOP
100
AcDbHatch
 10
0.0
 20
0.0
 30
0.0
210
0.0
220
0.0
230
1.0
  2
SOLID
 70
         1
 71
         1
 91
        1
 92
        1
 93
        1
 72
         2
 10
102.5
 20
-3.8999999999999999
 40
0.45
 50
0.0
 51
360.0
 73
         1
 97
        1
330
1F1
 75
         0
 76
         1
 98
        1
 10
0.0
 20
0.0
  0
CIRCLE
  5
1F3
100
AcDbEntity
  8
PART_HOLES_LAYER_TOP
100
AcDbCircle
 10
99.96
 20
-3.9
 30
0.0
 40
0.45
  0
HATCH
  5
1F4
100
AcDbEntity
  8
PART_HOLES_LAYER_TOP
100
AcDbHatch
 10
0.0
 20
0.0
 30
0.0
210
0.0
220
0.0
230
1.0
  2
SOLID
 70
         1
 71
         1
 91
        1
 92
        1
 93
        1
 72
         2
 10
99.959999999999994
 20
-3.8999999999999999
 40
0.45
 50
0.0
 51
360.0
 73
         1
 97
        1
330
1F3
 75
         0
 76
         1
 98
        1
 10
0.0
 20
0.0
  0
CIRCLE
  5
1F5
100
AcDbEntity
  8
PART_HOLES_LAYER_TOP
100
AcDbCircle
 10
97.42
 20
-3.9
 30
0.0
 40
0.45
  0
HATCH
  5
1F6
100
AcDbEntity
  8
PART_HOLES_LAYER_TOP
100
AcDbHatch
 10
0.0
 20
0.0
 30
0.0
210
0.0
220
0.0
230
1.0
  2
SOLID
 70
         1
 71
         1
 91
        1
 92
        1
 93
        1
 72
         2
 10
97.420000000000002
 20
-3.8999999999999999
 40
0.45
 50
0.0
 51
360.0
 73
         1
 97
        1
330
1F5
 75
         0
 76
         1
 98
        1
 10
0.0
 20
0.0
  0
CIRCLE
  5
1F7
100
AcDbEntity
  8
PART_HOLES_LAYER_TOP
100
AcDbCircle
 10
134.914696
 20
48.419144
 30
0.0
 40
0.45
  0
HATCH
  5
1F8
100
AcDbEntity
  8
PART_HOLES_LAYER_TOP
100
AcDbHatch
 10
0.0
 20
0.0
 30
0.0
210
0.0
220
0.0
230
1.0
  2
SOLID
 70
         1
 71
         1
 91
        1
 92
        1
 93
        1
 72
         2
 10
134.91469599999999
 20
48.419144000000003
 40
0.45
 50
0.0
 51
360.0
 73
         1
 97
        1
330
1F7
 75
         0
 76
         1
 98
        1
 10
0.0
 20
0.0
  0
CIRCLE
  5
1F9
100
AcDbEntity
  8
PART_HOLES_LAYER_TOP
100
AcDbCircle
 10
134.914696
 20
50.959146
 30
0.0
 40
0.45
  0
HATCH
  5
1FA
100
AcDbEntity
  8
PART_HOLES_LAYER_TOP
100
AcDbHatch
 10
0.0
 20
0.0
 30
0.0
210
0.0
220
0.0
230
1.0
  2
SOLID
 70
         1
 71
         1
 91
        1
 92
        1
 93
        1
 72
         2
 10
134.91469599999999
 20
50.959145999999997
 40
0.45
 50
0.0
 51
360.0
 73
         1
 97
        1
330
1F9
 75
         0
 76
         1
 98
        1
 10
0.0
 20
0.0
  0
CIRCLE
  5
1FB
100
AcDbEntity
  8
PART_HOLES_LAYER_TOP
100
AcDbCircle
 10
88.109485
 20
18.375609
 30
0.0
 40
0.45
  0
HATCH
  5
1FC
100
AcDbEntity
  8
PART_HOLES_LAYER_TOP
100
AcDbHatch
 10
0.0
 20
0.0
 30
0.0
210
0.0
220
0.0
230
1.0
  2
SOLID
 70
         1
 71
         1
 91
        1
 92
        1
 93
        1
 72
         2
 10
88.109485000000006
 20
18.375609000000001
 40
0.45
 50
0.0
 51
360.0
 73
         1
 97
        1
330
1FB
 75
         0
 76
         1
 98
        1
 10
0.0
 20
0.0
  0
CIRCLE
  5
1FD
100
AcDbEntity
  8
PART_HOLES_LAYER_TOP
100
AcDbCircle
 10
85.569485
 20
20.915609
 30
0.0
 40
0.45
  0
HATCH
  5
1FE
100
AcDbEntity
  8
PART_HOLES_LAYER_TOP
100
AcDbHatch
 10
0.0
 20
0.0
 30
0.0
210
0.0
220
0.0
230
1.0
  2
SOLID
 70
         1
 71
         1
 91
        1
 92
        1
 93
        1
 72
         2
 10
85.569485
 20
20.915609
 40
0.45
 50
0.0
 51
360.0
 73
         1
 97
        1
330
1FD
 75
         0
 76
         1
 98
        1
 10
0.0
 20
0.0
  0
CIRCLE
  5
1FF
100
AcDbEntity
  8
PART_HOLES_LAYER_TOP
100
AcDbCircle
 10
85.569485
 20
66.635609
 30
0.0
 40
0.45
  0
HATCH
  5
200
100
AcDbEntity
  8
PART_HOLES_LAYER_TOP
100
AcDbHatch
 10
0.0
 20
0.0
 30
0.0
210
0.0
220
0.0
230
1.0
  2
SOLID
 70
         1
 71
         1
 91
        1
 92
        1
 93
        1
 72
         2
 10
85.569485
 20
66.635609000000002
 40
0.45
 50
0.0
 51
360.0
 73
         1
 97
        1
330
1FF
 75
         0
 76
         1
 98
        1
 10
0.0
 20
0.0
  0
CIRCLE
  5
201
100
AcDbEntity
  8
PART_HOLES_LAYER_TOP
100
AcDbCircle
 10
88.109485
 20
66.635609
 30
0.0
 40
0.45
  0
HATCH
  5
202
100
AcDbEntity
  8
PART_HOLES_LAYER_TOP
100
AcDbHatch
 10
0.0
 20
0.0
 30
0.0
210
0.0
220
0.0
230
1.0
  2
SOLID
 70
         1
 71
         1
 91
        1
 92
        1
 93
        1
 72
         2
 10
88.109485000000006
 20
66.635609000000002
 40
0.45
 50
0.0
 51
360.0
 73
         1
 97
        1
330
201
 75
         0
 76
         1
 98
        1
 10
0.0
 20
0.0
  0
CIRCLE
  5
203
100
AcDbEntity
  8
PART_HOLES_LAYER_TOP
100
AcDbCircle
 10
85.569485
 20
64.095609
 30
0.0
 40
0.45
  0
HATCH
  5
204
100
AcDbEntity
  8
PART_HOLES_LAYER_TOP
100
AcDbHatch
 10
0.0
 20
0.0
 30
0.0
210
0.0
220
0.0
230
1.0
  2
SOLID
 70
         1
 71
         1
 91
        1
 92
        1
 93
        1
 72
         2
 10
85.569485
 20
64.095608999999996
 40
0.45
 50
0.0
 51
360.0
 73
         1
 97
        1
330
203
 75
         0
 76
         1
 98
        1
 10
0.0
 20
0.0
  0
CIRCLE
  5
205
100
AcDbEntity
  8
PART_HOLES_LAYER_TOP
100
AcDbCircle
 10
85.569485
 20
59.015609
 30
0.0
 40
0.45
  0
HATCH
  5
206
100
AcDbEntity
  8
PART_HOLES_LAYER_TOP
100
AcDbHatch
 10
0.0
 20
0.0
 30
0.0
210
0.0
220
0.0
230
1.0
  2
SOLID
 70
         1
 71
         1
 91
        1
 92
        1
 93
        1
 72
         2
 10
85.569485
 20
59.015608999999998
 40
0.45
 50
0.0
 51
360.0
 73
         1
 97
        1
330
205
 75
         0
 76
         1
 98
        1
 10
0.0
 20
0.0
  0
CIRCLE
  5
207
100
AcDbEntity
  8
PART_HOLES_LAYER_TOP
100
AcDbCircle
 10
88.109485
 20
59.015609
 30
0.0
 40
0.45
  0
HATCH
  5
208
100
AcDbEntity
  8
PART_HOLES_LAYER_TOP
100
AcDbHatch
 10
0.0
 20
0.0
 30
0.0
210
0.0
220
0.0
230
1.0
  2
SOLID
 70
         1
 71
         1
 91
        1
 92
        1
 93
        1
 72
         2
 10
88.109485000000006
 20
59.015608999999998
 40
0.45
 50
0.0
 51
360.0
 73
         1
 97
        1
330
207
 75
         0
 76
         1
 98
        1
 10
0.0
 20
0.0
  0
CIRCLE
  5
209
100
AcDbEntity
  8
PART_HOLES_LAYER_TOP
100
AcDbCircle
 10
88.109485
 20
51.395609
 30
0.0
 40
0.45
  0
HATCH
  5
20A
100
AcDbEntity
  8
PART_HOLES_LAYER_TOP
100
AcDbHatch
 10
0.0
 20
0.0
 30
0.0
210
0.0
220
0.0
230
1.0
  2
SOLID
 70
         1
 71
         1
 91
        1
 92
        1
 93
        1
 72
         2
 10
88.109485000000006
 20
51.395609
 40
0.45
 50
0.0
 51
360.0
 73
         1
 97
        1
330
209
 75
         0
 76
         1
 98
        1
 10
0.0
 20
0.0
  0
CIRCLE
  5
20B
100
AcDbEntity
  8
PART_HOLES_LAYER_TOP
100
AcDbCircle
 10
85.569485
 20
38.695609
 30
0.0
 40
0.45
  0
HATCH
  5
20C
100
AcDbEntity
  8
PART_HOLES_LAYER_TOP
100
AcDbHatch
 10
0.0
 20
0.0
 30
0.0
210
0.0
220
0.0
230
1.0
  2
SOLID
 70
         1
 71
         1
 91
        1
 92
        1
 93
        1
 72
         2
 10
85.569485
 20
38.695608999999997
 40
0.45
 50
0.0
 51
360.0
 73
         1
 97
        1
330
20B
 75
         0
 76
         1
 98
        1
 10
0.0
 20
0.0
  0
CIRCLE
  5
20D
100
AcDbEntity
  8
PART_HOLES_LAYER_TOP
100
AcDbCircle
 10
85.569485
 20
28.535609
 30
0.0
 40
0.45
  0
HATCH
  5
20E
100
AcDbEntity
  8
PART_HOLES_LAYER_TOP
100
AcDbHatch
 10
0.0
 20
0.0
 30
0.0
210
0.0
220
0.0
230
1.0
  2
SOLID
 70
         1
 71
         1
 91
        1
 92
        1
 93
        1
 72
         2
 10
85.569485
 20
28.535609000000001
 40
0.45
 50
0.0
 51
360.0
 73
         1
 97
        1
330
20D
 75
         0
 76
         1
 98
        1
 10
0.0
 20
0.0
  0
CIRCLE
  5
20F
100
AcDbEntity
  8
PART_HOLES_LAYER_TOP
100
AcDbCircle
 10
85.569485
 20
53.935609
 30
0.0
 40
0.45
  0
HATCH
  5
210
100
AcDbEntity
  8
PART_HOLES_LAYER_TOP
100
AcDbHatch
 10
0.0
 20
0.0
 30
0.0
210
0.0
220
0.0
230
1.0
  2
SOLID
 70
         1
 71
         1
 91
        1
 92
        1
 93
        1
 72
         2
 10
85.569485
 20
53.935608999999999
 40
0.45
 50
0.0
 51
360.0
 73
         1
 97
        1
330
20F
 75
         0
 76
         1
 98
        1
 10
0.0
 20
0.0
  0
CIRCLE
  5
211
100
AcDbEntity
  8
PART_HOLES_LAYER_TOP
100
AcDbCircle
 10
88.109485
 20
53.935609
 30
0.0
 40
0.45
  0
HATCH
  5
212
100
AcDbEntity
  8
PART_HOLES_LAYER_TOP
100
AcDbHatch
 10
0.0
 20
0.0
 30
0.0
210
0.0
220
0.0
230
1.0
  2
SOLID
 70
         1
 71
         1
 91
        1
 92
        1
 93
        1
 72
         2
 10
88.109485000000006
 20
53.935608999999999
 40
0.45
 50
0.0
 51
360.0
 73
         1
 97
        1
330
211
 75
         0
 76
         1
 98
        1
 10
0.0
 20
0.0
  0
CIRCLE
  5
213
100
AcDbEntity
  8
PART_HOLES_LAYER_TOP
100
AcDbCircle
 10
85.569485
 20
51.395609
 30
0.0
 40
0.45
  0
HATCH
  5
214
100
AcDbEntity
  8
PART_HOLES_LAYER_TOP
100
AcDbHatch
 10
0.0
 20
0.0
 30
0.0
210
0.0
220
0.0
230
1.0
  2
SOLID
 70
         1
 71
         1
 91
        1
 92
        1
 93
        1
 72
         2
 10
85.569485
 20
51.395609
 40
0.45
 50
0.0
 51
360.0
 73
         1
 97
        1
330
213
 75
         0
 76
         1
 98
        1
 10
0.0
 20
0.0
  0
CIRCLE
  5
215
100
AcDbEntity
  8
PART_HOLES_LAYER_TOP
100
AcDbCircle
 10
85.569485
 20
48.855609
 30
0.0
 40
0.45
  0
HATCH
  5
216
100
AcDbEntity
  8
PART_HOLES_LAYER_TOP
100
AcDbHatch
 10
0.0
 20
0.0
 30
0.0
210
0.0
220
0.0
230
1.0
  2
SOLID
 70
         1
 71
         1
 91
        1
 92
        1
 93
        1
 72
         2
 10
85.569485
 20
48.855609000000001
 40
0.45
 50
0.0
 51
360.0
 73
         1
 97
        1
330
215
 75
         0
 76
         1
 98
        1
 10
0.0
 20
0.0
  0
CIRCLE
  5
217
100
AcDbEntity
  8
PART_HOLES_LAYER_TOP
100
AcDbCircle
 10
88.109485
 20
48.855609
 30
0.0
 40
0.45
  0
HATCH
  5
218
100
AcDbEntity
  8
PART_HOLES_LAYER_TOP
100
AcDbHatch
 10
0.0
 20
0.0
 30
0.0
210
0.0
220
0.0
230
1.0
  2
SOLID
 70
         1
 71
         1
 91
        1
 92
        1
 93
        1
 72
         2
 10
88.109485000000006
 20
48.855609000000001
 40
0.45
 50
0.0
 51
360.0
 73
         1
 97
        1
330
217
 75
         0
 76
         1
 98
        1
 10
0.0
 20
0.0
  0
CIRCLE
  5
219
100
AcDbEntity
  8
PART_HOLES_LAYER_TOP
100
AcDbCircle
 10
88.109485
 20
46.315609
 30
0.0
 40
0.45
  0
HATCH
  5
21A
100
AcDbEntity
  8
PART_HOLES_LAYER_TOP
100
AcDbHatch
 10
0.0
 20
0.0
 30
0.0
210
0.0
220
0.0
230
1.0
  2
SOLID
 70
         1
 71
         1
 91
        1
 92
        1
 93
        1
 72
         2
 10
88.109485000000006
 20
46.315609000000002
 40
0.45
 50
0.0
 51
360.0
 73
         1
 97
        1
330
219
 75
         0
 76
         1
 98
        1
 10
0.0
 20
0.0
  0
CIRCLE
  5
21B
100
AcDbEntity
  8
PART_HOLES_LAYER_TOP
100
AcDbCircle
 10
85.569485
 20
43.775609
 30
0.0
 40
0.45
  0
HATCH
  5
21C
100
AcDbEntity
  8
PART_HOLES_LAYER_TOP
100
AcDbHatch
 10
0.0
 20
0.0
 30
0.0
210
0.0
220
0.0
230
1.0
  2
SOLID
 70
         1
 71
         1
 91
        1
 92
        1
 93
        1
 72
         2
 10
85.569485
 20
43.775609000000003
 40
0.45
 50
0.0
 51
360.0
 73
         1
 97
        1
330
21B
 75
         0
 76
         1
 98
        1
 10
0.0
 20
0.0
  0
CIRCLE
  5
21D
100
AcDbEntity
  8
PART_HOLES_LAYER_TOP
100
AcDbCircle
 10
88.109485
 20
43.775609
 30
0.0
 40
0.45
  0
HATCH
  5
21E
100
AcDbEntity
  8
PART_HOLES_LAYER_TOP
100
AcDbHatch
 10
0.0
 20
0.0
 30
0.0
210
0.0
220
0.0
230
1.0
  2
SOLID
 70
         1
 71
         1
 91
        1
 92
        1
 93
        1
 72
         2
 10
88.109485000000006
 20
43.775609000000003
 40
0.45
 50
0.0
 51
360.0
 73
         1
 97
        1
330
21D
 75
         0
 76
         1
 98
        1
 10
0.0
 20
0.0
  0
CIRCLE
  5
21F
100
AcDbEntity
  8
PART_HOLES_LAYER_TOP
100
AcDbCircle
 10
85.569485
 20
41.235609
 30
0.0
 40
0.45
  0
HATCH
  5
220
100
AcDbEntity
  8
PART_HOLES_LAYER_TOP
100
AcDbHatch
 10
0.0
 20
0.0
 30
0.0
210
0.0
220
0.0
230
1.0
  2
SOLID
 70
         1
 71
         1
 91
        1
 92
        1
 93
        1
 72
         2
 10
85.569485
 20
41.235608999999997
 40
0.45
 50
0.0
 51
360.0
 73
         1
 97
        1
330
21F
 75
         0
 76
         1
 98
        1
 10
0.0
 20
0.0
  0
CIRCLE
  5
221
100
AcDbEntity
  8
PART_HOLES_LAYER_TOP
100
AcDbCircle
 10
88.109485
 20
41.235609
 30
0.0
 40
0.45
  0
HATCH
  5
222
100
AcDbEntity
  8
PART_HOLES_LAYER_TOP
100
AcDbHatch
 10
0.0
 20
0.0
 30
0.0
210
0.0
220
0.0
230
1.0
  2
SOLID
 70
         1
 71
         1
 91
        1
 92
        1
 93
        1
 72
         2
 10
88.109485000000006
 20
41.235608999999997
 40
0.45
 50
0.0
 51
360.0
 73
         1
 97
        1
330
221
 75
         0
 76
         1
 98
        1
 10
0.0
 20
0.0
  0
CIRCLE
  5
223
100
AcDbEntity
  8
PART_HOLES_LAYER_TOP
100
AcDbCircle
 10
88.109485
 20
38.695609
 30
0.0
 40
0.45
  0
HATCH
  5
224
100
AcDbEntity
  8
PART_HOLES_LAYER_TOP
100
AcDbHatch
 10
0.0
 20
0.0
 30
0.0
210
0.0
220
0.0
230
1.0
  2
SOLID
 70
         1
 71
         1
 91
        1
 92
        1
 93
        1
 72
         2
 10
88.109485000000006
 20
38.695608999999997
 40
0.45
 50
0.0
 51
360.0
 73
         1
 97
        1
330
223
 75
         0
 76
         1
 98
        1
 10
0.0
 20
0.0
  0
CIRCLE
  5
225
100
AcDbEntity
  8
PART_HOLES_LAYER_TOP
100
AcDbCircle
 10
88.109485
 20
20.915609
 30
0.0
 40
0.45
  0
HATCH
  5
226
100
AcDbEntity
  8
PART_HOLES_LAYER_TOP
100
AcDbHatch
 10
0.0
 20
0.0
 30
0.0
210
0.0
220
0.0
230
1.0
  2
SOLID
 70
         1
 71
         1
 91
        1
 92
        1
 93
        1
 72
         2
 10
88.109485000000006
 20
20.915609
 40
0.45
 50
0.0
 51
360.0
 73
         1
 97
        1
330
225
 75
         0
 76
         1
 98
        1
 10
0.0
 20
0.0
  0
CIRCLE
  5
227
100
AcDbEntity
  8
PART_HOLES_LAYER_TOP
100
AcDbCircle
 10
88.109485
 20
64.095609
 30
0.0
 40
0.45
  0
HATCH
  5
228
100
AcDbEntity
  8
PART_HOLES_LAYER_TOP
100
AcDbHatch
 10
0.0
 20
0.0
 30
0.0
210
0.0
220
0.0
230
1.0
  2
SOLID
 70
         1
 71
         1
 91
        1
 92
        1
 93
        1
 72
         2
 10
88.109485000000006
 20
64.095608999999996
 40
0.45
 50
0.0
 51
360.0
 73
         1
 97
        1
330
227
 75
         0
 76
         1
 98
        1
 10
0.0
 20
0.0
  0
CIRCLE
  5
229
100
AcDbEntity
  8
PART_HOLES_LAYER_TOP
100
AcDbCircle
 10
85.569485
 20
61.555609
 30
0.0
 40
0.45
  0
HATCH
  5
22A
100
AcDbEntity
  8
PART_HOLES_LAYER_TOP
100
AcDbHatch
 10
0.0
 20
0.0
 30
0.0
210
0.0
220
0.0
230
1.0
  2
SOLID
 70
         1
 71
         1
 91
        1
 92
        1
 93
        1
 72
         2
 10
85.569485
 20
61.555608999999997
 40
0.45
 50
0.0
 51
360.0
 73
         1
 97
        1
330
229
 75
         0
 76
         1
 98
        1
 10
0.0
 20
0.0
  0
CIRCLE
  5
22B
100
AcDbEntity
  8
PART_HOLES_LAYER_TOP
100
AcDbCircle
 10
88.109485
 20
61.555609
 30
0.0
 40
0.45
  0
HATCH
  5
22C
100
AcDbEntity
  8
PART_HOLES_LAYER_TOP
100
AcDbHatch
 10
0.0
 20
0.0
 30
0.0
210
0.0
220
0.0
230
1.0
  2
SOLID
 70
         1
 71
         1
 91
        1
 92
        1
 93
        1
 72
         2
 10
88.109485000000006
 20
61.555608999999997
 40
0.45
 50
0.0
 51
360.0
 73
         1
 97
        1
330
22B
 75
         0
 76
         1
 98
        1
 10
0.0
 20
0.0
  0
CIRCLE
  5
22D
100
AcDbEntity
  8
PART_HOLES_LAYER_TOP
100
AcDbCircle
 10
85.569485
 20
56.475609
 30
0.0
 40
0.45
  0
HATCH
  5
22E
100
AcDbEntity
  8
PART_HOLES_LAYER_TOP
100
AcDbHatch
 10
0.0
 20
0.0
 30
0.0
210
0.0
220
0.0
230
1.0
  2
SOLID
 70
         1
 71
         1
 91
        1
 92
        1
 93
        1
 72
         2
 10
85.569485
 20
56.475608999999999
 40
0.45
 50
0.0
 51
360.0
 73
         1
 97
        1
330
22D
 75
         0
 76
         1
 98
        1
 10
0.0
 20
0.0
  0
CIRCLE
  5
22F
100
AcDbEntity
  8
PART_HOLES_LAYER_TOP
100
AcDbCircle
 10
88.109485
 20
56.475609
 30
0.0
 40
0.45
  0
HATCH
  5
230
100
AcDbEntity
  8
PART_HOLES_LAYER_TOP
100
AcDbHatch
 10
0.0
 20
0.0
 30
0.0
210
0.0
220
0.0
230
1.0
  2
SOLID
 70
         1
 71
         1
 91
        1
 92
        1
 93
        1
 72
         2
 10
88.109485000000006
 20
56.475608999999999
 40
0.45
 50
0.0
 51
360.0
 73
         1
 97
        1
330
22F
 75
         0
 76
         1
 98
        1
 10
0.0
 20
0.0
  0
CIRCLE
  5
231
100
AcDbEntity
  8
PART_HOLES_LAYER_TOP
100
AcDbCircle
 10
85.569485
 20
18.375609
 30
0.0
 40
0.45
  0
HATCH
  5
232
100
AcDbEntity
  8
PART_HOLES_LAYER_TOP
100
AcDbHatch
 10
0.0
 20
0.0
 30
0.0
210
0.0
220
0.0
230
1.0
  2
SOLID
 70
         1
 71
         1
 91
        1
 92
        1
 93
        1
 72
         2
 10
85.569485
 20
18.375609000000001
 40
0.45
 50
0.0
 51
360.0
 73
         1
 97
        1
330
231
 75
         0
 76
         1
 98
        1
 10
0.0
 20
0.0
  0
CIRCLE
  5
233
100
AcDbEntity
  8
PART_HOLES_LAYER_TOP
100
AcDbCircle
 10
85.569485
 20
46.315609
 30
0.0
 40
0.45
  0
HATCH
  5
234
100
AcDbEntity
  8
PART_HOLES_LAYER_TOP
100
AcDbHatch
 10
0.0
 20
0.0
 30
0.0
210
0.0
220
0.0
230
1.0
  2
SOLID
 70
         1
 71
         1
 91
        1
 92
        1
 93
        1
 72
         2
 10
85.569485
 20
46.315609000000002
 40
0.45
 50
0.0
 51
360.0
 73
         1
 97
        1
330
233
 75
         0
 76
         1
 98
        1
 10
0.0
 20
0.0
  0
CIRCLE
  5
235
100
AcDbEntity
  8
PART_HOLES_LAYER_TOP
100
AcDbCircle
 10
88.109485
 20
28.535609
 30
0.0
 40
0.45
  0
HATCH
  5
236
100
AcDbEntity
  8
PART_HOLES_LAYER_TOP
100
AcDbHatch
 10
0.0
 20
0.0
 30
0.0
210
0.0
220
0.0
230
1.0
  2
SOLID
 70
         1
 71
         1
 91
        1
 92
        1
 93
        1
 72
         2
 10
88.109485000000006
 20
28.535609000000001
 40
0.45
 50
0.0
 51
360.0
 73
         1
 97
        1
330
235
 75
         0
 76
         1
 98
        1
 10
0.0
 20
0.0
  0
CIRCLE
  5
237
100
AcDbEntity
  8
PART_HOLES_LAYER_TOP
100
AcDbCircle
 10
85.569485
 20
25.995609
 30
0.0
 40
0.45
  0
HATCH
  5
238
100
AcDbEntity
  8
PART_HOLES_LAYER_TOP
100
AcDbHatch
 10
0.0
 20
0.0
 30
0.0
210
0.0
220
0.0
230
1.0
  2
SOLID
 70
         1
 71
         1
 91
        1
 92
        1
 93
        1
 72
         2
 10
85.569485
 20
25.995609000000002
 40
0.45
 50
0.0
 51
360.0
 73
         1
 97
        1
330
237
 75
         0
 76
         1
 98
        1
 10
0.0
 20
0.0
  0
CIRCLE
  5
239
100
AcDbEntity
  8
PART_HOLES_LAYER_TOP
100
AcDbCircle
 10
88.109485
 20
25.995609
 30
0.0
 40
0.45
  0
HATCH
  5
23A
100
AcDbEntity
  8
PART_HOLES_LAYER_TOP
100
AcDbHatch
 10
0.0
 20
0.0
 30
0.0
210
0.0
220
0.0
230
1.0
  2
SOLID
 70
         1
 71
         1
 91
        1
 92
        1
 93
        1
 72
         2
 10
88.109485000000006
 20
25.995609000000002
 40
0.45
 50
0.0
 51
360.0
 73
         1
 97
        1
330
239
 75
         0
 76
         1
 98
        1
 10
0.0
 20
0.0
  0
CIRCLE
  5
23B
100
AcDbEntity
  8
PART_HOLES_LAYER_TOP
100
AcDbCircle
 10
85.569485
 20
33.615609
 30
0.0
 40
0.45
  0
HATCH
  5
23C
100
AcDbEntity
  8
PART_HOLES_LAYER_TOP
100
AcDbHatch
 10
0.0
 20
0.0
 30
0.0
210
0.0
220
0.0
230
1.0
  2
SOLID
 70
         1
 71
         1
 91
        1
 92
        1
 93
        1
 72
         2
 10
85.569485
 20
33.615608999999999
 40
0.45
 50
0.0
 51
360.0
 73
         1
 97
        1
330
23B
 75
         0
 76
         1
 98
        1
 10
0.0
 20
0.0
  0
CIRCLE
  5
23D
100
AcDbEntity
  8
PART_HOLES_LAYER_TOP
100
AcDbCircle
 10
88.109485
 20
33.615609
 30
0.0
 40
0.45
  0
HATCH
  5
23E
100
AcDbEntity
  8
PART_HOLES_LAYER_TOP
100
AcDbHatch
 10
0.0
 20
0.0
 30
0.0
210
0.0
220
0.0
230
1.0
  2
SOLID
 70
         1
 71
         1
 91
        1
 92
        1
 93
        1
 72
         2
 10
88.109485000000006
 20
33.615608999999999
 40
0.45
 50
0.0
 51
360.0
 73
         1
 97
        1
330
23D
 75
         0
 76
         1
 98
        1
 10
0.0
 20
0.0
  0
CIRCLE
  5
23F
100
AcDbEntity
  8
PART_HOLES_LAYER_TOP
100
AcDbCircle
 10
85.569485
 20
31.075609
 30
0.0
 40
0.45
  0
HATCH
  5
240
100
AcDbEntity
  8
PART_HOLES_LAYER_TOP
100
AcDbHatch
 10
0.0
 20
0.0
 30
0.0
210
0.0
220
0.0
230
1.0
  2
SOLID
 70
         1
 71
         1
 91
        1
 92
        1
 93
        1
 72
         2
 10
85.569485
 20
31.075609
 40
0.45
 50
0.0
 51
360.0
 73
         1
 97
        1
330
23F
 75
         0
 76
         1
 98
        1
 10
0.0
 20
0.0
  0
CIRCLE
  5
241
100
AcDbEntity
  8
PART_HOLES_LAYER_TOP
100
AcDbCircle
 10
85.569485
 20
23.455609
 30
0.0
 40
0.45
  0
HATCH
  5
242
100
AcDbEntity
  8
PART_HOLES_LAYER_TOP
100
AcDbHatch
 10
0.0
 20
0.0
 30
0.0
210
0.0
220
0.0
230
1.0
  2
SOLID
 70
         1
 71
         1
 91
        1
 92
        1
 93
        1
 72
         2
 10
85.569485
 20
23.455608999999999
 40
0.45
 50
0.0
 51
360.0
 73
         1
 97
        1
330
241
 75
         0
 76
         1
 98
        1
 10
0.0
 20
0.0
  0
CIRCLE
  5
243
100
AcDbEntity
  8
PART_HOLES_LAYER_TOP
100
AcDbCircle
 10
88.109485
 20
23.455609
 30
0.0
 40
0.45
  0
HATCH
  5
244
100
AcDbEntity
  8
PART_HOLES_LAYER_TOP
100
AcDbHatch
 10
0.0
 20
0.0
 30
0.0
210
0.0
220
0.0
230
1.0
  2
SOLID
 70
         1
 71
         1
 91
        1
 92
        1
 93
        1
 72
         2
 10
88.109485000000006
 20
23.455608999999999
 40
0.45
 50
0.0
 51
360.0
 73
         1
 97
        1
330
243
 75
         0
 76
         1
 98
        1
 10
0.0
 20
0.0
  0
CIRCLE
  5
245
100
AcDbEntity
  8
PART_HOLES_LAYER_TOP
100
AcDbCircle
 10
88.109485
 20
36.155609
 30
0.0
 40
0.45
  0
HATCH
  5
246
100
AcDbEntity
  8
PART_HOLES_LAYER_TOP
100
AcDbHatch
 10
0.0
 20
0.0
 30
0.0
210
0.0
220
0.0
230
1.0
  2
SOLID
 70
         1
 71
         1
 91
        1
 92
        1
 93
        1
 72
         2
 10
88.109485000000006
 20
36.155608999999998
 40
0.45
 50
0.0
 51
360.0
 73
         1
 97
        1
330
245
 75
         0
 76
         1
 98
        1
 10
0.0
 20
0.0
  0
CIRCLE
  5
247
100
AcDbEntity
  8
PART_HOLES_LAYER_TOP
100
AcDbCircle
 10
85.569485
 20
36.155609
 30
0.0
 40
0.45
  0
HATCH
  5
248
100
AcDbEntity
  8
PART_HOLES_LAYER_TOP
100
AcDbHatch
 10
0.0
 20
0.0
 30
0.0
210
0.0
220
0.0
230
1.0
  2
SOLID
 70
         1
 71
         1
 91
        1
 92
        1
 93
        1
 72
         2
 10
85.569485
 20
36.155608999999998
 40
0.45
 50
0.0
 51
360.0
 73
         1
 97
        1
330
247
 75
         0
 76
         1
 98
        1
 10
0.0
 20
0.0
  0
CIRCLE
  5
249
100
AcDbEntity
  8
PART_HOLES_LAYER_TOP
100
AcDbCircle
 10
88.109485
 20
31.075609
 30
0.0
 40
0.45
  0
HATCH
  5
24A
100
AcDbEntity
  8
PART_HOLES_LAYER_TOP
100
AcDbHatch
 10
0.0
 20
0.0
 30
0.0
210
0.0
220
0.0
230
1.0
  2
SOLID
 70
         1
 71
         1
 91
        1
 92
        1
 93
        1
 72
         2
 10
88.109485000000006
 20
31.075609
 40
0.45
 50
0.0
 51
360.0
 73
         1
 97
        1
330
249
 75
         0
 76
         1
 98
        1
 10
0.0
 20
0.0
  0
CIRCLE
  5
24B
100
AcDbEntity
  8
PART_HOLES_LAYER_TOP
100
AcDbCircle
 10
153.04
 20
55.96
 30
0.0
 40
0.45
  0
HATCH
  5
24C
100
AcDbEntity
  8
PART_HOLES_LAYER_TOP
100
AcDbHatch
 10
0.0
 20
0.0
 30
0.0
210
0.0
220
0.0
230
1.0
  2
SOLID
 70
         1
 71
         1
 91
        1
 92
        1
 93
        1
 72
         2
 10
153.03999999999999
 20
55.960000000000001
 40
0.45
 50
0.0
 51
360.0
 73
         1
 97
        1
330
24B
 75
         0
 76
         1
 98
        1
 10
0.0
 20
0.0
  0
CIRCLE
  5
24D
100
AcDbEntity
  8
PART_HOLES_LAYER_TOP
100
AcDbCircle
 10
155.76
 20
66.06
 30
0.0
 40
1.25
  0
HATCH
  5
24E
100
AcDbEntity
  8
PART_HOLES_LAYER_TOP
100
AcDbHatch
 10
0.0
 20
0.0
 30
0.0
210
0.0
220
0.0
230
1.0
  2
SOLID
 70
         1
 71
         1
 91
        1
 92
        1
 93
        1
 72
         2
 10
155.75999999999999
 20
66.060000000000002
 40
1.25
 50
0.0
 51
360.0
 73
         1
 97
        1
330
24D
 75
         0
 76
         1
 98
        1
 10
0.0
 20
0.0
  0
CIRCLE
  5
24F
100
AcDbEntity
  8
PART_HOLES_LAYER_TOP
100
AcDbCircle
 10
155.76
 20
52.86
 30
0.0
 40
1.25
  0
HATCH
  5
250
100
AcDbEntity
  8
PART_HOLES_LAYER_TOP
100
AcDbHatch
 10
0.0
 20
0.0
 30
0.0
210
0.0
220
0.0
230
1.0
  2
SOLID
 70
         1
 71
         1
 91
        1
 92
        1
 93
        1
 72
         2
 10
155.75999999999999
 20
52.859999999999999
 40
1.25
 50
0.0
 51
360.0
 73
         1
 97
        1
330
24F
 75
         0
 76
         1
 98
        1
 10
0.0
 20
0.0
  0
CIRCLE
  5
251
100
AcDbEntity
  8
PART_HOLES_LAYER_TOP
100
AcDbCircle
 10
153.04
 20
58.46
 30
0.0
 40
0.45
  0
HATCH
  5
252
100
AcDbEntity
  8
PART_HOLES_LAYER_TOP
100
AcDbHatch
 10
0.0
 20
0.0
 30
0.0
210
0.0
220
0.0
230
1.0
  2
SOLID
 70
         1
 71
         1
 91
        1
 92
        1
 93
        1
 72
         2
 10
153.03999999999999
 20
58.460000000000001
 40
0.45
 50
0.0
 51
360.0
 73
         1
 97
        1
330
251
 75
         0
 76
         1
 98
        1
 10
0.0
 20
0.0
  0
CIRCLE
  5
253
100
AcDbEntity
  8
PART_HOLES_LAYER_TOP
100
AcDbCircle
 10
153.04
 20
60.46
 30
0.0
 40
0.45
  0
HATCH
  5
254
100
AcDbEntity
  8
PART_HOLES_LAYER_TOP
100
AcDbHatch
 10
0.0
 20
0.0
 30
0.0
210
0.0
220
0.0
230
1.0
  2
SOLID
 70
         1
 71
         1
 91
        1
 92
        1
 93
        1
 72
         2
 10
153.03999999999999
 20
60.460000000000001
 40
0.45
 50
0.0
 51
360.0
 73
         1
 97
        1
330
253
 75
         0
 76
         1
 98
        1
 10
0.0
 20
0.0
  0
CIRCLE
  5
255
100
AcDbEntity
  8
PART_HOLES_LAYER_TOP
100
AcDbCircle
 10
153.04
 20
62.96
 30
0.0
 40
0.45
  0
HATCH
  5
256
100
AcDbEntity
  8
PART_HOLES_LAYER_TOP
100
AcDbHatch
 10
0.0
 20
0.0
 30
0.0
210
0.0
220
0.0
230
1.0
  2
SOLID
 70
         1
 71
         1
 91
        1
 92
        1
 93
        1
 72
         2
 10
153.03999999999999
 20
62.960000000000001
 40
0.45
 50
0.0
 51
360.0
 73
         1
 97
        1
330
255
 75
         0
 76
         1
 98
        1
 10
0.0
 20
0.0
  0
CIRCLE
  5
257
100
AcDbEntity
  8
PART_HOLES_LAYER_TOP
100
AcDbCircle
 10
155.7
 20
49.4
 30
0.0
 40
0.45
  0
HATCH
  5
258
100
AcDbEntity
  8
PART_HOLES_LAYER_TOP
100
AcDbHatch
 10
0.0
 20
0.0
 30
0.0
210
0.0
220
0.0
230
1.0
  2
SOLID
 70
         1
 71
         1
 91
        1
 92
        1
 93
        1
 72
         2
 10
155.69999999999999
 20
49.399999999999999
 40
0.45
 50
0.0
 51
360.0
 73
         1
 97
        1
330
257
 75
         0
 76
         1
 98
        1
 10
0.0
 20
0.0
  0
CIRCLE
  5
259
100
AcDbEntity
  8
PART_HOLES_LAYER_TOP
100
AcDbCircle
 10
153.16
 20
49.4
 30
0.0
 40
0.45
  0
HATCH
  5
25A
100
AcDbEntity
  8
PART_HOLES_LAYER_TOP
100
AcDbHatch
 10
0.0
 20
0.0
 30
0.0
210
0.0
220
0.0
230
1.0
  2
SOLID
 70
         1
 71
         1
 91
        1
 92
        1
 93
        1
 72
         2
 10
153.16
 20
49.399999999999999
 40
0.45
 50
0.0
 51
360.0
 73
         1
 97
        1
330
259
 75
         0
 76
         1
 98
        1
 10
0.0
 20
0.0
  0
CIRCLE
  5
25B
100
AcDbEntity
  8
PART_HOLES_LAYER_TOP
100
AcDbCircle
 10
161.9
 20
68.8
 30
0.0
 40
0.45
  0
HATCH
  5
25C
100
AcDbEntity
  8
PART_HOLES_LAYER_TOP
100
AcDbHatch
 10
0.0
 20
0.0
 30
0.0
210
0.0
220
0.0
230
1.0
  2
SOLID
 70
         1
 71
         1
 91
        1
 92
        1
 93
        1
 72
         2
 10
161.90000000000001
 20
68.799999999999997
 40
0.45
 50
0.0
 51
360.0
 73
         1
 97
        1
330
25B
 75
         0
 76
         1
 98
        1
 10
0.0
 20
0.0
  0
CIRCLE
  5
25D
100
AcDbEntity
  8
PART_HOLES_LAYER_TOP
100
AcDbCircle
 10
159.36
 20
68.8
 30
0.0
 40
0.45
  0
HATCH
  5
25E
100
AcDbEntity
  8
PART_HOLES_LAYER_TOP
100
AcDbHatch
 10
0.0
 20
0.0
 30
0.0
210
0.0
220
0.0
230
1.0
  2
SOLID
 70
         1
 71
         1
 91
        1
 92
        1
 93
        1
 72
         2
 10
159.36000000000001
 20
68.799999999999997
 40
0.45
 50
0.0
 51
360.0
 73
         1
 97
        1
330
25D
 75
         0
 76
         1
 98
        1
 10
0.0
 20
0.0
  0
CIRCLE
  5
25F
100
AcDbEntity
  8
PART_HOLES_LAYER_TOP
100
AcDbCircle
 10
156.40053
 20
33.33104
 30
0.0
 40
0.6
  0
HATCH
  5
260
100
AcDbEntity
  8
PART_HOLES_LAYER_TOP
100
AcDbHatch
 10
0.0
 20
0.0
 30
0.0
210
0.0
220
0.0
230
1.0
  2
SOLID
 70
         1
 71
         1
 91
        1
 92
        1
 93
        1
 72
         2
 10
156.40053
 20
33.331040000000002
 40
0.6
 50
0.0
 51
360.0
 73
         1
 97
        1
330
25F
 75
         0
 76
         1
 98
        1
 10
0.0
 20
0.0
  0
CIRCLE
  5
261
100
AcDbEntity
  8
PART_HOLES_LAYER_TOP
100
AcDbCircle
 10
156.40053
 20
36.10104
 30
0.0
 40
0.6
  0
HATCH
  5
262
100
AcDbEntity
  8
PART_HOLES_LAYER_TOP
100
AcDbHatch
 10
0.0
 20
0.0
 30
0.0
210
0.0
220
0.0
230
1.0
  2
SOLID
 70
         1
 71
         1
 91
        1
 92
        1
 93
        1
 72
         2
 10
156.40053
 20
36.101039999999998
 40
0.6
 50
0.0
 51
360.0
 73
         1
 97
        1
330
261
 75
         0
 76
         1
 98
        1
 10
0.0
 20
0.0
  0
CIRCLE
  5
263
100
AcDbEntity
  8
PART_HOLES_LAYER_TOP
100
AcDbCircle
 10
154.98053
 20
44.44604
 30
0.0
 40
1.5
  0
HATCH
  5
264
100
AcDbEntity
  8
PART_HOLES_LAYER_TOP
100
AcDbHatch
 10
0.0
 20
0.0
 30
0.0
210
0.0
220
0.0
230
1.0
  2
SOLID
 70
         1
 71
         1
 91
        1
 92
        1
 93
        1
 72
         2
 10
154.98052999999999
 20
44.446040000000004
 40
1.5
 50
0.0
 51
360.0
 73
         1
 97
        1
330
263
 75
         0
 76
         1
 98
        1
 10
0.0
 20
0.0
  0
CIRCLE
  5
265
100
AcDbEntity
  8
PART_HOLES_LAYER_TOP
100
AcDbCircle
 10
154.98053
 20
19.44604
 30
0.0
 40
1.5
  0
HATCH
  5
266
100
AcDbEntity
  8
PART_HOLES_LAYER_TOP
100
AcDbHatch
 10
0.0
 20
0.0
 30
0.0
210
0.0
220
0.0
230
1.0
  2
SOLID
 70
         1
 71
         1
 91
        1
 92
        1
 93
        1
 72
         2
 10
154.98052999999999
 20
19.44604
 40
1.5
 50
0.0
 51
360.0
 73
         1
 97
        1
330
265
 75
         0
 76
         1
 98
        1
 10
0.0
 20
0.0
  0
CIRCLE
  5
267
100
AcDbEntity
  8
PART_HOLES_LAYER_TOP
100
AcDbCircle
 10
153.56053
 20
37.48604
 30
0.0
 40
0.6
  0
HATCH
  5
268
100
AcDbEntity
  8
PART_HOLES_LAYER_TOP
100
AcDbHatch
 10
0.0
 20
0.0
 30
0.0
210
0.0
220
0.0
230
1.0
  2
SOLID
 70
         1
 71
         1
 91
        1
 92
        1
 93
        1
 72
         2
 10
153.56053
 20
37.486040000000003
 40
0.6
 50
0.0
 51
360.0
 73
         1
 97
        1
330
267
 75
         0
 76
         1
 98
        1
 10
0.0
 20
0.0
  0
CIRCLE
  5
269
100
AcDbEntity
  8
PART_HOLES_LAYER_TOP
100
AcDbCircle
 10
156.40053
 20
27.79104
 30
0.0
 40
0.6
  0
HATCH
  5
26A
100
AcDbEntity
  8
PART_HOLES_LAYER_TOP
100
AcDbHatch
 10
0.0
 20
0.0
 30
0.0
210
0.0
220
0.0
230
1.0
  2
SOLID
 70
         1
 71
         1
 91
        1
 92
        1
 93
        1
 72
         2
 10
156.40053
 20
27.791039999999999
 40
0.6
 50
0.0
 51
360.0
 73
         1
 97
        1
330
269
 75
         0
 76
         1
 98
        1
 10
0.0
 20
0.0
  0
CIRCLE
  5
26B
100
AcDbEntity
  8
PART_HOLES_LAYER_TOP
100
AcDbCircle
 10
153.56053
 20
34.71604
 30
0.0
 40
0.6
  0
HATCH
  5
26C
100
AcDbEntity
  8
PART_HOLES_LAYER_TOP
100
AcDbHatch
 10
0.0
 20
0.0
 30
0.0
210
0.0
220
0.0
230
1.0
  2
SOLID
 70
         1
 71
         1
 91
        1
 92
        1
 93
        1
 72
         2
 10
153.56053
 20
34.71604
 40
0.6
 50
0.0
 51
360.0
 73
         1
 97
        1
330
26B
 75
         0
 76
         1
 98
        1
 10
0.0
 20
0.0
  0
CIRCLE
  5
26D
100
AcDbEntity
  8
PART_HOLES_LAYER_TOP
100
AcDbCircle
 10
153.56053
 20
26.40604
 30
0.0
 40
0.6
  0
HATCH
  5
26E
100
AcDbEntity
  8
PART_HOLES_LAYER_TOP
100
AcDbHatch
 10
0.0
 20
0.0
 30
0.0
210
0.0
220
0.0
230
1.0
  2
SOLID
 70
         1
 71
         1
 91
        1
 92
        1
 93
        1
 72
         2
 10
153.56053
 20
26.406040000000001
 40
0.6
 50
0.0
 51
360.0
 73
         1
 97
        1
330
26D
 75
         0
 76
         1
 98
        1
 10
0.0
 20
0.0
  0
CIRCLE
  5
26F
100
AcDbEntity
  8
PART_HOLES_LAYER_TOP
100
AcDbCircle
 10
156.40053
 20
30.56104
 30
0.0
 40
0.6
  0
HATCH
  5
270
100
AcDbEntity
  8
PART_HOLES_LAYER_TOP
100
AcDbHatch
 10
0.0
 20
0.0
 30
0.0
210
0.0
220
0.0
230
1.0
  2
SOLID
 70
         1
 71
         1
 91
        1
 92
        1
 93
        1
 72
         2
 10
156.40053
 20
30.561039999999998
 40
0.6
 50
0.0
 51
360.0
 73
         1
 97
        1
330
26F
 75
         0
 76
         1
 98
        1
 10
0.0
 20
0.0
  0
CIRCLE
  5
271
100
AcDbEntity
  8
PART_HOLES_LAYER_TOP
100
AcDbCircle
 10
153.56053
 20
29.17604
 30
0.0
 40
0.6
  0
HATCH
  5
272
100
AcDbEntity
  8
PART_HOLES_LAYER_TOP
100
AcDbHatch
 10
0.0
 20
0.0
 30
0.0
210
0.0
220
0.0
230
1.0
  2
SOLID
 70
         1
 71
         1
 91
        1
 92
        1
 93
        1
 72
         2
 10
153.56053
 20
29.17604
 40
0.6
 50
0.0
 51
360.0
 73
         1
 97
        1
330
271
 75
         0
 76
         1
 98
        1
 10
0.0
 20
0.0
  0
CIRCLE
  5
273
100
AcDbEntity
  8
PART_HOLES_LAYER_TOP
100
AcDbCircle
 10
153.56053
 20
31.94604
 30
0.0
 40
0.6
  0
HATCH
  5
274
100
AcDbEntity
  8
PART_HOLES_LAYER_TOP
100
AcDbHatch
 10
0.0
 20
0.0
 30
0.0
210
0.0
220
0.0
230
1.0
  2
SOLID
 70
         1
 71
         1
 91
        1
 92
        1
 93
        1
 72
         2
 10
153.56053
 20
31.94604
 40
0.6
 50
0.0
 51
360.0
 73
         1
 97
        1
330
273
 75
         0
 76
         1
 98
        1
 10
0.0
 20
0.0
  0
ENDSEC
  0
SECTION
  2
OBJECTS
  0
DICTIONARY
  5
19
100
AcDbDictionary
  3
ACAD_GROUP
350
1A
  3
ACAD_MLINESTYLE
350
1B
  0
DICTIONARY
  5
1A
102
{ACAD_REACTORS
330
19
102
}
100
AcDbDictionary
  0
DICTIONARY
  5
1B
102
{ACAD_REACTORS
330
19
102
}
100
AcDbDictionary
  3
STANDARD
350
1C
  0
MLINESTYLE
  5
1C
102
{ACAD_REACTORS
330
1B
102
}
100
AcDbMlineStyle
  2
STANDARD
 70
         0
  3

 62
         0
 51
90.0
 52
90.0
 71
         2
 49
0.5
 62
       256
  6
BYLAYER
 49
-0.5
 62
       256
  6
BYLAYER
  0
DICTIONARY
  5
22
102
{ACAD_REACTORS
330
19
102
}
100
AcDbDictionary
  0
ENDSEC
  0
EOF
