  0
SECTION
  2
HEADER
  9
$ACADVER
  1
AC1014
  9
$ACADMAINTVER
 70
         0
  9
$DWGCODEPAGE
  3
ANSI_1252
  9
$INSBASE
 10
0.0
 20
0.0
 30
0.0
  9
$EXTMIN
 10
-9.9016
 20
0.0
 30
0.0
  9
$EXTMAX
 10
140.614684
 20
179.7596
 30
0.0
  9
$LIMMIN
 10
0.0
 20
0.0
  9
$LIMMAX
 10
0.0
 20
0.0
  9
$ORTHOMODE
 70
         0
  9
$REGENMODE
 70
         1
  9
$FILLMODE
 70
         1
  9
$QTEXTMODE
 70
         0
  9
$MIRRTEXT
 70
         1
  9
$DRAGMODE
 70
         2
  9
$LTSCALE
 40
1.0
  9
$OSMODE
 70
         0
  9
$ATTMODE
 70
         1
  9
$TEXTSIZE
 40
0.2
  9
$TRACEWID
 40
0.05
  9
$TEXTSTYLE
  7
STANDARD
  9
$CLAYER
  8
0
  9
$CELTYPE
  6
CONTINUOUS
  9
$CECOLOR
 62
       256
  9
$CELTSCALE
 40
1.0
  9
$DELOBJ
 70
         1
  9
$DISPSILH
 70
         0
  9
$DIMSCALE
 40
1.0
  9
$DIMASZ
 40
0.18
  9
$DIMEXO
 40
0.0625
  9
$DIMDLI
 40
0.38
  9
$DIMRND
 40
0.0
  9
$DIMDLE
 40
0.0
  9
$DIMEXE
 40
0.18
  9
$DIMTP
 40
0.0
  9
$DIMTM
 40
0.0
  9
$DIMTXT
 40
0.18
  9
$DIMCEN
 40
0.09
  9
$DIMTSZ
 40
0.0
  9
$DIMTOL
 70
         0
  9
$DIMLIM
 70
         0
  9
$DIMTIH
 70
         1
  9
$DIMTOH
 70
         1
  9
$DIMSE1
 70
         0
  9
$DIMSE2
 70
         0
  9
$DIMTAD
 70
         0
  9
$DIMZIN
 70
         0
  9
$DIMBLK
  1

  9
$DIMASO
 70
         1
  9
$DIMSHO
 70
         1
  9
$DIMPOST
  1

  9
$DIMAPOST
  1

  9
$DIMALT
 70
         0
  9
$DIMALTD
 70
         2
  9
$DIMALTF
 40
25.4
  9
$DIMLFAC
 40
1.0
  9
$DIMTOFL
 70
         0
  9
$DIMTVP
 40
0.0
  9
$DIMTIX
 70
         0
  9
$DIMSOXD
 70
         0
  9
$DIMSAH
 70
         0
  9
$DIMBLK1
  1

  9
$DIMBLK2
  1

  9
$DIMSTYLE
  2
STANDARD
  9
$DIMCLRD
 70
         0
  9
$DIMCLRE
 70
         0
  9
$DIMCLRT
 70
         0
  9
$DIMTFAC
 40
1.0
  9
$DIMGAP
 40
0.09
  9
$DIMJUST
 70
         0
  9
$DIMSD1
 70
         0
  9
$DIMSD2
 70
         0
  9
$DIMTOLJ
 70
         1
  9
$DIMTZIN
 70
         0
  9
$DIMALTZ
 70
         0
  9
$DIMALTTZ
 70
         0
  9
$DIMFIT
 70
         3
  9
$DIMUPT
 70
         0
  9
$DIMUNIT
 70
         2
  9
$DIMDEC
 70
         4
  9
$DIMTDEC
 70
         4
  9
$DIMALTU
 70
         2
  9
$DIMALTTD
 70
         2
  9
$DIMTXSTY
  7
STANDARD
  9
$DIMAUNIT
 70
         0
  9
$LUNITS
 70
         2
  9
$LUPREC
 70
         4
  9
$SKETCHINC
 40
0.1
  9
$FILLETRAD
 40
0.0
  9
$AUNITS
 70
         0
  9
$AUPREC
 70
         0
  9
$MENU
  1
acad
  9
$ELEVATION
 40
0.0
  9
$PELEVATION
 40
0.0
  9
$THICKNESS
 40
0.0
  9
$LIMCHECK
 70
         0
  9
$BLIPMODE
 70
         1
  9
$CHAMFERA
 40
0.0
  9
$CHAMFERB
 40
0.0
  9
$CHAMFERC
 40
0.0
  9
$CHAMFERD
 40
0.0
  9
$SKPOLY
 70
         0
  9
$TDCREATE
 40
2456419.502928241
  9
$TDUPDATE
 40
0.000000000
  9
$TDINDWG
 40
0.0000000000
  9
$TDUSRTIMER
 40
0.0000000000
  9
$USRTIMER
 70
         1
  9
$ANGBASE
 50
0.0
  9
$ANGDIR
 70
         0
  9
$PDMODE
 70
         0
  9
$PDSIZE
 40
0.0
  9
$PLINEWID
 40
0.0
  9
$COORDS
 70
         0
  9
$SPLFRAME
 70
         0
  9
$SPLINETYPE
 70
         6
  9
$SPLINESEGS
 70
         8
  9
$ATTDIA
 70
         0
  9
$ATTREQ
 70
         1
  9
$HANDLING
 70
         1
  9
$HANDSEED
  5
628
  9
$SURFTAB1
 70
         6
  9
$SURFTAB2
 70
         6
  9
$SURFTYPE
 70
         6
  9
$SURFU
 70
         6
  9
$SURFV
 70
         6
  9
$UCSNAME
  2

  9
$UCSORG
 10
0.0
 20
0.0
 30
0.0
  9
$UCSXDIR
 10
1.0
 20
0.0
 30
0.0
  9
$UCSYDIR
 10
0.0
 20
1.0
 30
0.0
  9
$PUCSNAME
  2

  9
$PUCSORG
 10
0.0
 20
0.0
 30
0.0
  9
$PUCSXDIR
 10
1.0
 20
0.0
 30
0.0
  9
$PUCSYDIR
 10
0.0
 20
1.0
 30
0.0
  9
$USERI1
 70
        -3
  9
$USERI2
 70
         0
  9
$USERI3
 70
         0
  9
$USERI4
 70
         0
  9
$USERI5
 70
         0
  9
$USERR1
 40
0.0
  9
$USERR2
 40
0.0
  9
$USERR3
 40
0.0
  9
$USERR4
 40
0.0
  9
$USERR5
 40
0.0
  9
$WORLDVIEW
 70
         1
  9
$SHADEDGE
 70
         3
  9
$SHADEDIF
 70
        70
  9
$TILEMODE
 70
         1
  9
$MAXACTVP
 70
        16
  9
$PINSBASE
 10
0.0
 20
0.0
 30
0.0
  9
$PLIMCHECK
 70
         0
  9
$PEXTMIN
 10
1.0000000000E+20
 20
1.0000000000E+20
 30
1.0000000000E+20
  9
$PEXTMAX
 10
-1.0000000000E+20
 20
-1.0000000000E+20
 30
-1.0000000000E+20
  9
$PLIMMIN
 10
0.0
 20
0.0
  9
$PLIMMAX
 10
12.0
 20
9.0
  9
$UNITMODE
 70
         0
  9
$VISRETAIN
 70
         0
  9
$PLINEGEN
 70
         1
  9
$PSLTSCALE
 70
         0
  9
$TREEDEPTH
 70
      3020
  9
$PICKSTYLE
 70
         1
  9
$CMLSTYLE
  2
STANDARD
  9
$CMLJUST
 70
         0
  9
$CMLSCALE
 40
1.0
  9
$PROXYGRAPHICS
 70
         0
  9
$MEASUREMENT
 70
         0
  0
ENDSEC
  0
SECTION
  2
CLASSES
  0
CLASS
  1
LWPOLYLINE
  2
AcDbPolyline
  3
"AutoCAD"
 90
        0
280
         0
281
         1
  0
CLASS
  1
IMAGE
  2
AcDbRasterImage
  3
ISM
 90
      127
280
         0
281
         1
  0
CLASS
  1
OLE2FRAME
  2
AcDbOle2Frame
  3
""
 90
        0
280
         0
281
         1
  0
CLASS
  1
HATCH
  2
AcDbHatch
  3
"ACAD_SEDONA"
 90
        0
280
         0
281
         1
  0
CLASS
  1
DICTIONARYVAR
  2
AcDbDictionaryVar
  3
"AutoCAD"
 90
        0
280
         0
281
         0
  0
CLASS
  1
RASTERVARIABLES
  2
AcDbRasterVariables
  3
ISM
 90
        0
280
         0
281
         0
  0
CLASS
  1
IMAGEDEF
  2
AcDbRasterImageDef
  3
ISM
 90
        0
280
         0
281
         0
  0
CLASS
  1
IMAGEDEF_REACTOR
  2
AcDbRasterImageDefReactor
  3
ISM
 90
        1
280
         0
281
         0
  0
CLASS
  1
IDBUFFER
  2
AcDbIdBuffer
  3
"Acad"
 90
        0
280
         0
281
         0
  0
CLASS
  1
SPATIAL_FILTER
  2
AcDbSpatialFilter
  3
"Acad"
 90
        0
280
         0
281
         0
  0
CLASS
  1
XRECORD
  2
AcDbXrecord
  3
"<Built In>"
 90
        0
280
         0
281
         0
  0
CLASS
  1
SORTENTSTABLE
  2
AcDbSortentsTable
  3
"AutoCAD"
 90
        0
280
         0
281
         0
  0
CLASS
  1
LAYER_INDEX
  2
AcDbLayerIndex
  3
"Acad"
 90
        0
280
         0
281
         0
  0
CLASS
  1
SPATIAL_INDEX
  2
AcDbSpatialIndex
  3
"Acad"
 90
        0
280
         0
281
         0
  0
CLASS
  1
OBJECT_PTR
  2
CAseDLPNTableRecord
  3
"ASE-LPNTableRecord"
 90
        1
280
         0
281
         0
  0
CLASS
  1
LAYOUT
  2
AcDbLayout
  3
"AutoCAD 2000"
 90
        0
280
         0
281
         0
  0
CLASS
  1
PLOTSETTINGS
  2
AcDbPlotSettings
  3
"AutoCAD 2000"
 90
        0
280
         0
281
         0
  0
CLASS
  1
ACDBDICTIONARYWDFLT
  2
AcDbDictionaryWithDefault
  3
"AutoCAD 2000"
 90
        0
280
         0
281
         0
  0
CLASS
  1
ACDBPLACEHOLDER
  2
AcDbPlaceHolder
  3
"AutoCAD 2000"
 90
        0
280
         0
281
         0
  0
CLASS
  1
VBA_PROJECT
  2
AcDbVbaProject
  3
"acadvba"
 90
        0
280
         0
281
         0
  0
CLASS
  1
WIPEOUT
  2
AcDbWipeout
  3
WipeOut|AutoCAD Express Tool|expresstools@autodesk.com
 90
      127
280
         0
281
         1
  0
CLASS
  1
WIPEOUTVARIABLES
  2
AcDbWipeoutVariables
  3
WipeOut|AutoCAD Express Tool|expresstools@autodesk.com
 90
        0
280
         0
281
         0
  0
CLASS
  1
RTEXT
  2
RText
  3
RText|AutoCAD Express Tool|expresstools@autodesk.com
 90
        0
280
         0
281
         1
  0
CLASS
  1
ARCALIGNEDTEXT
  2
AcDbArcAlignedText
  3
ATEXT|AutoCAD Express Tool|expresstools@autodesk.com
 90
        0
280
         0
281
         1
  0
ENDSEC
  0
SECTION
  2
TABLES
  0
TABLE
  2
VPORT
  5
7
100
AcDbSymbolTable
 70
         1
  0
VPORT
  5
15
100
AcDbSymbolTableRecord
100
AcDbViewportTableRecord
  2
*ACTIVE
 70
         0
 10
0.0
 20
0.0
 11
1.0
 21
1.0
 12
6.591288
 22
4.579184
 13
0.0
 23
0.0
 14
1.0
 24
1.0
 15
0.0
 25
0.0
 16
0.0
 26
0.0
 36
1.0
 17
0.0
 27
0.0
 37
0.0
 40
9.158369
 41
0.688564
 42
50.0
 43
0.0
 44
0.0
 50
0.0
 51
0.0
 71
         0
 72
       100
 73
         1
 74
         1
 75
         0
 76
         0
 77
         0
 78
         0
  0
ENDTAB
  0
TABLE
  2
LTYPE
  5
4
100
AcDbSymbolTable
 70
         3
  0
LTYPE
  5
11
100
AcDbSymbolTableRecord
100
AcDbLinetypeTableRecord
  2
BYBLOCK
 70
        64
  3

 72
        65
 73
         0
 40
0.0
  0
LTYPE
  5
12
100
AcDbSymbolTableRecord
100
AcDbLinetypeTableRecord
  2
BYLAYER
 70
        64
  3

 72
        65
 73
         0
 40
0.0
  0
LTYPE
  5
13
100
AcDbSymbolTableRecord
100
AcDbLinetypeTableRecord
  2
CONTINUOUS
 70
        64
  3
Solid line
 72
        65
 73
         0
 40
0.0
  0
ENDTAB
  0
TABLE
  2
LAYER
  5
2
100
AcDbSymbolTable
 70
         6
  0
LAYER
  5
14
100
AcDbSymbolTableRecord
100
AcDbLayerTableRecord
  2
0
 70
         0
 62
         7
  6
CONTINUOUS
  0
LAYER
  5
24
100
AcDbSymbolTableRecord
100
AcDbLayerTableRecord
  2
ASSEMBLY_OUTLINES_TOP
 70
         0
 62
       102
  6
CONTINUOUS
  0
LAYER
  5
25
100
AcDbSymbolTableRecord
100
AcDbLayerTableRecord
  2
ASSEMBLY_REF_DES_TOP
 70
         0
 62
       119
  6
CONTINUOUS
  0
LAYER
  5
26
100
AcDbSymbolTableRecord
100
AcDbLayerTableRecord
  2
BOARD_OUTLINE
 70
         0
 62
        10
  6
CONTINUOUS
  0
LAYER
  5
27
100
AcDbSymbolTableRecord
100
AcDbLayerTableRecord
  2
MOUNTING_HOLES_LAYER_TOP
 70
         0
 62
        42
  6
CONTINUOUS
  0
LAYER
  5
28
100
AcDbSymbolTableRecord
100
AcDbLayerTableRecord
  2
PART_HOLES_LAYER_TOP
 70
         0
 62
        30
  6
CONTINUOUS
  0
ENDTAB
  0
TABLE
  2
STYLE
  5
3
100
AcDbSymbolTable
 70
         5
  0
STYLE
  5
17
100
AcDbSymbolTableRecord
100
AcDbTextStyleTableRecord
  2
STANDARD
 70
         0
 40
0.0
 41
1.0
 50
0.0
 71
         0
 42
0.0
  3
txt
  4

  0
STYLE
  5
40
100
AcDbSymbolTableRecord
100
AcDbTextStyleTableRecord
  2
VERIBEST_GERBER_1
 70
         0
 40
0.0
 41
1.0
 50
0.0
 71
         0
 42
0.0
  3

  4

  0
STYLE
  5
363
100
AcDbSymbolTableRecord
100
AcDbTextStyleTableRecord
  2
GOST_TYPE_B
 70
         0
 40
0.0
 41
1.0
 50
0.0
 71
         0
 42
0.0
  3
gost_0.ttf
  4

  0
STYLE
  5
3D4
100
AcDbSymbolTableRecord
100
AcDbTextStyleTableRecord
  2
VERIBEST_GERBER_0
 70
         0
 40
0.0
 41
1.0
 50
0.0
 71
         0
 42
0.0
  3
gost_0.ttf
  4

  0
STYLE
  5
414
100
AcDbSymbolTableRecord
100
AcDbTextStyleTableRecord
  2
GOST_D
 70
         0
 40
0.0
 41
1.0
 50
0.0
 71
         0
 42
0.0
  3
GOST.TTF
  4

  0
ENDTAB
  0
TABLE
  2
VIEW
  5
5
100
AcDbSymbolTable
 70
         0
  0
ENDTAB
  0
TABLE
  2
UCS
  5
6
100
AcDbSymbolTable
 70
         0
  0
ENDTAB
  0
TABLE
  2
APPID
  5
8
100
AcDbSymbolTable
 70
         1
  0
APPID
  5
16
100
AcDbSymbolTableRecord
100
AcDbRegAppTableRecord
  2
ACAD
 70
         0
  0
ENDTAB
  0
TABLE
  2
DIMSTYLE
  5
9
100
AcDbSymbolTable
 70
         1
  0
DIMSTYLE
105
18
100
AcDbSymbolTableRecord
100
AcDbDimStyleTableRecord
  2
STANDARD
 70
         0
  3

  4

  5

  6

  7

 40
1.0
 41
0.18
 42
0.0625
 43
0.38
 44
0.18
 45
0.0
 46
0.0
 47
0.0
 48
0.0
 71
         0
 72
         0
 73
         1
 74
         1
 75
         0
 76
         0
 77
         0
 78
         0
140
0.18
141
0.09
142
0.0
143
25.4
144
1.0
145
0.0
146
1.0
147
0.09
170
         0
171
         2
172
         0
173
         0
174
         0
175
         0
176
         0
177
         0
178
         0
270
         2
271
         4
272
         4
273
         2
274
         2
275
         0
280
         0
281
         0
282
         0
283
         1
284
         0
285
         0
286
         0
287
         3
288
         0
340
17
  0
ENDTAB
  0
TABLE
  2
BLOCK_RECORD
  5
1
100
AcDbSymbolTable
 70
         0
  0
BLOCK_RECORD
  5
A
100
AcDbSymbolTableRecord
100
AcDbBlockTableRecord
  2
*MODEL_SPACE
  0
BLOCK_RECORD
  5
B
100
AcDbSymbolTableRecord
100
AcDbBlockTableRecord
  2
*PAPER_SPACE
  0
ENDTAB
  0
ENDSEC
  0
SECTION
  2
BLOCKS
  0
BLOCK
  5
D
100
AcDbEntity
  8
0
100
AcDbBlockBegin
  2
*MODEL_SPACE
 70
         0
 10
0.0
 20
0.0
 30
0.0
  3
*MODEL_SPACE
  1

  0
ENDBLK
  5
E
100
AcDbEntity
  8
0
100
AcDbBlockEnd
  0
BLOCK
  5
F
100
AcDbEntity
 67
         1
  8
0
100
AcDbBlockBegin
  2
*PAPER_SPACE
 70
         0
 10
0.0
 20
0.0
 30
0.0
  3
*PAPER_SPACE
  1

  0
ENDBLK
  5
10
100
AcDbEntity
 67
         1
  8
0
100
AcDbBlockEnd
  0
ENDSEC
  0
SECTION
  2
ENTITIES
  0
CIRCLE
  5
29
100
AcDbEntity
  8
ASSEMBLY_OUTLINES_TOP
100
AcDbCircle
 10
47.95
 20
105.4
 30
0.0
 40
2.1
  0
LWPOLYLINE
  5
2A
100
AcDbEntity
  8
ASSEMBLY_OUTLINES_TOP
100
AcDbPolyline
 90
        3
 70
         1
 10
134.2
 20
179.15
 10
133.057
 20
178.578501
 10
133.057
 20
179.7215
  0
HATCH
  5
2B
100
AcDbEntity
  8
ASSEMBLY_OUTLINES_TOP
100
AcDbHatch
 10
0.0
 20
0.0
 30
0.0
210
0.0
220
0.0
230
1.0
  2
SOLID
 70
         1
 71
         1
 91
        1
 92
        2
 72
         0
 73
         1
 93
        3
 10
134.19999999999999
 20
179.15000000000001
 10
133.05699999999999
 20
178.57850099999999
 10
133.05699999999999
 20
179.72149999999999
 97
        1
330
2A
 75
         0
 76
         1
 98
        1
 10
0.0
 20
0.0
  0
LWPOLYLINE
  5
2C
100
AcDbEntity
  8
ASSEMBLY_OUTLINES_TOP
100
AcDbPolyline
 90
        3
 70
         1
 10
-9.8
 20
179.15
 10
-8.657
 20
179.7215
 10
-8.657
 20
178.5785
  0
HATCH
  5
2D
100
AcDbEntity
  8
ASSEMBLY_OUTLINES_TOP
100
AcDbHatch
 10
0.0
 20
0.0
 30
0.0
210
0.0
220
0.0
230
1.0
  2
SOLID
 70
         1
 71
         1
 91
        1
 92
        2
 72
         0
 73
         1
 93
        3
 10
-9.8000000000000007
 20
179.15000000000001
 10
-8.657
 20
179.72149999999999
 10
-8.657
 20
178.57849999999999
 97
        1
330
2C
 75
         0
 76
         1
 98
        1
 10
0.0
 20
0.0
  0
LWPOLYLINE
  5
2E
100
AcDbEntity
  8
ASSEMBLY_OUTLINES_TOP
100
AcDbPolyline
 90
        2
 70
         0
 43
0.2032
 10
65.509334
 20
179.15
 10
133.6285
 20
179.15
  0
LWPOLYLINE
  5
2F
100
AcDbEntity
  8
ASSEMBLY_OUTLINES_TOP
100
AcDbPolyline
 90
        2
 70
         0
 43
0.2032
 10
-9.2285
 20
179.15
 10
58.890666
 20
179.15
  0
LWPOLYLINE
  5
30
100
AcDbEntity
  8
ASSEMBLY_OUTLINES_TOP
100
AcDbPolyline
 90
        2
 70
         0
 43
0.2032
 10
134.2
 20
171.858
 10
134.2
 20
179.658
  0
LWPOLYLINE
  5
31
100
AcDbEntity
  8
ASSEMBLY_OUTLINES_TOP
100
AcDbPolyline
 90
        2
 70
         0
 43
0.2032
 10
-9.8
 20
171.858
 10
-9.8
 20
179.658
  0
LWPOLYLINE
  5
32
100
AcDbEntity
  8
ASSEMBLY_OUTLINES_TOP
100
AcDbPolyline
 90
        3
 70
         1
 10
140.005084
 20
75.35
 10
139.433584
 20
76.493
 10
140.576584
 20
76.493
  0
HATCH
  5
33
100
AcDbEntity
  8
ASSEMBLY_OUTLINES_TOP
100
AcDbHatch
 10
0.0
 20
0.0
 30
0.0
210
0.0
220
0.0
230
1.0
  2
SOLID
 70
         1
 71
         1
 91
        1
 92
        2
 72
         0
 73
         1
 93
        3
 10
140.00508400000001
 20
75.349999999999994
 10
139.433584
 20
76.492999999999995
 10
140.576584
 20
76.492999999999995
 97
        1
330
32
 75
         0
 76
         1
 98
        1
 10
0.0
 20
0.0
  0
LWPOLYLINE
  5
34
100
AcDbEntity
  8
ASSEMBLY_OUTLINES_TOP
100
AcDbPolyline
 90
        3
 70
         1
 10
140.005084
 20
171.35
 10
140.576583
 20
170.207
 10
139.433584
 20
170.207001
  0
HATCH
  5
35
100
AcDbEntity
  8
ASSEMBLY_OUTLINES_TOP
100
AcDbHatch
 10
0.0
 20
0.0
 30
0.0
210
0.0
220
0.0
230
1.0
  2
SOLID
 70
         1
 71
         1
 91
        1
 92
        2
 72
         0
 73
         1
 93
        3
 10
140.00508400000001
 20
171.34999999999999
 10
140.576583
 20
170.20699999999999
 10
139.433584
 20
170.20700099999999
 97
        1
330
34
 75
         0
 76
         1
 98
        1
 10
0.0
 20
0.0
  0
LWPOLYLINE
  5
36
100
AcDbEntity
  8
ASSEMBLY_OUTLINES_TOP
100
AcDbPolyline
 90
        2
 70
         0
 43
0.2032
 10
140.005084
 20
120.597402
 10
140.005084
 20
75.9215
  0
LWPOLYLINE
  5
37
100
AcDbEntity
  8
ASSEMBLY_OUTLINES_TOP
100
AcDbPolyline
 90
        2
 70
         0
 43
0.2032
 10
140.005084
 20
170.7785
 10
140.005084
 20
126.102597
  0
LWPOLYLINE
  5
38
100
AcDbEntity
  8
ASSEMBLY_OUTLINES_TOP
100
AcDbPolyline
 90
        2
 70
         0
 43
0.2032
 10
134.708
 20
75.35
 10
140.513084
 20
75.35
  0
LWPOLYLINE
  5
39
100
AcDbEntity
  8
ASSEMBLY_OUTLINES_TOP
100
AcDbPolyline
 90
        2
 70
         0
 43
0.2032
 10
134.708
 20
171.35
 10
140.513084
 20
171.35
  0
CIRCLE
  5
3A
100
AcDbEntity
  8
ASSEMBLY_OUTLINES_TOP
100
AcDbCircle
 10
47.95
 20
137.35
 30
0.0
 40
2.1
  0
HATCH
  5
3B
100
AcDbEntity
  8
ASSEMBLY_OUTLINES_TOP
100
AcDbHatch
 10
0.0
 20
0.0
 30
0.0
210
0.0
220
0.0
230
1.0
  2
SOLID
 70
         1
 71
         1
 91
        1
 92
        1
 93
        1
 72
         2
 10
47.950000000000003
 20
137.34999999999999
 40
2.1000000000000001
 50
0.0
 51
360.0
 73
         1
 97
        1
330
3A
 75
         0
 76
         1
 98
        1
 10
0.0
 20
0.0
  0
CIRCLE
  5
3C
100
AcDbEntity
  8
ASSEMBLY_OUTLINES_TOP
100
AcDbCircle
 10
79.95
 20
137.4
 30
0.0
 40
2.1
  0
HATCH
  5
3D
100
AcDbEntity
  8
ASSEMBLY_OUTLINES_TOP
100
AcDbHatch
 10
0.0
 20
0.0
 30
0.0
210
0.0
220
0.0
230
1.0
  2
SOLID
 70
         1
 71
         1
 91
        1
 92
        1
 93
        1
 72
         2
 10
79.950000000000003
 20
137.40000000000001
 40
2.1000000000000001
 50
0.0
 51
360.0
 73
         1
 97
        1
330
3C
 75
         0
 76
         1
 98
        1
 10
0.0
 20
0.0
  0
CIRCLE
  5
3E
100
AcDbEntity
  8
ASSEMBLY_OUTLINES_TOP
100
AcDbCircle
 10
79.95
 20
105.4
 30
0.0
 40
2.1
  0
HATCH
  5
3F
100
AcDbEntity
  8
ASSEMBLY_OUTLINES_TOP
100
AcDbHatch
 10
0.0
 20
0.0
 30
0.0
210
0.0
220
0.0
230
1.0
  2
SOLID
 70
         1
 71
         1
 91
        1
 92
        1
 93
        1
 72
         2
 10
79.950000000000003
 20
105.40000000000001
 40
2.1000000000000001
 50
0.0
 51
360.0
 73
         1
 97
        1
330
3E
 75
         0
 76
         1
 98
        1
 10
0.0
 20
0.0
  0
TEXT
  5
41
100
AcDbEntity
  8
ASSEMBLY_OUTLINES_TOP
100
AcDbText
 10
59.272015
 20
178.514999
 30
0.0
 40
1.27
  1
144mm
  7
VERIBEST_GERBER_1
 72
         1
 11
62.2
 21
179.149999
 31
0.0
100
AcDbText
 73
         2
  0
TEXT
  5
42
100
AcDbEntity
  8
ASSEMBLY_OUTLINES_TOP
100
AcDbText
 10
140.640084
 20
120.952241
 30
0.0
 40
1.27
  1
96mm
 50
90.0
  7
VERIBEST_GERBER_1
 72
         1
 11
140.005084
 21
123.350001
 31
0.0
100
AcDbText
 73
         2
  0
LWPOLYLINE
  5
43
100
AcDbEntity
  8
ASSEMBLY_OUTLINES_TOP
100
AcDbPolyline
 90
        4
 70
         1
 43
0.1
 10
4.2
 20
148.0
 10
4.2
 20
150.8
 10
5.5
 20
150.8
 10
5.5
 20
148.0
  0
LWPOLYLINE
  5
44
100
AcDbEntity
  8
ASSEMBLY_OUTLINES_TOP
100
AcDbPolyline
 90
        4
 70
         1
 10
7.5
 20
69.99
 10
7.5
 20
75.89
 10
23.5
 20
75.89
 10
23.5
 20
69.99
  0
LWPOLYLINE
  5
45
100
AcDbEntity
  8
ASSEMBLY_OUTLINES_TOP
100
AcDbPolyline
 90
        4
 70
         1
 10
0.1
 20
75.89
 10
0.1
 20
88.29
 10
30.9
 20
88.29
 10
30.9
 20
75.89
  0
LWPOLYLINE
  5
46
100
AcDbEntity
  8
ASSEMBLY_OUTLINES_TOP
100
AcDbPolyline
 90
        4
 70
         1
 43
0.1
 10
95.95
 20
89.1
 10
95.95
 20
92.0
 10
97.25
 20
92.0
 10
97.25
 20
89.1
  0
LWPOLYLINE
  5
47
100
AcDbEntity
  8
ASSEMBLY_OUTLINES_TOP
100
AcDbPolyline
 90
        2
 70
         0
 10
-2.45
 20
171.0
 10
-8.45
 20
171.0
  0
LWPOLYLINE
  5
48
100
AcDbEntity
  8
ASSEMBLY_OUTLINES_TOP
100
AcDbPolyline
 90
        2
 70
         0
 10
-2.05
 20
171.0
 10
-8.05
 20
171.0
  0
LWPOLYLINE
  5
49
100
AcDbEntity
  8
ASSEMBLY_OUTLINES_TOP
100
AcDbPolyline
 90
        6
 70
         1
 10
-1.55
 20
174.8
 10
-7.55
 20
174.8
 10
-7.55
 20
171.0
 10
-9.65
 20
171.0
 10
-9.65
 20
156.8
 10
-1.55
 20
156.8
  0
LWPOLYLINE
  5
4A
100
AcDbEntity
  8
ASSEMBLY_OUTLINES_TOP
100
AcDbPolyline
 90
        4
 70
         1
 43
0.1
 10
8.35
 20
138.65
 10
8.35
 20
141.45
 10
9.65
 20
141.45
 10
9.65
 20
138.65
  0
LWPOLYLINE
  5
4B
100
AcDbEntity
  8
ASSEMBLY_OUTLINES_TOP
100
AcDbPolyline
 90
        4
 70
         1
 43
0.1
 10
93.5
 20
84.5
 10
93.5
 20
85.8
 10
96.4
 20
85.8
 10
96.4
 20
84.5
  0
LWPOLYLINE
  5
4C
100
AcDbEntity
  8
ASSEMBLY_OUTLINES_TOP
100
AcDbPolyline
 90
        4
 70
         1
 43
0.1
 10
31.3
 20
109.95
 10
31.3
 20
111.25
 10
34.2
 20
111.25
 10
34.2
 20
109.95
  0
LWPOLYLINE
  5
4D
100
AcDbEntity
  8
ASSEMBLY_OUTLINES_TOP
100
AcDbPolyline
 90
        4
 70
         1
 43
0.1
 10
71.2
 20
108.0
 10
71.2
 20
110.8
 10
72.5
 20
110.8
 10
72.5
 20
108.0
  0
LWPOLYLINE
  5
4E
100
AcDbEntity
  8
ASSEMBLY_OUTLINES_TOP
100
AcDbPolyline
 90
        4
 70
         1
 43
0.1
 10
66.5
 20
137.4
 10
66.5
 20
140.6
 10
68.1
 20
140.6
 10
68.1
 20
137.4
  0
LWPOLYLINE
  5
4F
100
AcDbEntity
  8
ASSEMBLY_OUTLINES_TOP
100
AcDbPolyline
 90
        4
 70
         1
 43
0.1
 10
51.35
 20
146.05
 10
51.35
 20
148.85
 10
52.65
 20
148.85
 10
52.65
 20
146.05
  0
LWPOLYLINE
  5
50
100
AcDbEntity
  8
ASSEMBLY_OUTLINES_TOP
100
AcDbPolyline
 90
        4
 70
         1
 43
0.1
 10
-1.75
 20
93.8
 10
-1.75
 20
95.1
 10
1.15
 20
95.1
 10
1.15
 20
93.8
  0
LWPOLYLINE
  5
51
100
AcDbEntity
  8
ASSEMBLY_OUTLINES_TOP
100
AcDbPolyline
 90
        4
 70
         1
 43
0.1
 10
89.55
 20
146.05
 10
89.55
 20
148.95
 10
90.85
 20
148.95
 10
90.85
 20
146.05
  0
LWPOLYLINE
  5
52
100
AcDbEntity
  8
ASSEMBLY_OUTLINES_TOP
100
AcDbPolyline
 90
        4
 70
         1
 43
0.1
 10
46.4
 20
144.55
 10
46.4
 20
145.85
 10
49.2
 20
145.85
 10
49.2
 20
144.55
  0
LWPOLYLINE
  5
53
100
AcDbEntity
  8
ASSEMBLY_OUTLINES_TOP
100
AcDbPolyline
 90
        4
 70
         1
 43
0.1
 10
49.35
 20
155.2
 10
49.35
 20
158.5
 10
51.15
 20
158.5
 10
51.15
 20
155.2
  0
LWPOLYLINE
  5
54
100
AcDbEntity
  8
ASSEMBLY_OUTLINES_TOP
100
AcDbPolyline
 90
        4
 70
         1
 43
0.1
 10
79.4
 20
99.7
 10
79.4
 20
102.5
 10
80.7
 20
102.5
 10
80.7
 20
99.7
  0
LWPOLYLINE
  5
55
100
AcDbEntity
  8
ASSEMBLY_OUTLINES_TOP
100
AcDbPolyline
 90
        4
 70
         1
 43
0.1
 10
0.05
 20
105.9
 10
0.05
 20
108.8
 10
1.35
 20
108.8
 10
1.35
 20
105.9
  0
LWPOLYLINE
  5
56
100
AcDbEntity
  8
ASSEMBLY_OUTLINES_TOP
100
AcDbPolyline
 90
        4
 70
         1
 43
0.1
 10
11.15
 20
156.1
 10
11.15
 20
159.0
 10
12.45
 20
159.0
 10
12.45
 20
156.1
  0
LWPOLYLINE
  5
57
100
AcDbEntity
  8
ASSEMBLY_OUTLINES_TOP
100
AcDbPolyline
 90
        4
 70
         1
 43
0.1
 10
76.45
 20
123.9
 10
76.45
 20
125.5
 10
79.65
 20
125.5
 10
79.65
 20
123.9
  0
LWPOLYLINE
  5
58
100
AcDbEntity
  8
ASSEMBLY_OUTLINES_TOP
100
AcDbPolyline
 90
        4
 70
         1
 43
0.1
 10
-1.35
 20
147.7
 10
-1.35
 20
149.0
 10
1.45
 20
149.0
 10
1.45
 20
147.7
  0
LWPOLYLINE
  5
59
100
AcDbEntity
  8
ASSEMBLY_OUTLINES_TOP
100
AcDbPolyline
 90
        4
 70
         1
 43
0.1
 10
92.9
 20
149.7
 10
92.9
 20
152.6
 10
94.2
 20
152.6
 10
94.2
 20
149.7
  0
LWPOLYLINE
  5
5A
100
AcDbEntity
  8
ASSEMBLY_OUTLINES_TOP
100
AcDbPolyline
 90
        4
 70
         1
 43
0.1
 10
42.3
 20
133.5
 10
42.3
 20
136.4
 10
43.6
 20
136.4
 10
43.6
 20
133.5
  0
LWPOLYLINE
  5
5B
100
AcDbEntity
  8
ASSEMBLY_OUTLINES_TOP
100
AcDbPolyline
 90
        4
 70
         1
 43
0.1
 10
86.4
 20
122.999999
 10
83.2
 20
122.999999
 10
83.2
 20
121.399999
 10
86.4
 20
121.4
  0
LWPOLYLINE
  5
5C
100
AcDbEntity
  8
ASSEMBLY_OUTLINES_TOP
100
AcDbPolyline
 90
        4
 70
         1
 10
-9.8
 20
73.95
 10
-9.8
 20
88.45
 10
-0.8
 20
88.45
 10
-0.8
 20
73.95
  0
LWPOLYLINE
  5
5D
100
AcDbEntity
  8
ASSEMBLY_OUTLINES_TOP
100
AcDbPolyline
 90
        4
 70
         1
 43
0.1
 10
7.7
 20
151.6
 10
7.7
 20
154.5
 10
9.0
 20
154.5
 10
9.0
 20
151.6
  0
LWPOLYLINE
  5
5E
100
AcDbEntity
  8
ASSEMBLY_OUTLINES_TOP
100
AcDbPolyline
 90
        4
 70
         1
 43
0.1
 10
34.6
 20
109.95
 10
34.6
 20
111.25
 10
37.5
 20
111.25
 10
37.5
 20
109.95
  0
LWPOLYLINE
  5
5F
100
AcDbEntity
  8
ASSEMBLY_OUTLINES_TOP
100
AcDbPolyline
 90
        4
 70
         1
 10
12.35
 20
164.325
 10
12.35
 20
169.405
 10
63.15
 20
169.405
 10
63.15
 20
164.325
  0
CIRCLE
  5
60
100
AcDbEntity
  8
ASSEMBLY_OUTLINES_TOP
100
AcDbCircle
 10
13.618225
 20
165.58456
 30
0.0
 40
0.45
  0
HATCH
  5
61
100
AcDbEntity
  8
ASSEMBLY_OUTLINES_TOP
100
AcDbHatch
 10
0.0
 20
0.0
 30
0.0
210
0.0
220
0.0
230
1.0
  2
SOLID
 70
         1
 71
         1
 91
        1
 92
        1
 93
        1
 72
         2
 10
13.618225000000001
 20
165.58456000000001
 40
0.45
 50
0.0
 51
360.0
 73
         1
 97
        1
330
60
 75
         0
 76
         1
 98
        1
 10
0.0
 20
0.0
  0
CIRCLE
  5
62
100
AcDbEntity
  8
ASSEMBLY_OUTLINES_TOP
100
AcDbCircle
 10
16.158225
 20
165.58456
 30
0.0
 40
0.45
  0
HATCH
  5
63
100
AcDbEntity
  8
ASSEMBLY_OUTLINES_TOP
100
AcDbHatch
 10
0.0
 20
0.0
 30
0.0
210
0.0
220
0.0
230
1.0
  2
SOLID
 70
         1
 71
         1
 91
        1
 92
        1
 93
        1
 72
         2
 10
16.158225000000002
 20
165.58456000000001
 40
0.45
 50
0.0
 51
360.0
 73
         1
 97
        1
330
62
 75
         0
 76
         1
 98
        1
 10
0.0
 20
0.0
  0
CIRCLE
  5
64
100
AcDbEntity
  8
ASSEMBLY_OUTLINES_TOP
100
AcDbCircle
 10
18.698225
 20
165.58456
 30
0.0
 40
0.45
  0
HATCH
  5
65
100
AcDbEntity
  8
ASSEMBLY_OUTLINES_TOP
100
AcDbHatch
 10
0.0
 20
0.0
 30
0.0
210
0.0
220
0.0
230
1.0
  2
SOLID
 70
         1
 71
         1
 91
        1
 92
        1
 93
        1
 72
         2
 10
18.698225000000001
 20
165.58456000000001
 40
0.45
 50
0.0
 51
360.0
 73
         1
 97
        1
330
64
 75
         0
 76
         1
 98
        1
 10
0.0
 20
0.0
  0
CIRCLE
  5
66
100
AcDbEntity
  8
ASSEMBLY_OUTLINES_TOP
100
AcDbCircle
 10
21.238225
 20
165.58456
 30
0.0
 40
0.45
  0
HATCH
  5
67
100
AcDbEntity
  8
ASSEMBLY_OUTLINES_TOP
100
AcDbHatch
 10
0.0
 20
0.0
 30
0.0
210
0.0
220
0.0
230
1.0
  2
SOLID
 70
         1
 71
         1
 91
        1
 92
        1
 93
        1
 72
         2
 10
21.238225
 20
165.58456000000001
 40
0.45
 50
0.0
 51
360.0
 73
         1
 97
        1
330
66
 75
         0
 76
         1
 98
        1
 10
0.0
 20
0.0
  0
CIRCLE
  5
68
100
AcDbEntity
  8
ASSEMBLY_OUTLINES_TOP
100
AcDbCircle
 10
23.778225
 20
165.58456
 30
0.0
 40
0.45
  0
HATCH
  5
69
100
AcDbEntity
  8
ASSEMBLY_OUTLINES_TOP
100
AcDbHatch
 10
0.0
 20
0.0
 30
0.0
210
0.0
220
0.0
230
1.0
  2
SOLID
 70
         1
 71
         1
 91
        1
 92
        1
 93
        1
 72
         2
 10
23.778224999999999
 20
165.58456000000001
 40
0.45
 50
0.0
 51
360.0
 73
         1
 97
        1
330
68
 75
         0
 76
         1
 98
        1
 10
0.0
 20
0.0
  0
CIRCLE
  5
6A
100
AcDbEntity
  8
ASSEMBLY_OUTLINES_TOP
100
AcDbCircle
 10
26.318225
 20
165.58456
 30
0.0
 40
0.45
  0
HATCH
  5
6B
100
AcDbEntity
  8
ASSEMBLY_OUTLINES_TOP
100
AcDbHatch
 10
0.0
 20
0.0
 30
0.0
210
0.0
220
0.0
230
1.0
  2
SOLID
 70
         1
 71
         1
 91
        1
 92
        1
 93
        1
 72
         2
 10
26.318225000000002
 20
165.58456000000001
 40
0.45
 50
0.0
 51
360.0
 73
         1
 97
        1
330
6A
 75
         0
 76
         1
 98
        1
 10
0.0
 20
0.0
  0
CIRCLE
  5
6C
100
AcDbEntity
  8
ASSEMBLY_OUTLINES_TOP
100
AcDbCircle
 10
28.858225
 20
165.58456
 30
0.0
 40
0.45
  0
HATCH
  5
6D
100
AcDbEntity
  8
ASSEMBLY_OUTLINES_TOP
100
AcDbHatch
 10
0.0
 20
0.0
 30
0.0
210
0.0
220
0.0
230
1.0
  2
SOLID
 70
         1
 71
         1
 91
        1
 92
        1
 93
        1
 72
         2
 10
28.858225000000001
 20
165.58456000000001
 40
0.45
 50
0.0
 51
360.0
 73
         1
 97
        1
330
6C
 75
         0
 76
         1
 98
        1
 10
0.0
 20
0.0
  0
CIRCLE
  5
6E
100
AcDbEntity
  8
ASSEMBLY_OUTLINES_TOP
100
AcDbCircle
 10
31.398225
 20
165.58456
 30
0.0
 40
0.45
  0
HATCH
  5
6F
100
AcDbEntity
  8
ASSEMBLY_OUTLINES_TOP
100
AcDbHatch
 10
0.0
 20
0.0
 30
0.0
210
0.0
220
0.0
230
1.0
  2
SOLID
 70
         1
 71
         1
 91
        1
 92
        1
 93
        1
 72
         2
 10
31.398225
 20
165.58456000000001
 40
0.45
 50
0.0
 51
360.0
 73
         1
 97
        1
330
6E
 75
         0
 76
         1
 98
        1
 10
0.0
 20
0.0
  0
CIRCLE
  5
70
100
AcDbEntity
  8
ASSEMBLY_OUTLINES_TOP
100
AcDbCircle
 10
33.938225
 20
165.58456
 30
0.0
 40
0.45
  0
HATCH
  5
71
100
AcDbEntity
  8
ASSEMBLY_OUTLINES_TOP
100
AcDbHatch
 10
0.0
 20
0.0
 30
0.0
210
0.0
220
0.0
230
1.0
  2
SOLID
 70
         1
 71
         1
 91
        1
 92
        1
 93
        1
 72
         2
 10
33.938225000000003
 20
165.58456000000001
 40
0.45
 50
0.0
 51
360.0
 73
         1
 97
        1
330
70
 75
         0
 76
         1
 98
        1
 10
0.0
 20
0.0
  0
CIRCLE
  5
72
100
AcDbEntity
  8
ASSEMBLY_OUTLINES_TOP
100
AcDbCircle
 10
36.478225
 20
165.58456
 30
0.0
 40
0.45
  0
HATCH
  5
73
100
AcDbEntity
  8
ASSEMBLY_OUTLINES_TOP
100
AcDbHatch
 10
0.0
 20
0.0
 30
0.0
210
0.0
220
0.0
230
1.0
  2
SOLID
 70
         1
 71
         1
 91
        1
 92
        1
 93
        1
 72
         2
 10
36.478225000000002
 20
165.58456000000001
 40
0.45
 50
0.0
 51
360.0
 73
         1
 97
        1
330
72
 75
         0
 76
         1
 98
        1
 10
0.0
 20
0.0
  0
CIRCLE
  5
74
100
AcDbEntity
  8
ASSEMBLY_OUTLINES_TOP
100
AcDbCircle
 10
39.021774
 20
165.57544
 30
0.0
 40
0.45
  0
HATCH
  5
75
100
AcDbEntity
  8
ASSEMBLY_OUTLINES_TOP
100
AcDbHatch
 10
0.0
 20
0.0
 30
0.0
210
0.0
220
0.0
230
1.0
  2
SOLID
 70
         1
 71
         1
 91
        1
 92
        1
 93
        1
 72
         2
 10
39.021774000000001
 20
165.57543999999999
 40
0.45
 50
0.0
 51
360.0
 73
         1
 97
        1
330
74
 75
         0
 76
         1
 98
        1
 10
0.0
 20
0.0
  0
CIRCLE
  5
76
100
AcDbEntity
  8
ASSEMBLY_OUTLINES_TOP
100
AcDbCircle
 10
41.561774
 20
165.57544
 30
0.0
 40
0.45
  0
HATCH
  5
77
100
AcDbEntity
  8
ASSEMBLY_OUTLINES_TOP
100
AcDbHatch
 10
0.0
 20
0.0
 30
0.0
210
0.0
220
0.0
230
1.0
  2
SOLID
 70
         1
 71
         1
 91
        1
 92
        1
 93
        1
 72
         2
 10
41.561774
 20
165.57543999999999
 40
0.45
 50
0.0
 51
360.0
 73
         1
 97
        1
330
76
 75
         0
 76
         1
 98
        1
 10
0.0
 20
0.0
  0
CIRCLE
  5
78
100
AcDbEntity
  8
ASSEMBLY_OUTLINES_TOP
100
AcDbCircle
 10
44.101774
 20
165.57544
 30
0.0
 40
0.45
  0
HATCH
  5
79
100
AcDbEntity
  8
ASSEMBLY_OUTLINES_TOP
100
AcDbHatch
 10
0.0
 20
0.0
 30
0.0
210
0.0
220
0.0
230
1.0
  2
SOLID
 70
         1
 71
         1
 91
        1
 92
        1
 93
        1
 72
         2
 10
44.101773999999999
 20
165.57543999999999
 40
0.45
 50
0.0
 51
360.0
 73
         1
 97
        1
330
78
 75
         0
 76
         1
 98
        1
 10
0.0
 20
0.0
  0
CIRCLE
  5
7A
100
AcDbEntity
  8
ASSEMBLY_OUTLINES_TOP
100
AcDbCircle
 10
46.641774
 20
165.57544
 30
0.0
 40
0.45
  0
HATCH
  5
7B
100
AcDbEntity
  8
ASSEMBLY_OUTLINES_TOP
100
AcDbHatch
 10
0.0
 20
0.0
 30
0.0
210
0.0
220
0.0
230
1.0
  2
SOLID
 70
         1
 71
         1
 91
        1
 92
        1
 93
        1
 72
         2
 10
46.641773999999998
 20
165.57543999999999
 40
0.45
 50
0.0
 51
360.0
 73
         1
 97
        1
330
7A
 75
         0
 76
         1
 98
        1
 10
0.0
 20
0.0
  0
CIRCLE
  5
7C
100
AcDbEntity
  8
ASSEMBLY_OUTLINES_TOP
100
AcDbCircle
 10
49.181774
 20
165.57544
 30
0.0
 40
0.45
  0
HATCH
  5
7D
100
AcDbEntity
  8
ASSEMBLY_OUTLINES_TOP
100
AcDbHatch
 10
0.0
 20
0.0
 30
0.0
210
0.0
220
0.0
230
1.0
  2
SOLID
 70
         1
 71
         1
 91
        1
 92
        1
 93
        1
 72
         2
 10
49.181773999999997
 20
165.57543999999999
 40
0.45
 50
0.0
 51
360.0
 73
         1
 97
        1
330
7C
 75
         0
 76
         1
 98
        1
 10
0.0
 20
0.0
  0
CIRCLE
  5
7E
100
AcDbEntity
  8
ASSEMBLY_OUTLINES_TOP
100
AcDbCircle
 10
51.721774
 20
165.57544
 30
0.0
 40
0.45
  0
HATCH
  5
7F
100
AcDbEntity
  8
ASSEMBLY_OUTLINES_TOP
100
AcDbHatch
 10
0.0
 20
0.0
 30
0.0
210
0.0
220
0.0
230
1.0
  2
SOLID
 70
         1
 71
         1
 91
        1
 92
        1
 93
        1
 72
         2
 10
51.721774000000003
 20
165.57543999999999
 40
0.45
 50
0.0
 51
360.0
 73
         1
 97
        1
330
7E
 75
         0
 76
         1
 98
        1
 10
0.0
 20
0.0
  0
CIRCLE
  5
80
100
AcDbEntity
  8
ASSEMBLY_OUTLINES_TOP
100
AcDbCircle
 10
54.261774
 20
165.57544
 30
0.0
 40
0.45
  0
HATCH
  5
81
100
AcDbEntity
  8
ASSEMBLY_OUTLINES_TOP
100
AcDbHatch
 10
0.0
 20
0.0
 30
0.0
210
0.0
220
0.0
230
1.0
  2
SOLID
 70
         1
 71
         1
 91
        1
 92
        1
 93
        1
 72
         2
 10
54.261774000000003
 20
165.57543999999999
 40
0.45
 50
0.0
 51
360.0
 73
         1
 97
        1
330
80
 75
         0
 76
         1
 98
        1
 10
0.0
 20
0.0
  0
CIRCLE
  5
82
100
AcDbEntity
  8
ASSEMBLY_OUTLINES_TOP
100
AcDbCircle
 10
56.801774
 20
165.57544
 30
0.0
 40
0.45
  0
HATCH
  5
83
100
AcDbEntity
  8
ASSEMBLY_OUTLINES_TOP
100
AcDbHatch
 10
0.0
 20
0.0
 30
0.0
210
0.0
220
0.0
230
1.0
  2
SOLID
 70
         1
 71
         1
 91
        1
 92
        1
 93
        1
 72
         2
 10
56.801774000000002
 20
165.57543999999999
 40
0.45
 50
0.0
 51
360.0
 73
         1
 97
        1
330
82
 75
         0
 76
         1
 98
        1
 10
0.0
 20
0.0
  0
CIRCLE
  5
84
100
AcDbEntity
  8
ASSEMBLY_OUTLINES_TOP
100
AcDbCircle
 10
59.341774
 20
165.57544
 30
0.0
 40
0.45
  0
HATCH
  5
85
100
AcDbEntity
  8
ASSEMBLY_OUTLINES_TOP
100
AcDbHatch
 10
0.0
 20
0.0
 30
0.0
210
0.0
220
0.0
230
1.0
  2
SOLID
 70
         1
 71
         1
 91
        1
 92
        1
 93
        1
 72
         2
 10
59.341774000000001
 20
165.57543999999999
 40
0.45
 50
0.0
 51
360.0
 73
         1
 97
        1
330
84
 75
         0
 76
         1
 98
        1
 10
0.0
 20
0.0
  0
CIRCLE
  5
86
100
AcDbEntity
  8
ASSEMBLY_OUTLINES_TOP
100
AcDbCircle
 10
61.881774
 20
165.57544
 30
0.0
 40
0.45
  0
HATCH
  5
87
100
AcDbEntity
  8
ASSEMBLY_OUTLINES_TOP
100
AcDbHatch
 10
0.0
 20
0.0
 30
0.0
210
0.0
220
0.0
230
1.0
  2
SOLID
 70
         1
 71
         1
 91
        1
 92
        1
 93
        1
 72
         2
 10
61.881774
 20
165.57543999999999
 40
0.45
 50
0.0
 51
360.0
 73
         1
 97
        1
330
86
 75
         0
 76
         1
 98
        1
 10
0.0
 20
0.0
  0
CIRCLE
  5
88
100
AcDbEntity
  8
ASSEMBLY_OUTLINES_TOP
100
AcDbCircle
 10
13.62
 20
168.12
 30
0.0
 40
0.45
  0
HATCH
  5
89
100
AcDbEntity
  8
ASSEMBLY_OUTLINES_TOP
100
AcDbHatch
 10
0.0
 20
0.0
 30
0.0
210
0.0
220
0.0
230
1.0
  2
SOLID
 70
         1
 71
         1
 91
        1
 92
        1
 93
        1
 72
         2
 10
13.619999999999999
 20
168.12
 40
0.45
 50
0.0
 51
360.0
 73
         1
 97
        1
330
88
 75
         0
 76
         1
 98
        1
 10
0.0
 20
0.0
  0
CIRCLE
  5
8A
100
AcDbEntity
  8
ASSEMBLY_OUTLINES_TOP
100
AcDbCircle
 10
16.16
 20
168.12
 30
0.0
 40
0.45
  0
HATCH
  5
8B
100
AcDbEntity
  8
ASSEMBLY_OUTLINES_TOP
100
AcDbHatch
 10
0.0
 20
0.0
 30
0.0
210
0.0
220
0.0
230
1.0
  2
SOLID
 70
         1
 71
         1
 91
        1
 92
        1
 93
        1
 72
         2
 10
16.16
 20
168.12
 40
0.45
 50
0.0
 51
360.0
 73
         1
 97
        1
330
8A
 75
         0
 76
         1
 98
        1
 10
0.0
 20
0.0
  0
CIRCLE
  5
8C
100
AcDbEntity
  8
ASSEMBLY_OUTLINES_TOP
100
AcDbCircle
 10
18.7
 20
168.12
 30
0.0
 40
0.45
  0
HATCH
  5
8D
100
AcDbEntity
  8
ASSEMBLY_OUTLINES_TOP
100
AcDbHatch
 10
0.0
 20
0.0
 30
0.0
210
0.0
220
0.0
230
1.0
  2
SOLID
 70
         1
 71
         1
 91
        1
 92
        1
 93
        1
 72
         2
 10
18.699999999999999
 20
168.12
 40
0.45
 50
0.0
 51
360.0
 73
         1
 97
        1
330
8C
 75
         0
 76
         1
 98
        1
 10
0.0
 20
0.0
  0
CIRCLE
  5
8E
100
AcDbEntity
  8
ASSEMBLY_OUTLINES_TOP
100
AcDbCircle
 10
21.24
 20
168.12
 30
0.0
 40
0.45
  0
HATCH
  5
8F
100
AcDbEntity
  8
ASSEMBLY_OUTLINES_TOP
100
AcDbHatch
 10
0.0
 20
0.0
 30
0.0
210
0.0
220
0.0
230
1.0
  2
SOLID
 70
         1
 71
         1
 91
        1
 92
        1
 93
        1
 72
         2
 10
21.239999999999998
 20
168.12
 40
0.45
 50
0.0
 51
360.0
 73
         1
 97
        1
330
8E
 75
         0
 76
         1
 98
        1
 10
0.0
 20
0.0
  0
CIRCLE
  5
90
100
AcDbEntity
  8
ASSEMBLY_OUTLINES_TOP
100
AcDbCircle
 10
23.78
 20
168.12
 30
0.0
 40
0.45
  0
HATCH
  5
91
100
AcDbEntity
  8
ASSEMBLY_OUTLINES_TOP
100
AcDbHatch
 10
0.0
 20
0.0
 30
0.0
210
0.0
220
0.0
230
1.0
  2
SOLID
 70
         1
 71
         1
 91
        1
 92
        1
 93
        1
 72
         2
 10
23.780000000000001
 20
168.12
 40
0.45
 50
0.0
 51
360.0
 73
         1
 97
        1
330
90
 75
         0
 76
         1
 98
        1
 10
0.0
 20
0.0
  0
CIRCLE
  5
92
100
AcDbEntity
  8
ASSEMBLY_OUTLINES_TOP
100
AcDbCircle
 10
26.32
 20
168.12
 30
0.0
 40
0.45
  0
HATCH
  5
93
100
AcDbEntity
  8
ASSEMBLY_OUTLINES_TOP
100
AcDbHatch
 10
0.0
 20
0.0
 30
0.0
210
0.0
220
0.0
230
1.0
  2
SOLID
 70
         1
 71
         1
 91
        1
 92
        1
 93
        1
 72
         2
 10
26.32
 20
168.12
 40
0.45
 50
0.0
 51
360.0
 73
         1
 97
        1
330
92
 75
         0
 76
         1
 98
        1
 10
0.0
 20
0.0
  0
CIRCLE
  5
94
100
AcDbEntity
  8
ASSEMBLY_OUTLINES_TOP
100
AcDbCircle
 10
28.86
 20
168.12
 30
0.0
 40
0.45
  0
HATCH
  5
95
100
AcDbEntity
  8
ASSEMBLY_OUTLINES_TOP
100
AcDbHatch
 10
0.0
 20
0.0
 30
0.0
210
0.0
220
0.0
230
1.0
  2
SOLID
 70
         1
 71
         1
 91
        1
 92
        1
 93
        1
 72
         2
 10
28.859999999999999
 20
168.12
 40
0.45
 50
0.0
 51
360.0
 73
         1
 97
        1
330
94
 75
         0
 76
         1
 98
        1
 10
0.0
 20
0.0
  0
CIRCLE
  5
96
100
AcDbEntity
  8
ASSEMBLY_OUTLINES_TOP
100
AcDbCircle
 10
31.4
 20
168.12
 30
0.0
 40
0.45
  0
HATCH
  5
97
100
AcDbEntity
  8
ASSEMBLY_OUTLINES_TOP
100
AcDbHatch
 10
0.0
 20
0.0
 30
0.0
210
0.0
220
0.0
230
1.0
  2
SOLID
 70
         1
 71
         1
 91
        1
 92
        1
 93
        1
 72
         2
 10
31.399999999999999
 20
168.12
 40
0.45
 50
0.0
 51
360.0
 73
         1
 97
        1
330
96
 75
         0
 76
         1
 98
        1
 10
0.0
 20
0.0
  0
CIRCLE
  5
98
100
AcDbEntity
  8
ASSEMBLY_OUTLINES_TOP
100
AcDbCircle
 10
33.94
 20
168.12
 30
0.0
 40
0.45
  0
HATCH
  5
99
100
AcDbEntity
  8
ASSEMBLY_OUTLINES_TOP
100
AcDbHatch
 10
0.0
 20
0.0
 30
0.0
210
0.0
220
0.0
230
1.0
  2
SOLID
 70
         1
 71
         1
 91
        1
 92
        1
 93
        1
 72
         2
 10
33.939999999999998
 20
168.12
 40
0.45
 50
0.0
 51
360.0
 73
         1
 97
        1
330
98
 75
         0
 76
         1
 98
        1
 10
0.0
 20
0.0
  0
CIRCLE
  5
9A
100
AcDbEntity
  8
ASSEMBLY_OUTLINES_TOP
100
AcDbCircle
 10
36.48
 20
168.12
 30
0.0
 40
0.45
  0
HATCH
  5
9B
100
AcDbEntity
  8
ASSEMBLY_OUTLINES_TOP
100
AcDbHatch
 10
0.0
 20
0.0
 30
0.0
210
0.0
220
0.0
230
1.0
  2
SOLID
 70
         1
 71
         1
 91
        1
 92
        1
 93
        1
 72
         2
 10
36.479999999999997
 20
168.12
 40
0.45
 50
0.0
 51
360.0
 73
         1
 97
        1
330
9A
 75
         0
 76
         1
 98
        1
 10
0.0
 20
0.0
  0
CIRCLE
  5
9C
100
AcDbEntity
  8
ASSEMBLY_OUTLINES_TOP
100
AcDbCircle
 10
39.023549
 20
168.12088
 30
0.0
 40
0.45
  0
HATCH
  5
9D
100
AcDbEntity
  8
ASSEMBLY_OUTLINES_TOP
100
AcDbHatch
 10
0.0
 20
0.0
 30
0.0
210
0.0
220
0.0
230
1.0
  2
SOLID
 70
         1
 71
         1
 91
        1
 92
        1
 93
        1
 72
         2
 10
39.023549000000003
 20
168.12088
 40
0.45
 50
0.0
 51
360.0
 73
         1
 97
        1
330
9C
 75
         0
 76
         1
 98
        1
 10
0.0
 20
0.0
  0
CIRCLE
  5
9E
100
AcDbEntity
  8
ASSEMBLY_OUTLINES_TOP
100
AcDbCircle
 10
41.563549
 20
168.12088
 30
0.0
 40
0.45
  0
HATCH
  5
9F
100
AcDbEntity
  8
ASSEMBLY_OUTLINES_TOP
100
AcDbHatch
 10
0.0
 20
0.0
 30
0.0
210
0.0
220
0.0
230
1.0
  2
SOLID
 70
         1
 71
         1
 91
        1
 92
        1
 93
        1
 72
         2
 10
41.563549000000002
 20
168.12088
 40
0.45
 50
0.0
 51
360.0
 73
         1
 97
        1
330
9E
 75
         0
 76
         1
 98
        1
 10
0.0
 20
0.0
  0
CIRCLE
  5
A0
100
AcDbEntity
  8
ASSEMBLY_OUTLINES_TOP
100
AcDbCircle
 10
44.103549
 20
168.12088
 30
0.0
 40
0.45
  0
HATCH
  5
A1
100
AcDbEntity
  8
ASSEMBLY_OUTLINES_TOP
100
AcDbHatch
 10
0.0
 20
0.0
 30
0.0
210
0.0
220
0.0
230
1.0
  2
SOLID
 70
         1
 71
         1
 91
        1
 92
        1
 93
        1
 72
         2
 10
44.103549000000001
 20
168.12088
 40
0.45
 50
0.0
 51
360.0
 73
         1
 97
        1
330
A0
 75
         0
 76
         1
 98
        1
 10
0.0
 20
0.0
  0
CIRCLE
  5
A2
100
AcDbEntity
  8
ASSEMBLY_OUTLINES_TOP
100
AcDbCircle
 10
46.643549
 20
168.12088
 30
0.0
 40
0.45
  0
HATCH
  5
A3
100
AcDbEntity
  8
ASSEMBLY_OUTLINES_TOP
100
AcDbHatch
 10
0.0
 20
0.0
 30
0.0
210
0.0
220
0.0
230
1.0
  2
SOLID
 70
         1
 71
         1
 91
        1
 92
        1
 93
        1
 72
         2
 10
46.643549
 20
168.12088
 40
0.45
 50
0.0
 51
360.0
 73
         1
 97
        1
330
A2
 75
         0
 76
         1
 98
        1
 10
0.0
 20
0.0
  0
CIRCLE
  5
A4
100
AcDbEntity
  8
ASSEMBLY_OUTLINES_TOP
100
AcDbCircle
 10
49.183549
 20
168.12088
 30
0.0
 40
0.45
  0
HATCH
  5
A5
100
AcDbEntity
  8
ASSEMBLY_OUTLINES_TOP
100
AcDbHatch
 10
0.0
 20
0.0
 30
0.0
210
0.0
220
0.0
230
1.0
  2
SOLID
 70
         1
 71
         1
 91
        1
 92
        1
 93
        1
 72
         2
 10
49.183548999999999
 20
168.12088
 40
0.45
 50
0.0
 51
360.0
 73
         1
 97
        1
330
A4
 75
         0
 76
         1
 98
        1
 10
0.0
 20
0.0
  0
CIRCLE
  5
A6
100
AcDbEntity
  8
ASSEMBLY_OUTLINES_TOP
100
AcDbCircle
 10
51.723549
 20
168.12088
 30
0.0
 40
0.45
  0
HATCH
  5
A7
100
AcDbEntity
  8
ASSEMBLY_OUTLINES_TOP
100
AcDbHatch
 10
0.0
 20
0.0
 30
0.0
210
0.0
220
0.0
230
1.0
  2
SOLID
 70
         1
 71
         1
 91
        1
 92
        1
 93
        1
 72
         2
 10
51.723548999999998
 20
168.12088
 40
0.45
 50
0.0
 51
360.0
 73
         1
 97
        1
330
A6
 75
         0
 76
         1
 98
        1
 10
0.0
 20
0.0
  0
CIRCLE
  5
A8
100
AcDbEntity
  8
ASSEMBLY_OUTLINES_TOP
100
AcDbCircle
 10
54.263549
 20
168.12088
 30
0.0
 40
0.45
  0
HATCH
  5
A9
100
AcDbEntity
  8
ASSEMBLY_OUTLINES_TOP
100
AcDbHatch
 10
0.0
 20
0.0
 30
0.0
210
0.0
220
0.0
230
1.0
  2
SOLID
 70
         1
 71
         1
 91
        1
 92
        1
 93
        1
 72
         2
 10
54.263548999999998
 20
168.12088
 40
0.45
 50
0.0
 51
360.0
 73
         1
 97
        1
330
A8
 75
         0
 76
         1
 98
        1
 10
0.0
 20
0.0
  0
CIRCLE
  5
AA
100
AcDbEntity
  8
ASSEMBLY_OUTLINES_TOP
100
AcDbCircle
 10
56.803549
 20
168.12088
 30
0.0
 40
0.45
  0
HATCH
  5
AB
100
AcDbEntity
  8
ASSEMBLY_OUTLINES_TOP
100
AcDbHatch
 10
0.0
 20
0.0
 30
0.0
210
0.0
220
0.0
230
1.0
  2
SOLID
 70
         1
 71
         1
 91
        1
 92
        1
 93
        1
 72
         2
 10
56.803548999999997
 20
168.12088
 40
0.45
 50
0.0
 51
360.0
 73
         1
 97
        1
330
AA
 75
         0
 76
         1
 98
        1
 10
0.0
 20
0.0
  0
CIRCLE
  5
AC
100
AcDbEntity
  8
ASSEMBLY_OUTLINES_TOP
100
AcDbCircle
 10
59.343549
 20
168.12088
 30
0.0
 40
0.45
  0
HATCH
  5
AD
100
AcDbEntity
  8
ASSEMBLY_OUTLINES_TOP
100
AcDbHatch
 10
0.0
 20
0.0
 30
0.0
210
0.0
220
0.0
230
1.0
  2
SOLID
 70
         1
 71
         1
 91
        1
 92
        1
 93
        1
 72
         2
 10
59.343549000000003
 20
168.12088
 40
0.45
 50
0.0
 51
360.0
 73
         1
 97
        1
330
AC
 75
         0
 76
         1
 98
        1
 10
0.0
 20
0.0
  0
CIRCLE
  5
AE
100
AcDbEntity
  8
ASSEMBLY_OUTLINES_TOP
100
AcDbCircle
 10
61.883549
 20
168.12088
 30
0.0
 40
0.45
  0
HATCH
  5
AF
100
AcDbEntity
  8
ASSEMBLY_OUTLINES_TOP
100
AcDbHatch
 10
0.0
 20
0.0
 30
0.0
210
0.0
220
0.0
230
1.0
  2
SOLID
 70
         1
 71
         1
 91
        1
 92
        1
 93
        1
 72
         2
 10
61.883549000000002
 20
168.12088
 40
0.45
 50
0.0
 51
360.0
 73
         1
 97
        1
330
AE
 75
         0
 76
         1
 98
        1
 10
0.0
 20
0.0
  0
LWPOLYLINE
  5
B0
100
AcDbEntity
  8
ASSEMBLY_OUTLINES_TOP
100
AcDbPolyline
 90
        4
 70
         1
 43
0.1
 10
69.5
 20
93.5
 10
69.5
 20
96.4
 10
70.8
 20
96.4
 10
70.8
 20
93.5
  0
LWPOLYLINE
  5
B1
100
AcDbEntity
  8
ASSEMBLY_OUTLINES_TOP
100
AcDbPolyline
 90
        4
 70
         1
 43
0.1
 10
38.55
 20
111.3
 10
38.55
 20
113.1
 10
41.85
 20
113.1
 10
41.85
 20
111.3
  0
LWPOLYLINE
  5
B2
100
AcDbEntity
  8
ASSEMBLY_OUTLINES_TOP
100
AcDbPolyline
 90
        4
 70
         1
 43
0.1
 10
31.3
 20
108.55
 10
31.3
 20
109.85
 10
34.2
 20
109.85
 10
34.2
 20
108.55
  0
LWPOLYLINE
  5
B3
100
AcDbEntity
  8
ASSEMBLY_OUTLINES_TOP
100
AcDbPolyline
 90
        4
 70
         1
 43
0.1
 10
-0.25
 20
112.95
 10
-0.25
 20
115.85
 10
1.05
 20
115.85
 10
1.05
 20
112.95
  0
LWPOLYLINE
  5
B4
100
AcDbEntity
  8
ASSEMBLY_OUTLINES_TOP
100
AcDbPolyline
 90
        4
 70
         1
 43
0.1
 10
91.5
 20
149.7
 10
91.5
 20
152.5
 10
92.8
 20
152.5
 10
92.8
 20
149.7
  0
LWPOLYLINE
  5
B5
100
AcDbEntity
  8
ASSEMBLY_OUTLINES_TOP
100
AcDbPolyline
 90
        4
 70
         1
 43
0.1
 10
88.650002
 20
128.25
 10
91.950001
 20
128.25
 10
91.950002
 20
130.050001
 10
88.650002
 20
130.05
  0
LWPOLYLINE
  5
B6
100
AcDbEntity
  8
ASSEMBLY_OUTLINES_TOP
100
AcDbPolyline
 90
        4
 70
         1
 43
0.1
 10
75.15
 20
153.6
 10
75.15
 20
156.4
 10
76.45
 20
156.4
 10
76.45
 20
153.6
  0
LWPOLYLINE
  5
B7
100
AcDbEntity
  8
ASSEMBLY_OUTLINES_TOP
100
AcDbPolyline
 90
        4
 70
         1
 43
0.1
 10
8.3
 20
110.6
 10
8.3
 20
111.9
 10
11.2
 20
111.9
 10
11.2
 20
110.6
  0
LWPOLYLINE
  5
B8
100
AcDbEntity
  8
ASSEMBLY_OUTLINES_TOP
100
AcDbPolyline
 90
        4
 70
         1
 43
0.1
 10
75.15
 20
156.55
 10
75.15
 20
159.35
 10
76.45
 20
159.35
 10
76.45
 20
156.55
  0
LWPOLYLINE
  5
B9
100
AcDbEntity
  8
ASSEMBLY_OUTLINES_TOP
100
AcDbPolyline
 90
        4
 70
         1
 43
0.1
 10
42.05
 20
100.95
 10
42.05
 20
106.95
 10
48.05
 20
106.95
 10
48.05
 20
100.95
  0
LWPOLYLINE
  5
BA
100
AcDbEntity
  8
ASSEMBLY_OUTLINES_TOP
100
AcDbPolyline
 90
        2
 70
         1
 43
0.1
 10
42.55
 20
101.95
 42
-1.0
 10
43.55
 20
101.95
 42
-1.0
  0
LWPOLYLINE
  5
BB
100
AcDbEntity
  8
ASSEMBLY_OUTLINES_TOP
100
AcDbPolyline
 90
        4
 70
         1
 43
0.1
 10
87.3
 20
114.55
 10
87.3
 20
117.55
 10
90.3
 20
117.55
 10
90.3
 20
114.55
  0
LWPOLYLINE
  5
BC
100
AcDbEntity
  8
ASSEMBLY_OUTLINES_TOP
100
AcDbPolyline
 90
        2
 70
         0
 43
0.1
 10
87.3
 20
117.45
 10
87.4
 20
117.55
  0
LWPOLYLINE
  5
BD
100
AcDbEntity
  8
ASSEMBLY_OUTLINES_TOP
100
AcDbPolyline
 90
        2
 70
         0
 43
0.1
 10
87.3
 20
117.35
 10
87.5
 20
117.55
  0
LWPOLYLINE
  5
BE
100
AcDbEntity
  8
ASSEMBLY_OUTLINES_TOP
100
AcDbPolyline
 90
        2
 70
         0
 43
0.1
 10
87.3
 20
117.25
 10
87.6
 20
117.55
  0
LWPOLYLINE
  5
BF
100
AcDbEntity
  8
ASSEMBLY_OUTLINES_TOP
100
AcDbPolyline
 90
        2
 70
         0
 43
0.1
 10
87.3
 20
117.15
 10
87.7
 20
117.55
  0
LWPOLYLINE
  5
C0
100
AcDbEntity
  8
ASSEMBLY_OUTLINES_TOP
100
AcDbPolyline
 90
        2
 70
         0
 43
0.1
 10
87.3
 20
117.05
 10
87.8
 20
117.55
  0
LWPOLYLINE
  5
C1
100
AcDbEntity
  8
ASSEMBLY_OUTLINES_TOP
100
AcDbPolyline
 90
        2
 70
         0
 43
0.1
 10
87.3
 20
116.95
 10
87.9
 20
117.55
  0
LWPOLYLINE
  5
C2
100
AcDbEntity
  8
ASSEMBLY_OUTLINES_TOP
100
AcDbPolyline
 90
        4
 70
         1
 43
0.1
 10
75.15
 20
150.1
 10
75.15
 20
152.9
 10
76.45
 20
152.9
 10
76.45
 20
150.1
  0
LWPOLYLINE
  5
C3
100
AcDbEntity
  8
ASSEMBLY_OUTLINES_TOP
100
AcDbPolyline
 90
        4
 70
         1
 43
0.1
 10
35.1
 20
113.25
 10
35.1
 20
116.15
 10
36.4
 20
116.15
 10
36.4
 20
113.25
  0
LWPOLYLINE
  5
C4
100
AcDbEntity
  8
ASSEMBLY_OUTLINES_TOP
100
AcDbPolyline
 90
        4
 70
         1
 43
0.1
 10
79.45
 20
162.05
 10
79.45
 20
163.35
 10
82.35
 20
163.35
 10
82.35
 20
162.05
  0
LWPOLYLINE
  5
C5
100
AcDbEntity
  8
ASSEMBLY_OUTLINES_TOP
100
AcDbPolyline
 90
        4
 70
         1
 43
0.1
 10
60.95
 20
153.8
 10
60.95
 20
156.6
 10
62.25
 20
156.6
 10
62.25
 20
153.8
  0
LWPOLYLINE
  5
C6
100
AcDbEntity
  8
ASSEMBLY_OUTLINES_TOP
100
AcDbPolyline
 90
        4
 70
         1
 43
0.1
 10
13.9
 20
142.25
 10
13.9
 20
143.55
 10
16.7
 20
143.55
 10
16.7
 20
142.25
  0
LWPOLYLINE
  5
C7
100
AcDbEntity
  8
ASSEMBLY_OUTLINES_TOP
100
AcDbPolyline
 90
        4
 70
         1
 43
0.1
 10
68.5
 20
105.85
 10
68.5
 20
107.15
 10
71.3
 20
107.15
 10
71.3
 20
105.85
  0
LWPOLYLINE
  5
C8
100
AcDbEntity
  8
ASSEMBLY_OUTLINES_TOP
100
AcDbPolyline
 90
        4
 70
         1
 43
0.1
 10
51.1
 20
100.85
 10
51.1
 20
103.75
 10
52.4
 20
103.75
 10
52.4
 20
100.85
  0
LWPOLYLINE
  5
C9
100
AcDbEntity
  8
ASSEMBLY_OUTLINES_TOP
100
AcDbPolyline
 90
        4
 70
         1
 43
0.1
 10
77.15
 20
89.95
 10
77.15
 20
91.75
 10
80.45
 20
91.75
 10
80.45
 20
89.95
  0
LWPOLYLINE
  5
CA
100
AcDbEntity
  8
ASSEMBLY_OUTLINES_TOP
100
AcDbPolyline
 90
        4
 70
         1
 43
0.1
 10
111.65
 20
102.35
 10
111.65
 20
103.65
 10
114.45
 20
103.65
 10
114.45
 20
102.35
  0
LWPOLYLINE
  5
CB
100
AcDbEntity
  8
ASSEMBLY_OUTLINES_TOP
100
AcDbPolyline
 90
        4
 70
         1
 43
0.1
 10
8.3
 20
103.8
 10
8.3
 20
105.1
 10
11.2
 20
105.1
 10
11.2
 20
103.8
  0
LWPOLYLINE
  5
CC
100
AcDbEntity
  8
ASSEMBLY_OUTLINES_TOP
100
AcDbPolyline
 90
        4
 70
         1
 43
0.1
 10
78.95
 20
116.4
 10
78.95
 20
119.6
 10
80.55
 20
119.6
 10
80.55
 20
116.4
  0
LWPOLYLINE
  5
CD
100
AcDbEntity
  8
ASSEMBLY_OUTLINES_TOP
100
AcDbPolyline
 90
        4
 70
         1
 10
0.69
 20
133.43
 10
0.69
 20
135.97
 10
8.19
 20
135.97
 10
8.19
 20
133.43
  0
LWPOLYLINE
  5
CE
100
AcDbEntity
  8
ASSEMBLY_OUTLINES_TOP
100
AcDbPolyline
 90
        4
 70
         1
 43
0.1
 10
88.6
 20
111.55
 10
88.6
 20
112.85
 10
91.5
 20
112.85
 10
91.5
 20
111.55
  0
LWPOLYLINE
  5
CF
100
AcDbEntity
  8
ASSEMBLY_OUTLINES_TOP
100
AcDbPolyline
 90
        4
 70
         1
 43
0.1
 10
88.95
 20
107.65
 10
88.95
 20
108.95
 10
91.85
 20
108.95
 10
91.85
 20
107.65
  0
LWPOLYLINE
  5
D0
100
AcDbEntity
  8
ASSEMBLY_OUTLINES_TOP
100
AcDbPolyline
 90
        4
 70
         1
 43
0.1
 10
42.2
 20
159.65
 10
42.2
 20
160.95
 10
45.1
 20
160.95
 10
45.1
 20
159.65
  0
LWPOLYLINE
  5
D1
100
AcDbEntity
  8
ASSEMBLY_OUTLINES_TOP
100
AcDbPolyline
 90
        4
 70
         1
 43
0.1
 10
30.35
 20
93.95
 10
30.35
 20
95.25
 10
33.25
 20
95.25
 10
33.25
 20
93.95
  0
LWPOLYLINE
  5
D2
100
AcDbEntity
  8
ASSEMBLY_OUTLINES_TOP
100
AcDbPolyline
 90
        4
 70
         1
 43
0.1
 10
30.15
 20
145.9
 10
30.15
 20
148.8
 10
31.45
 20
148.8
 10
31.45
 20
145.9
  0
LWPOLYLINE
  5
D3
100
AcDbEntity
  8
ASSEMBLY_OUTLINES_TOP
100
AcDbPolyline
 90
        4
 70
         1
 43
0.1
 10
62.3
 20
94.35
 10
62.3
 20
97.25
 10
63.6
 20
97.25
 10
63.6
 20
94.35
  0
LWPOLYLINE
  5
D4
100
AcDbEntity
  8
ASSEMBLY_OUTLINES_TOP
100
AcDbPolyline
 90
        4
 70
         1
 43
0.1
 10
93.5
 20
85.95
 10
93.5
 20
87.25
 10
96.4
 20
87.25
 10
96.4
 20
85.95
  0
LWPOLYLINE
  5
D5
100
AcDbEntity
  8
ASSEMBLY_OUTLINES_TOP
100
AcDbPolyline
 90
        4
 70
         1
 43
0.1
 10
30.35
 20
91.05
 10
30.35
 20
92.35
 10
33.25
 20
92.35
 10
33.25
 20
91.05
  0
LWPOLYLINE
  5
D6
100
AcDbEntity
  8
ASSEMBLY_OUTLINES_TOP
100
AcDbPolyline
 90
        4
 70
         1
 43
0.1
 10
75.1
 20
117.6
 10
75.1
 20
119.4
 10
78.4
 20
119.4
 10
78.4
 20
117.6
  0
LWPOLYLINE
  5
D7
100
AcDbEntity
  8
ASSEMBLY_OUTLINES_TOP
100
AcDbPolyline
 90
        4
 70
         1
 43
0.1
 10
44.275
 20
130.55
 10
44.275
 20
132.15
 10
47.475
 20
132.15
 10
47.475
 20
130.55
  0
LWPOLYLINE
  5
D8
100
AcDbEntity
  8
ASSEMBLY_OUTLINES_TOP
100
AcDbPolyline
 90
        4
 70
         1
 43
0.1
 10
64.9
 20
103.95
 10
64.9
 20
106.75
 10
66.2
 20
106.75
 10
66.2
 20
103.95
  0
LWPOLYLINE
  5
D9
100
AcDbEntity
  8
ASSEMBLY_OUTLINES_TOP
100
AcDbPolyline
 90
        4
 70
         1
 43
0.1
 10
35.9
 20
107.05
 10
35.9
 20
108.35
 10
38.8
 20
108.35
 10
38.8
 20
107.05
  0
LWPOLYLINE
  5
DA
100
AcDbEntity
  8
ASSEMBLY_OUTLINES_TOP
100
AcDbPolyline
 90
        4
 70
         1
 43
0.1
 10
83.3
 20
131.2
 10
83.3
 20
132.8
 10
86.5
 20
132.8
 10
86.5
 20
131.2
  0
LWPOLYLINE
  5
DB
100
AcDbEntity
  8
ASSEMBLY_OUTLINES_TOP
100
AcDbPolyline
 90
        4
 70
         1
 43
0.1
 10
111.65
 20
99.45
 10
111.65
 20
100.75
 10
114.45
 20
100.75
 10
114.45
 20
99.45
  0
LWPOLYLINE
  5
DC
100
AcDbEntity
  8
ASSEMBLY_OUTLINES_TOP
100
AcDbPolyline
 90
        4
 70
         1
 10
80.38
 20
75.34
 10
80.38
 20
80.42
 10
82.92
 20
80.42
 10
82.92
 20
75.34
  0
LWPOLYLINE
  5
DD
100
AcDbEntity
  8
ASSEMBLY_OUTLINES_TOP
100
AcDbPolyline
 90
        4
 70
         1
 43
0.1
 10
75.95
 20
122.0
 10
75.95
 20
123.8
 10
79.25
 20
123.8
 10
79.25
 20
122.0
  0
LWPOLYLINE
  5
DE
100
AcDbEntity
  8
ASSEMBLY_OUTLINES_TOP
100
AcDbPolyline
 90
        4
 70
         1
 43
0.1
 10
49.95
 20
112.05
 10
49.95
 20
115.25
 10
51.55
 20
115.25
 10
51.55
 20
112.05
  0
LWPOLYLINE
  5
DF
100
AcDbEntity
  8
ASSEMBLY_OUTLINES_TOP
100
AcDbPolyline
 90
        4
 70
         1
 43
0.1
 10
72.85
 20
98.8
 10
72.85
 20
100.1
 10
75.75
 20
100.1
 10
75.75
 20
98.8
  0
LWPOLYLINE
  5
E0
100
AcDbEntity
  8
ASSEMBLY_OUTLINES_TOP
100
AcDbPolyline
 90
        4
 70
         1
 43
0.1
 10
60.65
 20
103.95
 10
60.65
 20
106.75
 10
61.95
 20
106.75
 10
61.95
 20
103.95
  0
LWPOLYLINE
  5
E1
100
AcDbEntity
  8
ASSEMBLY_OUTLINES_TOP
100
AcDbPolyline
 90
        4
 70
         1
 43
0.1
 10
53.7
 20
92.0
 10
53.7
 20
93.4
 10
56.7
 20
93.4
 10
56.7
 20
92.0
  0
LWPOLYLINE
  5
E2
100
AcDbEntity
  8
ASSEMBLY_OUTLINES_TOP
100
AcDbPolyline
 90
        2
 70
         0
 43
0.1
 10
53.8
 20
92.0
 10
53.7
 20
92.1
  0
LWPOLYLINE
  5
E3
100
AcDbEntity
  8
ASSEMBLY_OUTLINES_TOP
100
AcDbPolyline
 90
        2
 70
         0
 43
0.1
 10
53.9
 20
92.0
 10
53.7
 20
92.2
  0
LWPOLYLINE
  5
E4
100
AcDbEntity
  8
ASSEMBLY_OUTLINES_TOP
100
AcDbPolyline
 90
        2
 70
         0
 43
0.1
 10
54.0
 20
92.0
 10
53.7
 20
92.3
  0
LWPOLYLINE
  5
E5
100
AcDbEntity
  8
ASSEMBLY_OUTLINES_TOP
100
AcDbPolyline
 90
        2
 70
         0
 43
0.1
 10
54.1
 20
92.0
 10
53.7
 20
92.4
  0
LWPOLYLINE
  5
E6
100
AcDbEntity
  8
ASSEMBLY_OUTLINES_TOP
100
AcDbPolyline
 90
        2
 70
         0
 43
0.1
 10
54.2
 20
92.0
 10
53.7
 20
92.5
  0
LWPOLYLINE
  5
E7
100
AcDbEntity
  8
ASSEMBLY_OUTLINES_TOP
100
AcDbPolyline
 90
        2
 70
         0
 43
0.1
 10
54.3
 20
92.0
 10
53.7
 20
92.6
  0
LWPOLYLINE
  5
E8
100
AcDbEntity
  8
ASSEMBLY_OUTLINES_TOP
100
AcDbPolyline
 90
        4
 70
         1
 43
0.1
 10
5.1
 20
114.7
 10
5.1
 20
117.6
 10
6.4
 20
117.6
 10
6.4
 20
114.7
  0
LWPOLYLINE
  5
E9
100
AcDbEntity
  8
ASSEMBLY_OUTLINES_TOP
100
AcDbPolyline
 90
        4
 70
         1
 43
0.1
 10
61.5
 20
109.55
 10
61.5
 20
110.85
 10
64.4
 20
110.85
 10
64.4
 20
109.55
  0
LWPOLYLINE
  5
EA
100
AcDbEntity
  8
ASSEMBLY_OUTLINES_TOP
100
AcDbPolyline
 90
        4
 70
         1
 43
0.1
 10
68.5
 20
104.5
 10
68.5
 20
105.8
 10
71.3
 20
105.8
 10
71.3
 20
104.5
  0
LWPOLYLINE
  5
EB
100
AcDbEntity
  8
ASSEMBLY_OUTLINES_TOP
100
AcDbPolyline
 90
        4
 70
         1
 43
0.1
 10
-0.5
 20
152.45
 10
-0.5
 20
155.65
 10
1.1
 20
155.65
 10
1.1
 20
152.45
  0
LWPOLYLINE
  5
EC
100
AcDbEntity
  8
ASSEMBLY_OUTLINES_TOP
100
AcDbPolyline
 90
        4
 70
         1
 10
1.48
 20
105.73
 10
1.48
 20
108.27
 10
6.56
 20
108.27
 10
6.56
 20
105.73
  0
LWPOLYLINE
  5
ED
100
AcDbEntity
  8
ASSEMBLY_OUTLINES_TOP
100
AcDbPolyline
 90
        4
 70
         1
 43
0.1
 10
92.0
 20
102.2
 10
92.0
 20
105.1
 10
93.3
 20
105.1
 10
93.3
 20
102.2
  0
LWPOLYLINE
  5
EE
100
AcDbEntity
  8
ASSEMBLY_OUTLINES_TOP
100
AcDbPolyline
 90
        4
 70
         1
 43
0.1
 10
38.25
 20
146.05
 10
38.25
 20
148.85
 10
39.55
 20
148.85
 10
39.55
 20
146.05
  0
LWPOLYLINE
  5
EF
100
AcDbEntity
  8
ASSEMBLY_OUTLINES_TOP
100
AcDbPolyline
 90
        4
 70
         1
 43
0.1
 10
31.35
 20
157.9
 10
31.35
 20
159.5
 10
34.55
 20
159.5
 10
34.55
 20
157.9
  0
LWPOLYLINE
  5
F0
100
AcDbEntity
  8
ASSEMBLY_OUTLINES_TOP
100
AcDbPolyline
 90
        8
 70
         1
 43
0.1
 10
87.949999
 20
126.250001
 10
87.949999
 20
129.55
 42
0.4142135624
 10
86.949999
 20
130.55
 10
83.749999
 20
130.55
 42
0.4142138553
 10
82.749999
 20
129.55
 10
82.749999
 20
126.25
 42
0.4142132695
 10
83.749998
 20
125.25
 10
86.949999
 20
125.25
 42
0.4142135624
  0
LWPOLYLINE
  5
F1
100
AcDbEntity
  8
ASSEMBLY_OUTLINES_TOP
100
AcDbPolyline
 90
        4
 70
         1
 43
0.1
 10
13.55
 20
94.05
 10
13.55
 20
96.95
 10
14.85
 20
96.95
 10
14.85
 20
94.05
  0
LWPOLYLINE
  5
F2
100
AcDbEntity
  8
ASSEMBLY_OUTLINES_TOP
100
AcDbPolyline
 90
        4
 70
         1
 43
0.1
 10
91.75
 20
89.1
 10
91.75
 20
92.0
 10
93.05
 20
92.0
 10
93.05
 20
89.1
  0
LWPOLYLINE
  5
F3
100
AcDbEntity
  8
ASSEMBLY_OUTLINES_TOP
100
AcDbPolyline
 90
        4
 70
         1
 43
0.1
 10
80.05
 20
159.65
 10
80.05
 20
160.95
 10
82.95
 20
160.95
 10
82.95
 20
159.65
  0
LWPOLYLINE
  5
F4
100
AcDbEntity
  8
ASSEMBLY_OUTLINES_TOP
100
AcDbPolyline
 90
        4
 70
         1
 10
64.55
 20
73.8
 10
64.55
 20
85.95
 10
79.55
 20
85.95
 10
79.55
 20
73.8
  0
LWPOLYLINE
  5
F5
100
AcDbEntity
  8
ASSEMBLY_OUTLINES_TOP
100
AcDbPolyline
 90
        4
 70
         1
 43
0.1
 10
65.3
 20
91.05
 10
65.3
 20
94.05
 10
66.7
 20
94.05
 10
66.7
 20
91.05
  0
LWPOLYLINE
  5
F6
100
AcDbEntity
  8
ASSEMBLY_OUTLINES_TOP
100
AcDbPolyline
 90
        2
 70
         0
 43
0.1
 10
66.7
 20
91.15
 10
66.6
 20
91.05
  0
LWPOLYLINE
  5
F7
100
AcDbEntity
  8
ASSEMBLY_OUTLINES_TOP
100
AcDbPolyline
 90
        2
 70
         0
 43
0.1
 10
66.7
 20
91.25
 10
66.5
 20
91.05
  0
LWPOLYLINE
  5
F8
100
AcDbEntity
  8
ASSEMBLY_OUTLINES_TOP
100
AcDbPolyline
 90
        2
 70
         0
 43
0.1
 10
66.7
 20
91.35
 10
66.4
 20
91.05
  0
LWPOLYLINE
  5
F9
100
AcDbEntity
  8
ASSEMBLY_OUTLINES_TOP
100
AcDbPolyline
 90
        2
 70
         0
 43
0.1
 10
66.7
 20
91.45
 10
66.3
 20
91.05
  0
LWPOLYLINE
  5
FA
100
AcDbEntity
  8
ASSEMBLY_OUTLINES_TOP
100
AcDbPolyline
 90
        2
 70
         0
 43
0.1
 10
66.7
 20
91.55
 10
66.2
 20
91.05
  0
LWPOLYLINE
  5
FB
100
AcDbEntity
  8
ASSEMBLY_OUTLINES_TOP
100
AcDbPolyline
 90
        2
 70
         0
 43
0.1
 10
66.7
 20
91.65
 10
66.1
 20
91.05
  0
LWPOLYLINE
  5
FC
100
AcDbEntity
  8
ASSEMBLY_OUTLINES_TOP
100
AcDbPolyline
 90
        4
 70
         1
 43
0.1
 10
1.85
 20
137.8
 10
1.85
 20
147.6
 10
6.35
 20
147.6
 10
6.35
 20
137.8
  0
LWPOLYLINE
  5
FD
100
AcDbEntity
  8
ASSEMBLY_OUTLINES_TOP
100
AcDbPolyline
 90
        2
 70
         1
 43
0.1
 10
2.35
 20
146.6
 42
-1.0
 10
3.35
 20
146.6
 42
-1.0
  0
LWPOLYLINE
  5
FE
100
AcDbEntity
  8
ASSEMBLY_OUTLINES_TOP
100
AcDbPolyline
 90
        8
 70
         1
 43
0.1
 10
42.4
 20
115.4
 10
42.4
 20
112.1
 42
0.4142135624
 10
43.4
 20
111.1
 10
46.6
 20
111.1
 42
0.4142135624
 10
47.6
 20
112.1
 10
47.6
 20
115.4
 42
0.4142135624
 10
46.6
 20
116.4
 10
43.4
 20
116.4
 42
0.4142135624
  0
LWPOLYLINE
  5
FF
100
AcDbEntity
  8
ASSEMBLY_OUTLINES_TOP
100
AcDbPolyline
 90
        4
 70
         1
 43
0.1
 10
-1.45
 20
88.55
 10
-1.45
 20
89.85
 10
1.45
 20
89.85
 10
1.45
 20
88.55
  0
LWPOLYLINE
  5
100
100
AcDbEntity
  8
ASSEMBLY_OUTLINES_TOP
100
AcDbPolyline
 90
        4
 70
         1
 10
31.5
 20
75.85
 10
31.5
 20
87.95
 10
44.9
 20
87.95
 10
44.9
 20
75.85
  0
LWPOLYLINE
  5
101
100
AcDbEntity
  8
ASSEMBLY_OUTLINES_TOP
100
AcDbPolyline
 90
        4
 70
         1
 10
32.2
 20
68.85
 10
32.2
 20
75.85
 10
43.2
 20
75.85
 10
43.2
 20
68.85
  0
LWPOLYLINE
  5
102
100
AcDbEntity
  8
ASSEMBLY_OUTLINES_TOP
100
AcDbPolyline
 90
        4
 70
         1
 43
0.1
 10
60.95
 20
149.25
 10
60.95
 20
152.05
 10
62.25
 20
152.05
 10
62.25
 20
149.25
  0
LWPOLYLINE
  5
103
100
AcDbEntity
  8
ASSEMBLY_OUTLINES_TOP
100
AcDbPolyline
 90
        4
 70
         1
 43
0.1
 10
75.95
 20
120.7
 10
75.95
 20
122.0
 10
78.75
 20
122.0
 10
78.75
 20
120.7
  0
LWPOLYLINE
  5
104
100
AcDbEntity
  8
ASSEMBLY_OUTLINES_TOP
100
AcDbPolyline
 90
        4
 70
         1
 43
0.1
 10
38.1
 20
102.8
 10
38.1
 20
104.1
 10
40.9
 20
104.1
 10
40.9
 20
102.8
  0
LWPOLYLINE
  5
105
100
AcDbEntity
  8
ASSEMBLY_OUTLINES_TOP
100
AcDbPolyline
 90
        4
 70
         1
 43
0.1
 10
3.05
 20
96.15
 10
3.05
 20
97.85
 10
6.15
 20
97.85
 10
6.15
 20
96.15
  0
LWPOLYLINE
  5
106
100
AcDbEntity
  8
ASSEMBLY_OUTLINES_TOP
100
AcDbPolyline
 90
        2
 70
         0
 43
0.1
 10
3.15
 20
96.15
 10
3.15
 20
97.85
  0
LWPOLYLINE
  5
107
100
AcDbEntity
  8
ASSEMBLY_OUTLINES_TOP
100
AcDbPolyline
 90
        2
 70
         0
 43
0.1
 10
3.25
 20
96.15
 10
3.25
 20
97.85
  0
LWPOLYLINE
  5
108
100
AcDbEntity
  8
ASSEMBLY_OUTLINES_TOP
100
AcDbPolyline
 90
        2
 70
         0
 43
0.1
 10
3.35
 20
96.15
 10
3.35
 20
97.85
  0
LWPOLYLINE
  5
109
100
AcDbEntity
  8
ASSEMBLY_OUTLINES_TOP
100
AcDbPolyline
 90
        2
 70
         0
 43
0.1
 10
3.45
 20
96.15
 10
3.45
 20
97.85
  0
LWPOLYLINE
  5
10A
100
AcDbEntity
  8
ASSEMBLY_OUTLINES_TOP
100
AcDbPolyline
 90
        2
 70
         0
 43
0.1
 10
3.55
 20
96.15
 10
3.55
 20
97.85
  0
LWPOLYLINE
  5
10B
100
AcDbEntity
  8
ASSEMBLY_OUTLINES_TOP
100
AcDbPolyline
 90
        2
 70
         0
 43
0.1
 10
3.65
 20
96.15
 10
3.65
 20
97.85
  0
LWPOLYLINE
  5
10C
100
AcDbEntity
  8
ASSEMBLY_OUTLINES_TOP
100
AcDbPolyline
 90
        4
 70
         1
 43
0.1
 10
4.1
 20
111.2
 10
4.1
 20
114.1
 10
5.4
 20
114.1
 10
5.4
 20
111.2
  0
LWPOLYLINE
  5
10D
100
AcDbEntity
  8
ASSEMBLY_OUTLINES_TOP
100
AcDbPolyline
 90
        4
 70
         1
 43
0.1
 10
107.05
 20
103.05
 10
107.05
 20
104.35
 10
109.85
 20
104.35
 10
109.85
 20
103.05
  0
LWPOLYLINE
  5
10E
100
AcDbEntity
  8
ASSEMBLY_OUTLINES_TOP
100
AcDbPolyline
 90
        4
 70
         1
 43
0.1
 10
64.85
 20
109.25
 10
64.85
 20
112.05
 10
66.15
 20
112.05
 10
66.15
 20
109.25
  0
LWPOLYLINE
  5
10F
100
AcDbEntity
  8
ASSEMBLY_OUTLINES_TOP
100
AcDbPolyline
 90
        4
 70
         1
 43
0.1
 10
48.0
 20
112.05
 10
48.0
 20
115.25
 10
49.6
 20
115.25
 10
49.6
 20
112.05
  0
LWPOLYLINE
  5
110
100
AcDbEntity
  8
ASSEMBLY_OUTLINES_TOP
100
AcDbPolyline
 90
        4
 70
         1
 43
0.1
 10
49.2
 20
104.5
 10
49.2
 20
107.3
 10
50.5
 20
107.3
 10
50.5
 20
104.5
  0
LWPOLYLINE
  5
111
100
AcDbEntity
  8
ASSEMBLY_OUTLINES_TOP
100
AcDbPolyline
 90
        4
 70
         1
 10
68.25
 20
169.22
 10
68.25
 20
176.22
 10
76.65
 20
176.22
 10
76.65
 20
169.22
  0
LWPOLYLINE
  5
112
100
AcDbEntity
  8
ASSEMBLY_OUTLINES_TOP
100
AcDbPolyline
 90
        4
 70
         1
 10
66.65
 20
162.72
 10
66.65
 20
169.22
 10
78.15
 20
169.22
 10
78.15
 20
162.72
  0
LWPOLYLINE
  5
113
100
AcDbEntity
  8
ASSEMBLY_OUTLINES_TOP
100
AcDbPolyline
 90
        4
 70
         1
 43
0.1
 10
48.5
 20
94.55
 10
48.5
 20
95.85
 10
51.4
 20
95.85
 10
51.4
 20
94.55
  0
LWPOLYLINE
  5
114
100
AcDbEntity
  8
ASSEMBLY_OUTLINES_TOP
100
AcDbPolyline
 90
        4
 70
         1
 43
0.1
 10
55.2
 20
159.65
 10
55.2
 20
160.95
 10
58.1
 20
160.95
 10
58.1
 20
159.65
  0
LWPOLYLINE
  5
115
100
AcDbEntity
  8
ASSEMBLY_OUTLINES_TOP
100
AcDbPolyline
 90
        4
 70
         1
 43
0.1
 10
47.9
 20
156.5
 10
47.9
 20
159.3
 10
49.2
 20
159.3
 10
49.2
 20
156.5
  0
LWPOLYLINE
  5
116
100
AcDbEntity
  8
ASSEMBLY_OUTLINES_TOP
100
AcDbPolyline
 90
        4
 70
         1
 43
0.1
 10
75.15
 20
146.45
 10
75.15
 20
149.25
 10
76.45
 20
149.25
 10
76.45
 20
146.45
  0
LWPOLYLINE
  5
117
100
AcDbEntity
  8
ASSEMBLY_OUTLINES_TOP
100
AcDbPolyline
 90
        4
 70
         1
 43
0.1
 10
37.4
 20
132.05
 10
37.4
 20
133.35
 10
40.3
 20
133.35
 10
40.3
 20
132.05
  0
LWPOLYLINE
  5
118
100
AcDbEntity
  8
ASSEMBLY_OUTLINES_TOP
100
AcDbPolyline
 90
        4
 70
         1
 43
0.1
 10
87.2
 20
117.75
 10
87.2
 20
119.55
 10
90.5
 20
119.55
 10
90.5
 20
117.75
  0
LWPOLYLINE
  5
119
100
AcDbEntity
  8
ASSEMBLY_OUTLINES_TOP
100
AcDbPolyline
 90
        4
 70
         1
 43
0.1
 10
75.7
 20
90.35
 10
75.7
 20
93.15
 10
77.0
 20
93.15
 10
77.0
 20
90.35
  0
LWPOLYLINE
  5
11A
100
AcDbEntity
  8
ASSEMBLY_OUTLINES_TOP
100
AcDbPolyline
 90
        4
 70
         1
 43
0.1
 10
65.3
 20
94.3
 10
65.3
 20
97.3
 10
66.7
 20
97.3
 10
66.7
 20
94.3
  0
LWPOLYLINE
  5
11B
100
AcDbEntity
  8
ASSEMBLY_OUTLINES_TOP
100
AcDbPolyline
 90
        2
 70
         0
 43
0.1
 10
65.3
 20
97.2
 10
65.4
 20
97.3
  0
LWPOLYLINE
  5
11C
100
AcDbEntity
  8
ASSEMBLY_OUTLINES_TOP
100
AcDbPolyline
 90
        2
 70
         0
 43
0.1
 10
65.3
 20
97.1
 10
65.5
 20
97.3
  0
LWPOLYLINE
  5
11D
100
AcDbEntity
  8
ASSEMBLY_OUTLINES_TOP
100
AcDbPolyline
 90
        2
 70
         0
 43
0.1
 10
65.3
 20
97.0
 10
65.6
 20
97.3
  0
LWPOLYLINE
  5
11E
100
AcDbEntity
  8
ASSEMBLY_OUTLINES_TOP
100
AcDbPolyline
 90
        2
 70
         0
 43
0.1
 10
65.3
 20
96.9
 10
65.7
 20
97.3
  0
LWPOLYLINE
  5
11F
100
AcDbEntity
  8
ASSEMBLY_OUTLINES_TOP
100
AcDbPolyline
 90
        2
 70
         0
 43
0.1
 10
65.3
 20
96.8
 10
65.8
 20
97.3
  0
LWPOLYLINE
  5
120
100
AcDbEntity
  8
ASSEMBLY_OUTLINES_TOP
100
AcDbPolyline
 90
        2
 70
         0
 43
0.1
 10
65.3
 20
96.7
 10
65.9
 20
97.3
  0
LWPOLYLINE
  5
121
100
AcDbEntity
  8
ASSEMBLY_OUTLINES_TOP
100
AcDbPolyline
 90
        4
 70
         1
 43
0.1
 10
75.2
 20
112.9
 10
75.2
 20
114.2
 10
78.1
 20
114.2
 10
78.1
 20
112.9
  0
LWPOLYLINE
  5
122
100
AcDbEntity
  8
ASSEMBLY_OUTLINES_TOP
100
AcDbPolyline
 90
        4
 70
         1
 43
0.1
 10
72.65
 20
108.0
 10
72.65
 20
110.8
 10
73.95
 20
110.8
 10
73.95
 20
108.0
  0
LWPOLYLINE
  5
123
100
AcDbEntity
  8
ASSEMBLY_OUTLINES_TOP
100
AcDbPolyline
 90
        4
 70
         1
 43
0.1
 10
88.7
 20
125.100002
 10
88.7
 20
128.100001
 10
91.7
 20
128.100001
 10
91.7
 20
125.100002
  0
LWPOLYLINE
  5
124
100
AcDbEntity
  8
ASSEMBLY_OUTLINES_TOP
100
AcDbPolyline
 90
        2
 70
         0
 43
0.1
 10
88.7
 20
128.000001
 10
88.8
 20
128.100002
  0
LWPOLYLINE
  5
125
100
AcDbEntity
  8
ASSEMBLY_OUTLINES_TOP
100
AcDbPolyline
 90
        2
 70
         0
 43
0.1
 10
88.7
 20
127.900002
 10
88.9
 20
128.100001
  0
LWPOLYLINE
  5
126
100
AcDbEntity
  8
ASSEMBLY_OUTLINES_TOP
100
AcDbPolyline
 90
        2
 70
         0
 43
0.1
 10
88.7
 20
127.800001
 10
89.0
 20
128.100001
  0
LWPOLYLINE
  5
127
100
AcDbEntity
  8
ASSEMBLY_OUTLINES_TOP
100
AcDbPolyline
 90
        2
 70
         0
 43
0.1
 10
88.7
 20
127.700002
 10
89.1
 20
128.100002
  0
LWPOLYLINE
  5
128
100
AcDbEntity
  8
ASSEMBLY_OUTLINES_TOP
100
AcDbPolyline
 90
        2
 70
         0
 43
0.1
 10
88.7
 20
127.600002
 10
89.2
 20
128.100001
  0
LWPOLYLINE
  5
129
100
AcDbEntity
  8
ASSEMBLY_OUTLINES_TOP
100
AcDbPolyline
 90
        2
 70
         0
 43
0.1
 10
88.7
 20
127.500001
 10
89.3
 20
128.100001
  0
LWPOLYLINE
  5
12A
100
AcDbEntity
  8
ASSEMBLY_OUTLINES_TOP
100
AcDbPolyline
 90
        4
 70
         1
 43
0.1
 10
48.6
 20
119.25
 10
48.6
 20
120.55
 10
51.4
 20
120.55
 10
51.4
 20
119.25
  0
LWPOLYLINE
  5
12B
100
AcDbEntity
  8
ASSEMBLY_OUTLINES_TOP
100
AcDbPolyline
 90
        4
 70
         1
 43
0.1
 10
75.25
 20
105.1
 10
75.25
 20
107.9
 10
76.55
 20
107.9
 10
76.55
 20
105.1
  0
LWPOLYLINE
  5
12C
100
AcDbEntity
  8
ASSEMBLY_OUTLINES_TOP
100
AcDbPolyline
 90
        4
 70
         1
 43
0.1
 10
75.95
 20
119.4
 10
75.95
 20
120.7
 10
78.75
 20
120.7
 10
78.75
 20
119.4
  0
LWPOLYLINE
  5
12D
100
AcDbEntity
  8
ASSEMBLY_OUTLINES_TOP
100
AcDbPolyline
 90
        4
 70
         1
 43
0.1
 10
37.325
 20
133.675
 10
37.325
 20
136.725
 10
39.075
 20
136.725
 10
39.075
 20
133.675
  0
LWPOLYLINE
  5
12E
100
AcDbEntity
  8
ASSEMBLY_OUTLINES_TOP
100
AcDbPolyline
 90
        2
 70
         0
 43
0.1
 10
37.325
 20
136.625
 10
37.425
 20
136.725
  0
LWPOLYLINE
  5
12F
100
AcDbEntity
  8
ASSEMBLY_OUTLINES_TOP
100
AcDbPolyline
 90
        2
 70
         0
 43
0.1
 10
37.325
 20
136.525
 10
37.525
 20
136.725
  0
LWPOLYLINE
  5
130
100
AcDbEntity
  8
ASSEMBLY_OUTLINES_TOP
100
AcDbPolyline
 90
        2
 70
         0
 43
0.1
 10
37.325
 20
136.425
 10
37.625
 20
136.725
  0
LWPOLYLINE
  5
131
100
AcDbEntity
  8
ASSEMBLY_OUTLINES_TOP
100
AcDbPolyline
 90
        2
 70
         0
 43
0.1
 10
37.325
 20
136.325
 10
37.725
 20
136.725
  0
LWPOLYLINE
  5
132
100
AcDbEntity
  8
ASSEMBLY_OUTLINES_TOP
100
AcDbPolyline
 90
        2
 70
         0
 43
0.1
 10
37.325
 20
136.225
 10
37.825
 20
136.725
  0
LWPOLYLINE
  5
133
100
AcDbEntity
  8
ASSEMBLY_OUTLINES_TOP
100
AcDbPolyline
 90
        2
 70
         0
 43
0.1
 10
37.325
 20
136.125
 10
37.925
 20
136.725
  0
LWPOLYLINE
  5
134
100
AcDbEntity
  8
ASSEMBLY_OUTLINES_TOP
100
AcDbPolyline
 90
        4
 70
         1
 10
91.48
 20
99.58
 10
91.48
 20
102.12
 10
94.02
 20
102.12
 10
94.02
 20
99.58
  0
LWPOLYLINE
  5
135
100
AcDbEntity
  8
ASSEMBLY_OUTLINES_TOP
100
AcDbPolyline
 90
        4
 70
         1
 43
0.1
 10
52.2
 20
159.65
 10
52.2
 20
160.95
 10
55.1
 20
160.95
 10
55.1
 20
159.65
  0
LWPOLYLINE
  5
136
100
AcDbEntity
  8
ASSEMBLY_OUTLINES_TOP
100
AcDbPolyline
 90
        4
 70
         1
 43
0.1
 10
76.65
 20
150.15
 10
76.65
 20
153.45
 10
78.45
 20
153.45
 10
78.45
 20
150.15
  0
LWPOLYLINE
  5
137
100
AcDbEntity
  8
ASSEMBLY_OUTLINES_TOP
100
AcDbPolyline
 90
        4
 70
         1
 43
0.1
 10
40.225
 20
125.3
 10
40.225
 20
128.3
 10
43.225
 20
128.3
 10
43.225
 20
125.3
  0
LWPOLYLINE
  5
138
100
AcDbEntity
  8
ASSEMBLY_OUTLINES_TOP
100
AcDbPolyline
 90
        2
 70
         0
 43
0.1
 10
43.225
 20
125.4
 10
43.125
 20
125.3
  0
LWPOLYLINE
  5
139
100
AcDbEntity
  8
ASSEMBLY_OUTLINES_TOP
100
AcDbPolyline
 90
        2
 70
         0
 43
0.1
 10
43.225
 20
125.5
 10
43.025
 20
125.3
  0
LWPOLYLINE
  5
13A
100
AcDbEntity
  8
ASSEMBLY_OUTLINES_TOP
100
AcDbPolyline
 90
        2
 70
         0
 43
0.1
 10
43.225
 20
125.6
 10
42.925
 20
125.3
  0
LWPOLYLINE
  5
13B
100
AcDbEntity
  8
ASSEMBLY_OUTLINES_TOP
100
AcDbPolyline
 90
        2
 70
         0
 43
0.1
 10
43.225
 20
125.7
 10
42.825
 20
125.3
  0
LWPOLYLINE
  5
13C
100
AcDbEntity
  8
ASSEMBLY_OUTLINES_TOP
100
AcDbPolyline
 90
        2
 70
         0
 43
0.1
 10
43.225
 20
125.8
 10
42.725
 20
125.3
  0
LWPOLYLINE
  5
13D
100
AcDbEntity
  8
ASSEMBLY_OUTLINES_TOP
100
AcDbPolyline
 90
        2
 70
         0
 43
0.1
 10
43.225
 20
125.9
 10
42.625
 20
125.3
  0
LWPOLYLINE
  5
13E
100
AcDbEntity
  8
ASSEMBLY_OUTLINES_TOP
100
AcDbPolyline
 90
        4
 70
         1
 43
0.1
 10
33.05
 20
111.45
 10
33.05
 20
114.35
 10
34.35
 20
114.35
 10
34.35
 20
111.45
  0
LWPOLYLINE
  5
13F
100
AcDbEntity
  8
ASSEMBLY_OUTLINES_TOP
100
AcDbPolyline
 90
        4
 70
         1
 43
0.1
 10
8.5
 20
144.0
 10
8.5
 20
145.3
 10
11.4
 20
145.3
 10
11.4
 20
144.0
  0
LWPOLYLINE
  5
140
100
AcDbEntity
  8
ASSEMBLY_OUTLINES_TOP
100
AcDbPolyline
 90
        4
 70
         1
 43
0.1
 10
78.65
 20
156.55
 10
78.65
 20
159.35
 10
79.95
 20
159.35
 10
79.95
 20
156.55
  0
LWPOLYLINE
  5
141
100
AcDbEntity
  8
ASSEMBLY_OUTLINES_TOP
100
AcDbPolyline
 90
        8
 70
         1
 43
0.1
 10
41.4
 20
96.05
 10
41.4
 20
99.35
 42
0.4142135624
 10
40.4
 20
100.35
 10
37.2
 20
100.35
 42
0.4142135624
 10
36.2
 20
99.35
 10
36.2
 20
96.05
 42
0.4142135624
 10
37.2
 20
95.05
 10
40.4
 20
95.05
 42
0.4142135624
  0
LWPOLYLINE
  5
142
100
AcDbEntity
  8
ASSEMBLY_OUTLINES_TOP
100
AcDbPolyline
 90
        4
 70
         1
 43
0.1
 10
76.1
 20
127.05
 10
76.1
 20
128.35
 10
78.9
 20
128.35
 10
78.9
 20
127.05
  0
LWPOLYLINE
  5
143
100
AcDbEntity
  8
ASSEMBLY_OUTLINES_TOP
100
AcDbPolyline
 90
        4
 70
         1
 43
0.1
 10
59.75
 20
134.55
 10
59.75
 20
135.85
 10
62.65
 20
135.85
 10
62.65
 20
134.55
  0
LWPOLYLINE
  5
144
100
AcDbEntity
  8
ASSEMBLY_OUTLINES_TOP
100
AcDbPolyline
 90
        4
 70
         1
 43
0.1
 10
89.6
 20
149.7
 10
89.6
 20
153.0
 10
91.4
 20
153.0
 10
91.4
 20
149.7
  0
LWPOLYLINE
  5
145
100
AcDbEntity
  8
ASSEMBLY_OUTLINES_TOP
100
AcDbPolyline
 90
        4
 70
         1
 43
0.1
 10
21.65
 20
136.9
 10
21.65
 20
139.7
 10
22.95
 20
139.7
 10
22.95
 20
136.9
  0
LWPOLYLINE
  5
146
100
AcDbEntity
  8
ASSEMBLY_OUTLINES_TOP
100
AcDbPolyline
 90
        4
 70
         1
 43
0.1
 10
60.95
 20
156.75
 10
60.95
 20
159.55
 10
62.25
 20
159.55
 10
62.25
 20
156.75
  0
LWPOLYLINE
  5
147
100
AcDbEntity
  8
ASSEMBLY_OUTLINES_TOP
100
AcDbPolyline
 90
        4
 70
         1
 43
0.1
 10
38.25
 20
149.55
 10
38.25
 20
152.35
 10
39.55
 20
152.35
 10
39.55
 20
149.55
  0
LWPOLYLINE
  5
148
100
AcDbEntity
  8
ASSEMBLY_OUTLINES_TOP
100
AcDbPolyline
 90
        4
 70
         1
 43
0.1
 10
6.2
 20
154.7
 10
6.2
 20
156.5
 10
9.5
 20
156.5
 10
9.5
 20
154.7
  0
LWPOLYLINE
  5
149
100
AcDbEntity
  8
ASSEMBLY_OUTLINES_TOP
100
AcDbPolyline
 90
        4
 70
         1
 43
0.1
 10
41.85
 20
107.75
 10
41.85
 20
110.55
 10
43.15
 20
110.55
 10
43.15
 20
107.75
  0
LWPOLYLINE
  5
14A
100
AcDbEntity
  8
ASSEMBLY_OUTLINES_TOP
100
AcDbPolyline
 90
        4
 70
         1
 43
0.1
 10
47.95
 20
150.1
 10
47.95
 20
152.9
 10
49.25
 20
152.9
 10
49.25
 20
150.1
  0
LWPOLYLINE
  5
14B
100
AcDbEntity
  8
ASSEMBLY_OUTLINES_TOP
100
AcDbPolyline
 90
        4
 70
         1
 43
0.1
 10
13.8
 20
150.95
 10
13.8
 20
152.25
 10
16.6
 20
152.25
 10
16.6
 20
150.95
  0
LWPOLYLINE
  5
14C
100
AcDbEntity
  8
ASSEMBLY_OUTLINES_TOP
100
AcDbPolyline
 90
        4
 70
         1
 43
0.1
 10
-0.95
 20
140.0
 10
-0.95
 20
142.8
 10
0.35
 20
142.8
 10
0.35
 20
140.0
  0
LWPOLYLINE
  5
14D
100
AcDbEntity
  8
ASSEMBLY_OUTLINES_TOP
100
AcDbPolyline
 90
        4
 70
         1
 43
0.1
 10
37.275
 20
128.85
 10
37.275
 20
130.15
 10
40.175
 20
130.15
 10
40.175
 20
128.85
  0
LWPOLYLINE
  5
14E
100
AcDbEntity
  8
ASSEMBLY_OUTLINES_TOP
100
AcDbPolyline
 90
        4
 70
         1
 43
0.1
 10
9.45
 20
151.65
 10
9.45
 20
154.55
 10
10.75
 20
154.55
 10
10.75
 20
151.65
  0
LWPOLYLINE
  5
14F
100
AcDbEntity
  8
ASSEMBLY_OUTLINES_TOP
100
AcDbPolyline
 90
        4
 70
         1
 43
0.1
 10
81.05
 20
81.55
 10
81.05
 20
82.95
 10
84.05
 20
82.95
 10
84.05
 20
81.55
  0
LWPOLYLINE
  5
150
100
AcDbEntity
  8
ASSEMBLY_OUTLINES_TOP
100
AcDbPolyline
 90
        2
 70
         0
 43
0.1
 10
83.95
 20
82.95
 10
84.05
 20
82.85
  0
LWPOLYLINE
  5
151
100
AcDbEntity
  8
ASSEMBLY_OUTLINES_TOP
100
AcDbPolyline
 90
        2
 70
         0
 43
0.1
 10
83.85
 20
82.95
 10
84.05
 20
82.75
  0
LWPOLYLINE
  5
152
100
AcDbEntity
  8
ASSEMBLY_OUTLINES_TOP
100
AcDbPolyline
 90
        2
 70
         0
 43
0.1
 10
83.75
 20
82.95
 10
84.05
 20
82.65
  0
LWPOLYLINE
  5
153
100
AcDbEntity
  8
ASSEMBLY_OUTLINES_TOP
100
AcDbPolyline
 90
        2
 70
         0
 43
0.1
 10
83.65
 20
82.95
 10
84.05
 20
82.55
  0
LWPOLYLINE
  5
154
100
AcDbEntity
  8
ASSEMBLY_OUTLINES_TOP
100
AcDbPolyline
 90
        2
 70
         0
 43
0.1
 10
83.55
 20
82.95
 10
84.05
 20
82.45
  0
LWPOLYLINE
  5
155
100
AcDbEntity
  8
ASSEMBLY_OUTLINES_TOP
100
AcDbPolyline
 90
        2
 70
         0
 43
0.1
 10
83.45
 20
82.95
 10
84.05
 20
82.35
  0
LWPOLYLINE
  5
156
100
AcDbEntity
  8
ASSEMBLY_OUTLINES_TOP
100
AcDbPolyline
 90
        4
 70
         1
 43
0.1
 10
1.15
 20
112.95
 10
1.15
 20
115.85
 10
2.45
 20
115.85
 10
2.45
 20
112.95
  0
LWPOLYLINE
  5
157
100
AcDbEntity
  8
ASSEMBLY_OUTLINES_TOP
100
AcDbPolyline
 90
        4
 70
         1
 43
0.1
 10
40.3
 20
133.5
 10
40.3
 20
136.8
 10
42.1
 20
136.8
 10
42.1
 20
133.5
  0
LWPOLYLINE
  5
158
100
AcDbEntity
  8
ASSEMBLY_OUTLINES_TOP
100
AcDbPolyline
 90
        4
 70
         1
 43
0.1
 10
79.6
 20
120.75
 10
79.6
 20
122.05
 10
82.5
 20
122.05
 10
82.5
 20
120.75
  0
LWPOLYLINE
  5
159
100
AcDbEntity
  8
ASSEMBLY_OUTLINES_TOP
100
AcDbPolyline
 90
        4
 70
         1
 43
0.1
 10
66.25
 20
144.55
 10
66.25
 20
145.85
 10
69.05
 20
145.85
 10
69.05
 20
144.55
  0
LWPOLYLINE
  5
15A
100
AcDbEntity
  8
ASSEMBLY_OUTLINES_TOP
100
AcDbPolyline
 90
        4
 70
         1
 43
0.1
 10
8.3
 20
107.85
 10
8.3
 20
109.15
 10
11.2
 20
109.15
 10
11.2
 20
107.85
  0
LWPOLYLINE
  5
15B
100
AcDbEntity
  8
ASSEMBLY_OUTLINES_TOP
100
AcDbPolyline
 90
        4
 70
         1
 43
0.1
 10
74.9
 20
132.65
 10
74.9
 20
135.45
 10
76.2
 20
135.45
 10
76.2
 20
132.65
  0
LWPOLYLINE
  5
15C
100
AcDbEntity
  8
ASSEMBLY_OUTLINES_TOP
100
AcDbPolyline
 90
        4
 70
         1
 43
0.1
 10
5.15
 20
91.3
 10
5.15
 20
94.5
 10
6.75
 20
94.5
 10
6.75
 20
91.3
  0
LWPOLYLINE
  5
15D
100
AcDbEntity
  8
ASSEMBLY_OUTLINES_TOP
100
AcDbPolyline
 90
        4
 70
         1
 43
0.1
 10
49.4
 20
150.1
 10
49.4
 20
153.4
 10
51.2
 20
153.4
 10
51.2
 20
150.1
  0
LWPOLYLINE
  5
15E
100
AcDbEntity
  8
ASSEMBLY_OUTLINES_TOP
100
AcDbPolyline
 90
        4
 70
         1
 43
0.1
 10
72.85
 20
97.45
 10
72.85
 20
98.75
 10
75.75
 20
98.75
 10
75.75
 20
97.45
  0
LWPOLYLINE
  5
15F
100
AcDbEntity
  8
ASSEMBLY_OUTLINES_TOP
100
AcDbPolyline
 90
        4
 70
         1
 43
0.1
 10
99.1
 20
73.83
 10
99.1
 20
95.43
 10
115.1
 20
95.43
 10
115.1
 20
73.83
  0
LWPOLYLINE
  5
160
100
AcDbEntity
  8
ASSEMBLY_OUTLINES_TOP
100
AcDbPolyline
 90
        2
 70
         0
 43
0.1
 10
99.1
 20
73.85
 10
98.1
 20
79.75
  0
LWPOLYLINE
  5
161
100
AcDbEntity
  8
ASSEMBLY_OUTLINES_TOP
100
AcDbPolyline
 90
        2
 70
         0
 43
0.1
 10
115.1
 20
73.85
 10
116.1
 20
79.75
  0
LWPOLYLINE
  5
162
100
AcDbEntity
  8
ASSEMBLY_OUTLINES_TOP
100
AcDbPolyline
 90
        4
 70
         1
 43
0.1
 10
51.7
 20
94.35
 10
51.7
 20
95.75
 10
54.7
 20
95.75
 10
54.7
 20
94.35
  0
LWPOLYLINE
  5
163
100
AcDbEntity
  8
ASSEMBLY_OUTLINES_TOP
100
AcDbPolyline
 90
        2
 70
         0
 43
0.1
 10
54.6
 20
95.75
 10
54.7
 20
95.65
  0
LWPOLYLINE
  5
164
100
AcDbEntity
  8
ASSEMBLY_OUTLINES_TOP
100
AcDbPolyline
 90
        2
 70
         0
 43
0.1
 10
54.5
 20
95.75
 10
54.7
 20
95.55
  0
LWPOLYLINE
  5
165
100
AcDbEntity
  8
ASSEMBLY_OUTLINES_TOP
100
AcDbPolyline
 90
        2
 70
         0
 43
0.1
 10
54.4
 20
95.75
 10
54.7
 20
95.45
  0
LWPOLYLINE
  5
166
100
AcDbEntity
  8
ASSEMBLY_OUTLINES_TOP
100
AcDbPolyline
 90
        2
 70
         0
 43
0.1
 10
54.3
 20
95.75
 10
54.7
 20
95.35
  0
LWPOLYLINE
  5
167
100
AcDbEntity
  8
ASSEMBLY_OUTLINES_TOP
100
AcDbPolyline
 90
        2
 70
         0
 43
0.1
 10
54.2
 20
95.75
 10
54.7
 20
95.25
  0
LWPOLYLINE
  5
168
100
AcDbEntity
  8
ASSEMBLY_OUTLINES_TOP
100
AcDbPolyline
 90
        2
 70
         0
 43
0.1
 10
54.1
 20
95.75
 10
54.7
 20
95.15
  0
LWPOLYLINE
  5
169
100
AcDbEntity
  8
ASSEMBLY_OUTLINES_TOP
100
AcDbPolyline
 90
        4
 70
         1
 43
0.1
 10
38.1
 20
104.15
 10
38.1
 20
105.45
 10
40.9
 20
105.45
 10
40.9
 20
104.15
  0
LWPOLYLINE
  5
16A
100
AcDbEntity
  8
ASSEMBLY_OUTLINES_TOP
100
AcDbPolyline
 90
        4
 70
         1
 43
0.1
 10
36.8
 20
143.75
 10
36.8
 20
145.05
 10
39.7
 20
145.05
 10
39.7
 20
143.75
  0
LWPOLYLINE
  5
16B
100
AcDbEntity
  8
ASSEMBLY_OUTLINES_TOP
100
AcDbPolyline
 90
        4
 70
         1
 43
0.1
 10
9.25
 20
99.45
 10
9.25
 20
101.05
 10
12.45
 20
101.05
 10
12.45
 20
99.45
  0
LWPOLYLINE
  5
16C
100
AcDbEntity
  8
ASSEMBLY_OUTLINES_TOP
100
AcDbPolyline
 90
        4
 70
         1
 43
0.1
 10
8.3
 20
135.2
 10
8.3
 20
138.5
 10
10.1
 20
138.5
 10
10.1
 20
135.2
  0
LWPOLYLINE
  5
16D
100
AcDbEntity
  8
ASSEMBLY_OUTLINES_TOP
100
AcDbPolyline
 90
        4
 70
         1
 43
0.1
 10
10.3
 20
159.75
 10
10.3
 20
162.65
 10
11.6
 20
162.65
 10
11.6
 20
159.75
  0
LWPOLYLINE
  5
16E
100
AcDbEntity
  8
ASSEMBLY_OUTLINES_TOP
100
AcDbPolyline
 90
        4
 70
         1
 43
0.1
 10
11.7
 20
140.15
 10
11.7
 20
141.45
 10
14.5
 20
141.45
 10
14.5
 20
140.15
  0
LWPOLYLINE
  5
16F
100
AcDbEntity
  8
ASSEMBLY_OUTLINES_TOP
100
AcDbPolyline
 90
        4
 70
         1
 43
0.1
 10
83.0
 20
159.65
 10
83.0
 20
160.95
 10
85.9
 20
160.95
 10
85.9
 20
159.65
  0
LWPOLYLINE
  5
170
100
AcDbEntity
  8
ASSEMBLY_OUTLINES_TOP
100
AcDbPolyline
 90
        4
 70
         1
 43
0.1
 10
12.85
 20
145.1
 10
12.85
 20
149.1
 10
17.85
 20
149.1
 10
17.85
 20
145.1
  0
LWPOLYLINE
  5
171
100
AcDbEntity
  8
ASSEMBLY_OUTLINES_TOP
100
AcDbPolyline
 90
        2
 70
         1
 43
0.1
 10
13.35
 20
146.1
 42
-1.0
 10
14.35
 20
146.1
 42
-1.0
  0
LWPOLYLINE
  5
172
100
AcDbEntity
  8
ASSEMBLY_OUTLINES_TOP
100
AcDbPolyline
 90
        4
 70
         1
 43
0.1
 10
79.6
 20
122.1
 10
79.6
 20
123.4
 10
82.5
 20
123.4
 10
82.5
 20
122.1
  0
LWPOLYLINE
  5
173
100
AcDbEntity
  8
ASSEMBLY_OUTLINES_TOP
100
AcDbPolyline
 90
        4
 70
         1
 43
0.1
 10
83.85
 20
92.95
 10
83.85
 20
95.75
 10
85.15
 20
95.75
 10
85.15
 20
92.95
  0
LWPOLYLINE
  5
174
100
AcDbEntity
  8
ASSEMBLY_OUTLINES_TOP
100
AcDbPolyline
 90
        4
 70
         1
 43
0.1
 10
76.1
 20
125.65
 10
76.1
 20
126.95
 10
78.9
 20
126.95
 10
78.9
 20
125.65
  0
LWPOLYLINE
  5
175
100
AcDbEntity
  8
ASSEMBLY_OUTLINES_TOP
100
AcDbPolyline
 90
        4
 70
         1
 43
0.1
 10
59.75
 20
135.95
 10
59.75
 20
137.25
 10
62.65
 20
137.25
 10
62.65
 20
135.95
  0
LWPOLYLINE
  5
176
100
AcDbEntity
  8
ASSEMBLY_OUTLINES_TOP
100
AcDbPolyline
 90
        4
 70
         1
 43
0.1
 10
42.45
 20
97.3
 10
42.45
 20
99.1
 10
45.75
 20
99.1
 10
45.75
 20
97.3
  0
LWPOLYLINE
  5
177
100
AcDbEntity
  8
ASSEMBLY_OUTLINES_TOP
100
AcDbPolyline
 90
        4
 70
         1
 43
0.1
 10
0.75
 20
95.8
 10
0.75
 20
98.7
 10
2.05
 20
98.7
 10
2.05
 20
95.8
  0
LWPOLYLINE
  5
178
100
AcDbEntity
  8
ASSEMBLY_OUTLINES_TOP
100
AcDbPolyline
 90
        4
 70
         1
 43
0.1
 10
0.5
 20
136.15
 10
0.5
 20
137.45
 10
3.3
 20
137.45
 10
3.3
 20
136.15
  0
LWPOLYLINE
  5
179
100
AcDbEntity
  8
ASSEMBLY_OUTLINES_TOP
100
AcDbPolyline
 90
        4
 70
         1
 43
0.1
 10
78.15
 20
112.65
 10
78.15
 20
115.95
 10
79.95
 20
115.95
 10
79.95
 20
112.65
  0
LWPOLYLINE
  5
17A
100
AcDbEntity
  8
ASSEMBLY_OUTLINES_TOP
100
AcDbPolyline
 90
        4
 70
         1
 43
0.1
 10
21.85
 20
143.8
 10
21.85
 20
145.1
 10
24.65
 20
145.1
 10
24.65
 20
143.8
  0
LWPOLYLINE
  5
17B
100
AcDbEntity
  8
ASSEMBLY_OUTLINES_TOP
100
AcDbPolyline
 90
        4
 70
         1
 43
0.1
 10
81.25
 20
84.25
 10
81.25
 20
85.55
 10
84.15
 20
85.55
 10
84.15
 20
84.25
  0
LWPOLYLINE
  5
17C
100
AcDbEntity
  8
ASSEMBLY_OUTLINES_TOP
100
AcDbPolyline
 90
        4
 70
         1
 43
0.1
 10
60.95
 20
146.4
 10
60.95
 20
149.2
 10
62.25
 20
149.2
 10
62.25
 20
146.4
  0
LWPOLYLINE
  5
17D
100
AcDbEntity
  8
ASSEMBLY_OUTLINES_TOP
100
AcDbPolyline
 90
        4
 70
         1
 43
0.1
 10
78.0
 20
99.7
 10
78.0
 20
102.5
 10
79.3
 20
102.5
 10
79.3
 20
99.7
  0
LWPOLYLINE
  5
17E
100
AcDbEntity
  8
ASSEMBLY_OUTLINES_TOP
100
AcDbPolyline
 90
        4
 70
         1
 10
48.119276
 20
73.088179
 10
48.119276
 20
90.688179
 10
61.619276
 20
90.688179
 10
61.619276
 20
73.088179
  0
LWPOLYLINE
  5
17F
100
AcDbEntity
  8
ASSEMBLY_OUTLINES_TOP
100
AcDbPolyline
 90
        4
 70
         1
 43
0.1
 10
78.65
 20
149.95
 10
78.65
 20
152.75
 10
79.95
 20
152.75
 10
79.95
 20
149.95
  0
LWPOLYLINE
  5
180
100
AcDbEntity
  8
ASSEMBLY_OUTLINES_TOP
100
AcDbPolyline
 90
        4
 70
         1
 43
0.1
 10
62.2
 20
159.7
 10
62.2
 20
161.3
 10
65.4
 20
161.3
 10
65.4
 20
159.7
  0
LWPOLYLINE
  5
181
100
AcDbEntity
  8
ASSEMBLY_OUTLINES_TOP
100
AcDbPolyline
 90
        4
 70
         1
 43
0.1
 10
35.0
 20
102.4
 10
35.0
 20
103.7
 10
37.9
 20
103.7
 10
37.9
 20
102.4
  0
LWPOLYLINE
  5
182
100
AcDbEntity
  8
ASSEMBLY_OUTLINES_TOP
100
AcDbPolyline
 90
        4
 70
         1
 43
0.1
 10
44.275
 20
128.6
 10
44.275
 20
130.2
 10
47.475
 20
130.2
 10
47.475
 20
128.6
  0
LWPOLYLINE
  5
183
100
AcDbEntity
  8
ASSEMBLY_OUTLINES_TOP
100
AcDbPolyline
 90
        4
 70
         1
 43
0.1
 10
38.25
 20
153.5
 10
38.25
 20
156.3
 10
39.55
 20
156.3
 10
39.55
 20
153.5
  0
LWPOLYLINE
  5
184
100
AcDbEntity
  8
ASSEMBLY_OUTLINES_TOP
100
AcDbPolyline
 90
        4
 70
         1
 43
0.1
 10
51.75
 20
97.0
 10
51.75
 20
98.3
 10
54.65
 20
98.3
 10
54.65
 20
97.0
  0
LWPOLYLINE
  5
185
100
AcDbEntity
  8
ASSEMBLY_OUTLINES_TOP
100
AcDbPolyline
 90
        4
 70
         1
 43
0.1
 10
30.35
 20
92.5
 10
30.35
 20
93.8
 10
33.25
 20
93.8
 10
33.25
 20
92.5
  0
LWPOLYLINE
  5
186
100
AcDbEntity
  8
ASSEMBLY_OUTLINES_TOP
100
AcDbPolyline
 90
        4
 70
         1
 43
0.1
 10
83.85
 20
96.35
 10
83.85
 20
99.15
 10
85.15
 20
99.15
 10
85.15
 20
96.35
  0
LWPOLYLINE
  5
187
100
AcDbEntity
  8
ASSEMBLY_OUTLINES_TOP
100
AcDbPolyline
 90
        4
 70
         1
 43
0.1
 10
2.8
 20
99.75
 10
2.8
 20
102.65
 10
4.1
 20
102.65
 10
4.1
 20
99.75
  0
LWPOLYLINE
  5
188
100
AcDbEntity
  8
ASSEMBLY_OUTLINES_TOP
100
AcDbPolyline
 90
        8
 70
         1
 10
86.375
 20
74.875
 10
86.375
 20
75.875
 10
84.775
 20
75.875
 10
84.775
 20
83.875
 10
95.675
 20
83.875
 10
95.675
 20
75.875
 10
94.125
 20
75.875
 10
94.125
 20
74.875
  0
LWPOLYLINE
  5
189
100
AcDbEntity
  8
ASSEMBLY_OUTLINES_TOP
100
AcDbPolyline
 90
        4
 70
         1
 43
0.1
 10
3.15
 20
98.15
 10
3.15
 20
99.45
 10
6.05
 20
99.45
 10
6.05
 20
98.15
  0
LWPOLYLINE
  5
18A
100
AcDbEntity
  8
ASSEMBLY_OUTLINES_TOP
100
AcDbPolyline
 90
        4
 70
         1
 43
0.1
 10
51.55
 20
103.85
 10
51.55
 20
106.75
 10
52.85
 20
106.75
 10
52.85
 20
103.85
  0
LWPOLYLINE
  5
18B
100
AcDbEntity
  8
ASSEMBLY_OUTLINES_TOP
100
AcDbPolyline
 90
        4
 70
         1
 43
0.1
 10
67.45
 20
108.85
 10
67.45
 20
112.15
 10
69.25
 20
112.15
 10
69.25
 20
108.85
  0
LWPOLYLINE
  5
18C
100
AcDbEntity
  8
ASSEMBLY_OUTLINES_TOP
100
AcDbPolyline
 90
        4
 70
         1
 43
0.1
 10
8.3
 20
106.5
 10
8.3
 20
107.8
 10
11.2
 20
107.8
 10
11.2
 20
106.5
  0
LWPOLYLINE
  5
18D
100
AcDbEntity
  8
ASSEMBLY_OUTLINES_TOP
100
AcDbPolyline
 90
        4
 70
         1
 43
0.1
 10
51.35
 20
150.1
 10
51.35
 20
152.9
 10
52.65
 20
152.9
 10
52.65
 20
150.1
  0
LWPOLYLINE
  5
18E
100
AcDbEntity
  8
ASSEMBLY_OUTLINES_TOP
100
AcDbPolyline
 90
        4
 70
         1
 43
0.1
 10
66.15
 20
109.25
 10
66.15
 20
112.05
 10
67.45
 20
112.05
 10
67.45
 20
109.25
  0
LWPOLYLINE
  5
18F
100
AcDbEntity
  8
ASSEMBLY_OUTLINES_TOP
100
AcDbPolyline
 90
        4
 70
         1
 43
0.1
 10
53.65
 20
113.05
 10
53.65
 20
134.05
 10
74.65
 20
134.05
 10
74.65
 20
113.05
  0
LWPOLYLINE
  5
190
100
AcDbEntity
  8
ASSEMBLY_OUTLINES_TOP
100
AcDbPolyline
 90
        2
 70
         0
 43
0.1
 10
74.55
 20
113.05
 10
74.65
 20
113.15
  0
LWPOLYLINE
  5
191
100
AcDbEntity
  8
ASSEMBLY_OUTLINES_TOP
100
AcDbPolyline
 90
        2
 70
         0
 43
0.1
 10
74.45
 20
113.05
 10
74.65
 20
113.25
  0
LWPOLYLINE
  5
192
100
AcDbEntity
  8
ASSEMBLY_OUTLINES_TOP
100
AcDbPolyline
 90
        2
 70
         0
 43
0.1
 10
74.35
 20
113.05
 10
74.65
 20
113.35
  0
LWPOLYLINE
  5
193
100
AcDbEntity
  8
ASSEMBLY_OUTLINES_TOP
100
AcDbPolyline
 90
        2
 70
         0
 43
0.1
 10
74.25
 20
113.05
 10
74.65
 20
113.45
  0
LWPOLYLINE
  5
194
100
AcDbEntity
  8
ASSEMBLY_OUTLINES_TOP
100
AcDbPolyline
 90
        2
 70
         0
 43
0.1
 10
74.15
 20
113.05
 10
74.65
 20
113.55
  0
LWPOLYLINE
  5
195
100
AcDbEntity
  8
ASSEMBLY_OUTLINES_TOP
100
AcDbPolyline
 90
        2
 70
         0
 43
0.1
 10
74.05
 20
113.05
 10
74.65
 20
113.65
  0
LWPOLYLINE
  5
196
100
AcDbEntity
  8
ASSEMBLY_OUTLINES_TOP
100
AcDbPolyline
 90
        2
 70
         0
 43
0.1
 10
73.95
 20
113.05
 10
74.65
 20
113.75
  0
LWPOLYLINE
  5
197
100
AcDbEntity
  8
ASSEMBLY_OUTLINES_TOP
100
AcDbPolyline
 90
        2
 70
         0
 43
0.1
 10
73.85
 20
113.05
 10
74.65
 20
113.85
  0
LWPOLYLINE
  5
198
100
AcDbEntity
  8
ASSEMBLY_OUTLINES_TOP
100
AcDbPolyline
 90
        2
 70
         0
 43
0.1
 10
73.75
 20
113.05
 10
74.65
 20
113.95
  0
LWPOLYLINE
  5
199
100
AcDbEntity
  8
ASSEMBLY_OUTLINES_TOP
100
AcDbPolyline
 90
        2
 70
         0
 43
0.1
 10
73.65
 20
113.05
 10
74.65
 20
114.05
  0
LWPOLYLINE
  5
19A
100
AcDbEntity
  8
ASSEMBLY_OUTLINES_TOP
100
AcDbPolyline
 90
        4
 70
         1
 43
0.1
 10
83.199999
 20
123.35
 10
83.199999
 20
124.95
 10
86.399999
 20
124.95
 10
86.399999
 20
123.35
  0
LWPOLYLINE
  5
19B
100
AcDbEntity
  8
ASSEMBLY_OUTLINES_TOP
100
AcDbPolyline
 90
        4
 70
         1
 43
0.1
 10
36.15
 20
104.0
 10
36.15
 20
106.9
 10
37.45
 20
106.9
 10
37.45
 20
104.0
  0
LWPOLYLINE
  5
19C
100
AcDbEntity
  8
ASSEMBLY_OUTLINES_TOP
100
AcDbPolyline
 90
        4
 70
         1
 43
0.1
 10
21.75
 20
140.45
 10
21.75
 20
143.35
 10
23.05
 20
143.35
 10
23.05
 20
140.45
  0
LWPOLYLINE
  5
19D
100
AcDbEntity
  8
ASSEMBLY_OUTLINES_TOP
100
AcDbPolyline
 90
        4
 70
         1
 43
0.1
 10
46.0
 20
98.0
 10
46.0
 20
99.3
 10
48.8
 20
99.3
 10
48.8
 20
98.0
  0
LWPOLYLINE
  5
19E
100
AcDbEntity
  8
ASSEMBLY_OUTLINES_TOP
100
AcDbPolyline
 90
        4
 70
         1
 43
0.1
 10
73.3
 20
139.05
 10
73.3
 20
140.65
 10
76.5
 20
140.65
 10
76.5
 20
139.05
  0
LWPOLYLINE
  5
19F
100
AcDbEntity
  8
ASSEMBLY_OUTLINES_TOP
100
AcDbPolyline
 90
        4
 70
         1
 43
0.1
 10
87.7
 20
106.05
 10
87.7
 20
107.35
 10
90.6
 20
107.35
 10
90.6
 20
106.05
  0
LWPOLYLINE
  5
1A0
100
AcDbEntity
  8
ASSEMBLY_OUTLINES_TOP
100
AcDbPolyline
 90
        4
 70
         1
 43
0.1
 10
87.05
 20
121.3
 10
87.05
 20
122.6
 10
89.95
 20
122.6
 10
89.95
 20
121.3
  0
LWPOLYLINE
  5
1A1
100
AcDbEntity
  8
ASSEMBLY_OUTLINES_TOP
100
AcDbPolyline
 90
        4
 70
         1
 43
0.1
 10
32.25
 20
159.9
 10
32.25
 20
161.2
 10
35.15
 20
161.2
 10
35.15
 20
159.9
  0
LWPOLYLINE
  5
1A2
100
AcDbEntity
  8
ASSEMBLY_OUTLINES_TOP
100
AcDbPolyline
 90
        4
 70
         1
 43
0.1
 10
88.15
 20
146.05
 10
88.15
 20
148.85
 10
89.45
 20
148.85
 10
89.45
 20
146.05
  0
LWPOLYLINE
  5
1A3
100
AcDbEntity
  8
ASSEMBLY_OUTLINES_TOP
100
AcDbPolyline
 90
        4
 70
         1
 43
0.1
 10
38.25
 20
156.45
 10
38.25
 20
159.25
 10
39.55
 20
159.25
 10
39.55
 20
156.45
  0
LWPOLYLINE
  5
1A4
100
AcDbEntity
  8
ASSEMBLY_OUTLINES_TOP
100
AcDbPolyline
 90
        4
 70
         1
 43
0.1
 10
15.0
 20
140.15
 10
15.0
 20
141.45
 10
17.8
 20
141.45
 10
17.8
 20
140.15
  0
LWPOLYLINE
  5
1A5
100
AcDbEntity
  8
ASSEMBLY_OUTLINES_TOP
100
AcDbPolyline
 90
        4
 70
         1
 43
0.1
 10
71.5
 20
95.6
 10
71.5
 20
96.9
 10
74.4
 20
96.9
 10
74.4
 20
95.6
  0
LWPOLYLINE
  5
1A6
100
AcDbEntity
  8
ASSEMBLY_OUTLINES_TOP
100
AcDbPolyline
 90
        4
 70
         1
 43
0.1
 10
12.7
 20
153.9
 10
12.7
 20
157.9
 10
17.7
 20
157.9
 10
17.7
 20
153.9
  0
LWPOLYLINE
  5
1A7
100
AcDbEntity
  8
ASSEMBLY_OUTLINES_TOP
100
AcDbPolyline
 90
        2
 70
         1
 43
0.1
 10
13.2
 20
154.9
 42
-1.0
 10
14.2
 20
154.9
 42
-1.0
  0
LWPOLYLINE
  5
1A8
100
AcDbEntity
  8
ASSEMBLY_OUTLINES_TOP
100
AcDbPolyline
 90
        4
 70
         1
 43
0.1
 10
8.8
 20
159.75
 10
8.8
 20
162.65
 10
10.1
 20
162.65
 10
10.1
 20
159.75
  0
LWPOLYLINE
  5
1A9
100
AcDbEntity
  8
ASSEMBLY_OUTLINES_TOP
100
AcDbPolyline
 90
        4
 70
         1
 43
0.1
 10
65.65
 20
150.0
 10
65.65
 20
152.8
 10
66.95
 20
152.8
 10
66.95
 20
150.0
  0
LWPOLYLINE
  5
1AA
100
AcDbEntity
  8
ASSEMBLY_OUTLINES_TOP
100
AcDbPolyline
 90
        4
 70
         1
 43
0.1
 10
57.1
 20
94.9
 10
57.1
 20
96.2
 10
60.0
 20
96.2
 10
60.0
 20
94.9
  0
LWPOLYLINE
  5
1AB
100
AcDbEntity
  8
ASSEMBLY_OUTLINES_TOP
100
AcDbPolyline
 90
        4
 70
         1
 43
0.1
 10
63.15
 20
89.35
 10
63.15
 20
90.65
 10
66.05
 20
90.65
 10
66.05
 20
89.35
  0
LWPOLYLINE
  5
1AC
100
AcDbEntity
  8
ASSEMBLY_OUTLINES_TOP
100
AcDbPolyline
 90
        4
 70
         1
 43
0.1
 10
67.35
 20
146.05
 10
67.35
 20
159.35
 10
74.85
 20
159.35
 10
74.85
 20
146.05
  0
LWPOLYLINE
  5
1AD
100
AcDbEntity
  8
ASSEMBLY_OUTLINES_TOP
100
AcDbPolyline
 90
        2
 70
         0
 43
0.1
 10
74.75
 20
146.05
 10
74.85
 20
146.15
  0
LWPOLYLINE
  5
1AE
100
AcDbEntity
  8
ASSEMBLY_OUTLINES_TOP
100
AcDbPolyline
 90
        2
 70
         0
 43
0.1
 10
74.65
 20
146.05
 10
74.85
 20
146.25
  0
LWPOLYLINE
  5
1AF
100
AcDbEntity
  8
ASSEMBLY_OUTLINES_TOP
100
AcDbPolyline
 90
        2
 70
         0
 43
0.1
 10
74.55
 20
146.05
 10
74.85
 20
146.35
  0
LWPOLYLINE
  5
1B0
100
AcDbEntity
  8
ASSEMBLY_OUTLINES_TOP
100
AcDbPolyline
 90
        2
 70
         0
 43
0.1
 10
74.45
 20
146.05
 10
74.85
 20
146.45
  0
LWPOLYLINE
  5
1B1
100
AcDbEntity
  8
ASSEMBLY_OUTLINES_TOP
100
AcDbPolyline
 90
        2
 70
         0
 43
0.1
 10
74.35
 20
146.05
 10
74.85
 20
146.55
  0
LWPOLYLINE
  5
1B2
100
AcDbEntity
  8
ASSEMBLY_OUTLINES_TOP
100
AcDbPolyline
 90
        2
 70
         0
 43
0.1
 10
74.25
 20
146.05
 10
74.85
 20
146.65
  0
LWPOLYLINE
  5
1B3
100
AcDbEntity
  8
ASSEMBLY_OUTLINES_TOP
100
AcDbPolyline
 90
        2
 70
         0
 43
0.1
 10
74.15
 20
146.05
 10
74.85
 20
146.75
  0
LWPOLYLINE
  5
1B4
100
AcDbEntity
  8
ASSEMBLY_OUTLINES_TOP
100
AcDbPolyline
 90
        2
 70
         0
 43
0.1
 10
74.05
 20
146.05
 10
74.85
 20
146.85
  0
LWPOLYLINE
  5
1B5
100
AcDbEntity
  8
ASSEMBLY_OUTLINES_TOP
100
AcDbPolyline
 90
        2
 70
         0
 43
0.1
 10
73.95
 20
146.05
 10
74.85
 20
146.95
  0
LWPOLYLINE
  5
1B6
100
AcDbEntity
  8
ASSEMBLY_OUTLINES_TOP
100
AcDbPolyline
 90
        2
 70
         0
 43
0.1
 10
73.85
 20
146.05
 10
74.85
 20
147.05
  0
LWPOLYLINE
  5
1B7
100
AcDbEntity
  8
ASSEMBLY_OUTLINES_TOP
100
AcDbPolyline
 90
        8
 70
         1
 43
0.1
 10
31.9
 20
150.35
 10
35.2
 20
150.35
 42
0.4142135624
 10
36.2
 20
151.35
 10
36.2
 20
154.55
 42
0.4142135624
 10
35.2
 20
155.55
 10
31.9
 20
155.55
 42
0.4142135624
 10
30.9
 20
154.55
 10
30.9
 20
151.35
 42
0.4142135624
  0
LWPOLYLINE
  5
1B8
100
AcDbEntity
  8
ASSEMBLY_OUTLINES_TOP
100
AcDbPolyline
 90
        4
 70
         1
 43
0.1
 10
61.5
 20
110.95
 10
61.5
 20
112.25
 10
64.4
 20
112.25
 10
64.4
 20
110.95
  0
LWPOLYLINE
  5
1B9
100
AcDbEntity
  8
ASSEMBLY_OUTLINES_TOP
100
AcDbPolyline
 90
        4
 70
         1
 43
0.1
 10
97.45
 20
91.4
 10
97.45
 20
94.2
 10
98.75
 20
94.2
 10
98.75
 20
91.4
  0
LWPOLYLINE
  5
1BA
100
AcDbEntity
  8
ASSEMBLY_OUTLINES_TOP
100
AcDbPolyline
 90
        4
 70
         1
 43
0.1
 10
65.65
 20
153.35
 10
65.65
 20
156.15
 10
66.95
 20
156.15
 10
66.95
 20
153.35
  0
LWPOLYLINE
  5
1BB
100
AcDbEntity
  8
ASSEMBLY_OUTLINES_TOP
100
AcDbPolyline
 90
        4
 70
         1
 43
0.1
 10
81.7
 20
110.6
 10
81.7
 20
112.2
 10
84.9
 20
112.2
 10
84.9
 20
110.6
  0
LWPOLYLINE
  5
1BC
100
AcDbEntity
  8
ASSEMBLY_OUTLINES_TOP
100
AcDbPolyline
 90
        8
 70
         0
 10
9.25
 20
114.1
 42
-2.549150321
 10
19.45
 20
114.1
 10
21.35
 20
114.1
 10
21.35
 20
112.1
 10
7.35
 20
112.1
 10
7.35
 20
114.1
 10
9.25
 20
114.1
 10
9.15
 20
114.1
  0
LWPOLYLINE
  5
1BD
100
AcDbEntity
  8
ASSEMBLY_OUTLINES_TOP
100
AcDbPolyline
 90
        4
 70
         1
 43
0.1
 10
22.0
 20
89.05
 10
22.0
 20
90.35
 10
24.8
 20
90.35
 10
24.8
 20
89.05
  0
LWPOLYLINE
  5
1BE
100
AcDbEntity
  8
ASSEMBLY_OUTLINES_TOP
100
AcDbPolyline
 90
        4
 70
         1
 43
0.1
 10
34.6
 20
108.55
 10
34.6
 20
109.85
 10
37.5
 20
109.85
 10
37.5
 20
108.55
  0
LWPOLYLINE
  5
1BF
100
AcDbEntity
  8
ASSEMBLY_OUTLINES_TOP
100
AcDbPolyline
 90
        4
 70
         1
 43
0.1
 10
88.6
 20
110.1
 10
88.6
 20
111.4
 10
91.5
 20
111.4
 10
91.5
 20
110.1
  0
LWPOLYLINE
  5
1C0
100
AcDbEntity
  8
ASSEMBLY_OUTLINES_TOP
100
AcDbPolyline
 90
        4
 70
         1
 43
0.1
 10
65.65
 20
146.4
 10
65.65
 20
149.2
 10
66.95
 20
149.2
 10
66.95
 20
146.4
  0
LWPOLYLINE
  5
1C1
100
AcDbEntity
  8
ASSEMBLY_OUTLINES_TOP
100
AcDbPolyline
 90
        4
 70
         1
 43
0.1
 10
71.55
 20
94.2
 10
71.55
 20
95.5
 10
74.35
 20
95.5
 10
74.35
 20
94.2
  0
LWPOLYLINE
  5
1C2
100
AcDbEntity
  8
ASSEMBLY_OUTLINES_TOP
100
AcDbPolyline
 90
        4
 70
         1
 10
-9.75
 20
151.03
 10
-9.75
 20
156.11
 10
-3.75
 20
156.11
 10
-3.75
 20
151.03
  0
LWPOLYLINE
  5
1C3
100
AcDbEntity
  8
ASSEMBLY_OUTLINES_TOP
100
AcDbPolyline
 90
        4
 70
         1
 43
0.1
 10
21.65
 20
133.8
 10
21.65
 20
136.6
 10
22.95
 20
136.6
 10
22.95
 20
133.8
  0
LWPOLYLINE
  5
1C4
100
AcDbEntity
  8
ASSEMBLY_OUTLINES_TOP
100
AcDbPolyline
 90
        4
 70
         1
 43
0.1
 10
80.6
 20
89.95
 10
80.6
 20
91.75
 10
83.9
 20
91.75
 10
83.9
 20
89.95
  0
LWPOLYLINE
  5
1C5
100
AcDbEntity
  8
ASSEMBLY_OUTLINES_TOP
100
AcDbPolyline
 90
        4
 70
         1
 43
0.1
 10
5.6
 20
148.0
 10
5.6
 20
150.8
 10
6.9
 20
150.8
 10
6.9
 20
148.0
  0
LWPOLYLINE
  5
1C6
100
AcDbEntity
  8
ASSEMBLY_OUTLINES_TOP
100
AcDbPolyline
 90
        4
 70
         1
 43
0.1
 10
8.4
 20
90.05
 10
8.4
 20
93.05
 10
11.4
 20
93.05
 10
11.4
 20
90.05
  0
LWPOLYLINE
  5
1C7
100
AcDbEntity
  8
ASSEMBLY_OUTLINES_TOP
100
AcDbPolyline
 90
        2
 70
         0
 43
0.1
 10
11.3
 20
93.05
 10
11.4
 20
92.95
  0
LWPOLYLINE
  5
1C8
100
AcDbEntity
  8
ASSEMBLY_OUTLINES_TOP
100
AcDbPolyline
 90
        2
 70
         0
 43
0.1
 10
11.2
 20
93.05
 10
11.4
 20
92.85
  0
LWPOLYLINE
  5
1C9
100
AcDbEntity
  8
ASSEMBLY_OUTLINES_TOP
100
AcDbPolyline
 90
        2
 70
         0
 43
0.1
 10
11.1
 20
93.05
 10
11.4
 20
92.75
  0
LWPOLYLINE
  5
1CA
100
AcDbEntity
  8
ASSEMBLY_OUTLINES_TOP
100
AcDbPolyline
 90
        2
 70
         0
 43
0.1
 10
11.0
 20
93.05
 10
11.4
 20
92.65
  0
LWPOLYLINE
  5
1CB
100
AcDbEntity
  8
ASSEMBLY_OUTLINES_TOP
100
AcDbPolyline
 90
        2
 70
         0
 43
0.1
 10
10.9
 20
93.05
 10
11.4
 20
92.55
  0
LWPOLYLINE
  5
1CC
100
AcDbEntity
  8
ASSEMBLY_OUTLINES_TOP
100
AcDbPolyline
 90
        2
 70
         0
 43
0.1
 10
10.8
 20
93.05
 10
11.4
 20
92.45
  0
LWPOLYLINE
  5
1CD
100
AcDbEntity
  8
ASSEMBLY_OUTLINES_TOP
100
AcDbPolyline
 90
        4
 70
         1
 43
0.1
 10
94.55
 20
89.1
 10
94.55
 20
92.0
 10
95.85
 20
92.0
 10
95.85
 20
89.1
  0
LWPOLYLINE
  5
1CE
100
AcDbEntity
  8
ASSEMBLY_OUTLINES_TOP
100
AcDbPolyline
 90
        4
 70
         1
 10
18.03
 20
150.08
 10
18.03
 20
155.16
 10
20.57
 20
155.16
 10
20.57
 20
150.08
  0
LWPOLYLINE
  5
1CF
100
AcDbEntity
  8
ASSEMBLY_OUTLINES_TOP
100
AcDbPolyline
 90
        4
 70
         1
 43
0.1
 10
81.7
 20
112.55
 10
81.7
 20
114.15
 10
84.9
 20
114.15
 10
84.9
 20
112.55
  0
LWPOLYLINE
  5
1D0
100
AcDbEntity
  8
ASSEMBLY_OUTLINES_TOP
100
AcDbPolyline
 90
        4
 70
         1
 43
0.1
 10
22.05
 20
111.65
 10
22.05
 20
112.95
 10
24.85
 20
112.95
 10
24.85
 20
111.65
  0
LWPOLYLINE
  5
1D1
100
AcDbEntity
  8
ASSEMBLY_OUTLINES_TOP
100
AcDbPolyline
 90
        4
 70
         1
 43
0.1
 10
40.45
 20
132.05
 10
40.45
 20
133.35
 10
43.35
 20
133.35
 10
43.35
 20
132.05
  0
LWPOLYLINE
  5
1D2
100
AcDbEntity
  8
ASSEMBLY_OUTLINES_TOP
100
AcDbPolyline
 90
        4
 70
         1
 43
0.1
 10
31.35
 20
111.45
 10
31.35
 20
114.25
 10
32.65
 20
114.25
 10
32.65
 20
111.45
  0
LWPOLYLINE
  5
1D3
100
AcDbEntity
  8
ASSEMBLY_OUTLINES_TOP
100
AcDbPolyline
 90
        4
 70
         1
 43
0.1
 10
57.95
 20
96.4
 10
57.95
 20
97.7
 10
60.85
 20
97.7
 10
60.85
 20
96.4
  0
LWPOLYLINE
  5
1D4
100
AcDbEntity
  8
ASSEMBLY_OUTLINES_TOP
100
AcDbPolyline
 90
        4
 70
         1
 43
0.1
 10
18.2
 20
143.1
 10
18.2
 20
144.4
 10
21.1
 20
144.4
 10
21.1
 20
143.1
  0
LWPOLYLINE
  5
1D5
100
AcDbEntity
  8
ASSEMBLY_OUTLINES_TOP
100
AcDbPolyline
 90
        4
 70
         1
 43
0.1
 10
14.25
 20
99.95
 10
14.25
 20
102.85
 10
15.55
 20
102.85
 10
15.55
 20
99.95
  0
LWPOLYLINE
  5
1D6
100
AcDbEntity
  8
ASSEMBLY_OUTLINES_TOP
100
AcDbPolyline
 90
        4
 70
         1
 43
0.1
 10
18.2
 20
140.15
 10
18.2
 20
141.45
 10
21.0
 20
141.45
 10
21.0
 20
140.15
  0
LWPOLYLINE
  5
1D7
100
AcDbEntity
  8
ASSEMBLY_OUTLINES_TOP
100
AcDbPolyline
 90
        4
 70
         1
 43
0.1
 10
18.6
 20
155.5
 10
18.6
 20
158.4
 10
19.9
 20
158.4
 10
19.9
 20
155.5
  0
LWPOLYLINE
  5
1D8
100
AcDbEntity
  8
ASSEMBLY_OUTLINES_TOP
100
AcDbPolyline
 90
        4
 70
         1
 43
0.1
 10
62.3
 20
91.25
 10
62.3
 20
94.15
 10
63.6
 20
94.15
 10
63.6
 20
91.25
  0
LWPOLYLINE
  5
1D9
100
AcDbEntity
  8
ASSEMBLY_OUTLINES_TOP
100
AcDbPolyline
 90
        4
 70
         1
 43
0.1
 10
90.95
 20
146.05
 10
90.95
 20
148.85
 10
92.25
 20
148.85
 10
92.25
 20
146.05
  0
LWPOLYLINE
  5
1DA
100
AcDbEntity
  8
ASSEMBLY_OUTLINES_TOP
100
AcDbPolyline
 90
        4
 70
         1
 43
0.1
 10
114.5
 20
97.95
 10
114.5
 20
100.85
 10
115.8
 20
100.85
 10
115.8
 20
97.95
  0
LWPOLYLINE
  5
1DB
100
AcDbEntity
  8
ASSEMBLY_OUTLINES_TOP
100
AcDbPolyline
 90
        4
 70
         1
 43
0.1
 10
15.7
 20
94.7
 10
15.7
 20
97.6
 10
17.0
 20
97.6
 10
17.0
 20
94.7
  0
LWPOLYLINE
  5
1DC
100
AcDbEntity
  8
ASSEMBLY_OUTLINES_TOP
100
AcDbPolyline
 90
        8
 70
         1
 43
0.1
 10
86.45
 20
115.4
 10
86.45
 20
118.7
 42
0.4142135624
 10
85.45
 20
119.7
 10
82.25
 20
119.7
 42
0.4142135624
 10
81.25
 20
118.7
 10
81.25
 20
115.4
 42
0.4142135624
 10
82.25
 20
114.4
 10
85.45
 20
114.4
 42
0.4142135624
  0
LWPOLYLINE
  5
1DD
100
AcDbEntity
  8
ASSEMBLY_OUTLINES_TOP
100
AcDbPolyline
 90
        4
 70
         1
 43
0.1
 10
5.95
 20
151.6
 10
5.95
 20
154.5
 10
7.25
 20
154.5
 10
7.25
 20
151.6
  0
LWPOLYLINE
  5
1DE
100
AcDbEntity
  8
ASSEMBLY_OUTLINES_TOP
100
AcDbPolyline
 90
        4
 70
         1
 43
0.1
 10
11.7
 20
89.85
 10
11.7
 20
93.15
 10
13.5
 20
93.15
 10
13.5
 20
89.85
  0
LWPOLYLINE
  5
1DF
100
AcDbEntity
  8
ASSEMBLY_OUTLINES_TOP
100
AcDbPolyline
 90
        4
 70
         1
 43
0.1
 10
1.05
 20
99.0
 10
1.05
 20
101.9
 10
2.35
 20
101.9
 10
2.35
 20
99.0
  0
LWPOLYLINE
  5
1E0
100
AcDbEntity
  8
ASSEMBLY_OUTLINES_TOP
100
AcDbPolyline
 90
        4
 70
         1
 43
0.1
 10
51.6
 20
144.55
 10
51.6
 20
145.85
 10
54.4
 20
145.85
 10
54.4
 20
144.55
  0
LWPOLYLINE
  5
1E1
100
AcDbEntity
  8
ASSEMBLY_OUTLINES_TOP
100
AcDbPolyline
 90
        4
 70
         1
 43
0.1
 10
47.75
 20
120.6
 10
47.75
 20
122.2
 10
50.95
 20
122.2
 10
50.95
 20
120.6
  0
LWPOLYLINE
  5
1E2
100
AcDbEntity
  8
ASSEMBLY_OUTLINES_TOP
100
AcDbPolyline
 90
        4
 70
         1
 43
0.1
 10
11.3
 20
145.75
 10
11.3
 20
148.65
 10
12.6
 20
148.65
 10
12.6
 20
145.75
  0
LWPOLYLINE
  5
1E3
100
AcDbEntity
  8
ASSEMBLY_OUTLINES_TOP
100
AcDbPolyline
 90
        4
 70
         1
 43
0.1
 10
76.7
 20
128.5
 10
76.7
 20
130.1
 10
79.9
 20
130.1
 10
79.9
 20
128.5
  0
LWPOLYLINE
  5
1E4
100
AcDbEntity
  8
ASSEMBLY_OUTLINES_TOP
100
AcDbPolyline
 90
        4
 70
         1
 43
0.1
 10
111.65
 20
101.05
 10
111.65
 20
102.35
 10
114.45
 20
102.35
 10
114.45
 20
101.05
  0
LWPOLYLINE
  5
1E5
100
AcDbEntity
  8
ASSEMBLY_OUTLINES_TOP
100
AcDbPolyline
 90
        4
 70
         1
 43
0.1
 10
87.1
 20
119.75
 10
87.1
 20
121.05
 10
90.0
 20
121.05
 10
90.0
 20
119.75
  0
LWPOLYLINE
  5
1E6
100
AcDbEntity
  8
ASSEMBLY_OUTLINES_TOP
100
AcDbPolyline
 90
        4
 70
         1
 43
0.1
 10
30.15
 20
115.9
 10
30.15
 20
117.2
 10
32.95
 20
117.2
 10
32.95
 20
115.9
  0
LWPOLYLINE
  5
1E7
100
AcDbEntity
  8
ASSEMBLY_OUTLINES_TOP
100
AcDbPolyline
 90
        4
 70
         1
 43
0.1
 10
110.15
 20
104.6
 10
110.15
 20
105.9
 10
113.05
 20
105.9
 10
113.05
 20
104.6
  0
LWPOLYLINE
  5
1E8
100
AcDbEntity
  8
ASSEMBLY_OUTLINES_TOP
100
AcDbPolyline
 90
        4
 70
         1
 43
0.1
 10
61.25
 20
107.3
 10
61.25
 20
109.1
 10
64.55
 20
109.1
 10
64.55
 20
107.3
  0
LWPOLYLINE
  5
1E9
100
AcDbEntity
  8
ASSEMBLY_OUTLINES_TOP
100
AcDbPolyline
 90
        4
 70
         1
 43
0.1
 10
77.25
 20
153.4
 10
77.25
 20
156.2
 10
78.55
 20
156.2
 10
78.55
 20
153.4
  0
LWPOLYLINE
  5
1EA
100
AcDbEntity
  8
ASSEMBLY_OUTLINES_TOP
100
AcDbPolyline
 90
        4
 70
         1
 43
0.1
 10
104.0
 20
102.25
 10
104.0
 20
105.45
 10
105.6
 20
105.45
 10
105.6
 20
102.25
  0
LWPOLYLINE
  5
1EB
100
AcDbEntity
  8
ASSEMBLY_OUTLINES_TOP
100
AcDbPolyline
 90
        4
 70
         1
 43
0.1
 10
63.5
 20
103.95
 10
63.5
 20
106.75
 10
64.8
 20
106.75
 10
64.8
 20
103.95
  0
LWPOLYLINE
  5
1EC
100
AcDbEntity
  8
ASSEMBLY_OUTLINES_TOP
100
AcDbPolyline
 90
        4
 70
         1
 43
0.1
 10
80.4
 20
125.05
 10
80.4
 20
127.95
 10
81.7
 20
127.95
 10
81.7
 20
125.05
  0
LWPOLYLINE
  5
1ED
100
AcDbEntity
  8
ASSEMBLY_OUTLINES_TOP
100
AcDbPolyline
 90
        4
 70
         1
 43
0.1
 10
15.0
 20
88.7
 10
15.0
 20
90.0
 10
17.9
 20
90.0
 10
17.9
 20
88.7
  0
LWPOLYLINE
  5
1EE
100
AcDbEntity
  8
ASSEMBLY_OUTLINES_TOP
100
AcDbPolyline
 90
        4
 70
         1
 43
0.1
 10
35.75
 20
116.4
 10
35.75
 20
117.7
 10
38.65
 20
117.7
 10
38.65
 20
116.4
  0
LWPOLYLINE
  5
1EF
100
AcDbEntity
  8
ASSEMBLY_OUTLINES_TOP
100
AcDbPolyline
 90
        4
 70
         1
 10
0.69
 20
130.88
 10
0.69
 20
133.42
 10
8.19
 20
133.42
 10
8.19
 20
130.88
  0
LWPOLYLINE
  5
1F0
100
AcDbEntity
  8
ASSEMBLY_OUTLINES_TOP
100
AcDbPolyline
 90
        2
 70
         0
 10
6.5
 20
171.0
 10
0.5
 20
171.0
  0
LWPOLYLINE
  5
1F1
100
AcDbEntity
  8
ASSEMBLY_OUTLINES_TOP
100
AcDbPolyline
 90
        2
 70
         0
 10
6.9
 20
171.0
 10
0.9
 20
171.0
  0
LWPOLYLINE
  5
1F2
100
AcDbEntity
  8
ASSEMBLY_OUTLINES_TOP
100
AcDbPolyline
 90
        6
 70
         1
 10
7.4
 20
174.8
 10
1.4
 20
174.8
 10
1.4
 20
171.0
 10
-0.7
 20
171.0
 10
-0.7
 20
156.8
 10
7.4
 20
156.8
  0
LWPOLYLINE
  5
1F3
100
AcDbEntity
  8
ASSEMBLY_OUTLINES_TOP
100
AcDbPolyline
 90
        4
 70
         1
 43
0.1
 10
56.95
 20
92.0
 10
56.95
 20
93.4
 10
59.95
 20
93.4
 10
59.95
 20
92.0
  0
LWPOLYLINE
  5
1F4
100
AcDbEntity
  8
ASSEMBLY_OUTLINES_TOP
100
AcDbPolyline
 90
        2
 70
         0
 43
0.1
 10
59.85
 20
93.4
 10
59.95
 20
93.3
  0
LWPOLYLINE
  5
1F5
100
AcDbEntity
  8
ASSEMBLY_OUTLINES_TOP
100
AcDbPolyline
 90
        2
 70
         0
 43
0.1
 10
59.75
 20
93.4
 10
59.95
 20
93.2
  0
LWPOLYLINE
  5
1F6
100
AcDbEntity
  8
ASSEMBLY_OUTLINES_TOP
100
AcDbPolyline
 90
        2
 70
         0
 43
0.1
 10
59.65
 20
93.4
 10
59.95
 20
93.1
  0
LWPOLYLINE
  5
1F7
100
AcDbEntity
  8
ASSEMBLY_OUTLINES_TOP
100
AcDbPolyline
 90
        2
 70
         0
 43
0.1
 10
59.55
 20
93.4
 10
59.95
 20
93.0
  0
LWPOLYLINE
  5
1F8
100
AcDbEntity
  8
ASSEMBLY_OUTLINES_TOP
100
AcDbPolyline
 90
        2
 70
         0
 43
0.1
 10
59.45
 20
93.4
 10
59.95
 20
92.9
  0
LWPOLYLINE
  5
1F9
100
AcDbEntity
  8
ASSEMBLY_OUTLINES_TOP
100
AcDbPolyline
 90
        2
 70
         0
 43
0.1
 10
59.35
 20
93.4
 10
59.95
 20
92.8
  0
LWPOLYLINE
  5
1FA
100
AcDbEntity
  8
ASSEMBLY_OUTLINES_TOP
100
AcDbPolyline
 90
        4
 70
         1
 10
23.35
 20
119.7
 10
23.35
 20
131.8
 10
36.75
 20
131.8
 10
36.75
 20
119.7
  0
LWPOLYLINE
  5
1FB
100
AcDbEntity
  8
ASSEMBLY_OUTLINES_TOP
100
AcDbPolyline
 90
        4
 70
         1
 10
25.05
 20
131.8
 10
25.05
 20
138.8
 10
36.05
 20
138.8
 10
36.05
 20
131.8
  0
LWPOLYLINE
  5
1FC
100
AcDbEntity
  8
ASSEMBLY_OUTLINES_TOP
100
AcDbPolyline
 90
        4
 70
         1
 43
0.1
 10
114.5
 20
100.95
 10
114.5
 20
103.85
 10
115.8
 20
103.85
 10
115.8
 20
100.95
  0
LWPOLYLINE
  5
1FD
100
AcDbEntity
  8
ASSEMBLY_OUTLINES_TOP
100
AcDbPolyline
 90
        4
 70
         1
 43
0.1
 10
80.35
 20
146.05
 10
80.35
 20
159.35
 10
87.85
 20
159.35
 10
87.85
 20
146.05
  0
LWPOLYLINE
  5
1FE
100
AcDbEntity
  8
ASSEMBLY_OUTLINES_TOP
100
AcDbPolyline
 90
        2
 70
         0
 43
0.1
 10
87.7
 20
146.05
 10
87.8
 20
146.15
  0
LWPOLYLINE
  5
1FF
100
AcDbEntity
  8
ASSEMBLY_OUTLINES_TOP
100
AcDbPolyline
 90
        2
 70
         0
 43
0.1
 10
87.6
 20
146.05
 10
87.8
 20
146.25
  0
LWPOLYLINE
  5
200
100
AcDbEntity
  8
ASSEMBLY_OUTLINES_TOP
100
AcDbPolyline
 90
        2
 70
         0
 43
0.1
 10
87.5
 20
146.05
 10
87.8
 20
146.35
  0
LWPOLYLINE
  5
201
100
AcDbEntity
  8
ASSEMBLY_OUTLINES_TOP
100
AcDbPolyline
 90
        2
 70
         0
 43
0.1
 10
87.4
 20
146.05
 10
87.8
 20
146.45
  0
LWPOLYLINE
  5
202
100
AcDbEntity
  8
ASSEMBLY_OUTLINES_TOP
100
AcDbPolyline
 90
        2
 70
         0
 43
0.1
 10
87.3
 20
146.05
 10
87.8
 20
146.55
  0
LWPOLYLINE
  5
203
100
AcDbEntity
  8
ASSEMBLY_OUTLINES_TOP
100
AcDbPolyline
 90
        2
 70
         0
 43
0.1
 10
87.2
 20
146.05
 10
87.8
 20
146.65
  0
LWPOLYLINE
  5
204
100
AcDbEntity
  8
ASSEMBLY_OUTLINES_TOP
100
AcDbPolyline
 90
        2
 70
         0
 43
0.1
 10
87.1
 20
146.05
 10
87.8
 20
146.75
  0
LWPOLYLINE
  5
205
100
AcDbEntity
  8
ASSEMBLY_OUTLINES_TOP
100
AcDbPolyline
 90
        2
 70
         0
 43
0.1
 10
87.0
 20
146.05
 10
87.8
 20
146.85
  0
LWPOLYLINE
  5
206
100
AcDbEntity
  8
ASSEMBLY_OUTLINES_TOP
100
AcDbPolyline
 90
        2
 70
         0
 43
0.1
 10
86.9
 20
146.05
 10
87.8
 20
146.95
  0
LWPOLYLINE
  5
207
100
AcDbEntity
  8
ASSEMBLY_OUTLINES_TOP
100
AcDbPolyline
 90
        2
 70
         0
 43
0.1
 10
86.8
 20
146.05
 10
87.8
 20
147.05
  0
LWPOLYLINE
  5
208
100
AcDbEntity
  8
ASSEMBLY_OUTLINES_TOP
100
AcDbPolyline
 90
        4
 70
         1
 43
0.1
 10
107.05
 20
104.4
 10
107.05
 20
105.7
 10
109.85
 20
105.7
 10
109.85
 20
104.4
  0
LWPOLYLINE
  5
209
100
AcDbEntity
  8
ASSEMBLY_OUTLINES_TOP
100
AcDbPolyline
 90
        4
 70
         1
 43
0.1
 10
13.55
 20
96.95
 10
13.55
 20
99.85
 10
14.85
 20
99.85
 10
14.85
 20
96.95
  0
LWPOLYLINE
  5
20A
100
AcDbEntity
  8
ASSEMBLY_OUTLINES_TOP
100
AcDbPolyline
 90
        4
 70
         1
 43
0.1
 10
111.65
 20
98.1
 10
111.65
 20
99.4
 10
114.45
 20
99.4
 10
114.45
 20
98.1
  0
LWPOLYLINE
  5
20B
100
AcDbEntity
  8
ASSEMBLY_OUTLINES_TOP
100
AcDbPolyline
 90
        4
 70
         1
 43
0.1
 10
90.2
 20
154.75
 10
90.2
 20
157.95
 10
91.8
 20
157.95
 10
91.8
 20
154.75
  0
LWPOLYLINE
  5
20C
100
AcDbEntity
  8
ASSEMBLY_OUTLINES_TOP
100
AcDbPolyline
 90
        4
 70
         1
 43
0.1
 10
75.1
 20
115.7
 10
75.1
 20
117.5
 10
78.4
 20
117.5
 10
78.4
 20
115.7
  0
LWPOLYLINE
  5
20D
100
AcDbEntity
  8
ASSEMBLY_OUTLINES_TOP
100
AcDbPolyline
 90
        4
 70
         1
 43
0.1
 10
88.6
 20
113.0
 10
88.6
 20
114.3
 10
91.5
 20
114.3
 10
91.5
 20
113.0
  0
LWPOLYLINE
  5
20E
100
AcDbEntity
  8
ASSEMBLY_OUTLINES_TOP
100
AcDbPolyline
 90
        4
 70
         1
 43
0.1
 10
31.7
 20
146.55
 10
31.7
 20
149.55
 10
34.7
 20
149.55
 10
34.7
 20
146.55
  0
LWPOLYLINE
  5
20F
100
AcDbEntity
  8
ASSEMBLY_OUTLINES_TOP
100
AcDbPolyline
 90
        2
 70
         0
 43
0.1
 10
34.6
 20
149.55
 10
34.7
 20
149.45
  0
LWPOLYLINE
  5
210
100
AcDbEntity
  8
ASSEMBLY_OUTLINES_TOP
100
AcDbPolyline
 90
        2
 70
         0
 43
0.1
 10
34.5
 20
149.55
 10
34.7
 20
149.35
  0
LWPOLYLINE
  5
211
100
AcDbEntity
  8
ASSEMBLY_OUTLINES_TOP
100
AcDbPolyline
 90
        2
 70
         0
 43
0.1
 10
34.4
 20
149.55
 10
34.7
 20
149.25
  0
LWPOLYLINE
  5
212
100
AcDbEntity
  8
ASSEMBLY_OUTLINES_TOP
100
AcDbPolyline
 90
        2
 70
         0
 43
0.1
 10
34.3
 20
149.55
 10
34.7
 20
149.15
  0
LWPOLYLINE
  5
213
100
AcDbEntity
  8
ASSEMBLY_OUTLINES_TOP
100
AcDbPolyline
 90
        2
 70
         0
 43
0.1
 10
34.2
 20
149.55
 10
34.7
 20
149.05
  0
LWPOLYLINE
  5
214
100
AcDbEntity
  8
ASSEMBLY_OUTLINES_TOP
100
AcDbPolyline
 90
        2
 70
         0
 43
0.1
 10
34.1
 20
149.55
 10
34.7
 20
148.95
  0
LWPOLYLINE
  5
215
100
AcDbEntity
  8
ASSEMBLY_OUTLINES_TOP
100
AcDbPolyline
 90
        4
 70
         1
 43
0.1
 10
76.65
 20
156.2
 10
76.65
 20
159.5
 10
78.45
 20
159.5
 10
78.45
 20
156.2
  0
LWPOLYLINE
  5
216
100
AcDbEntity
  8
ASSEMBLY_OUTLINES_TOP
100
AcDbPolyline
 90
        4
 70
         1
 43
0.1
 10
58.75
 20
144.55
 10
58.75
 20
145.85
 10
61.55
 20
145.85
 10
61.55
 20
144.55
  0
LWPOLYLINE
  5
217
100
AcDbEntity
  8
ASSEMBLY_OUTLINES_TOP
100
AcDbPolyline
 90
        4
 70
         1
 43
0.1
 10
45.4
 20
108.0
 10
45.4
 20
110.8
 10
46.7
 20
110.8
 10
46.7
 20
108.0
  0
LWPOLYLINE
  5
218
100
AcDbEntity
  8
ASSEMBLY_OUTLINES_TOP
100
AcDbPolyline
 90
        4
 70
         1
 43
0.1
 10
9.25
 20
101.7
 10
9.25
 20
103.3
 10
12.45
 20
103.3
 10
12.45
 20
101.7
  0
LWPOLYLINE
  5
219
100
AcDbEntity
  8
ASSEMBLY_OUTLINES_TOP
100
AcDbPolyline
 90
        4
 70
         1
 43
0.1
 10
55.4
 20
94.85
 10
55.4
 20
97.75
 10
56.7
 20
97.75
 10
56.7
 20
94.85
  0
LWPOLYLINE
  5
21A
100
AcDbEntity
  8
ASSEMBLY_OUTLINES_TOP
100
AcDbPolyline
 90
        4
 70
         1
 43
0.1
 10
36.9
 20
142.15
 10
36.9
 20
143.45
 10
39.7
 20
143.45
 10
39.7
 20
142.15
  0
LWPOLYLINE
  5
21B
100
AcDbEntity
  8
ASSEMBLY_OUTLINES_TOP
100
AcDbPolyline
 90
        4
 70
         1
 43
0.1
 10
-1.5
 20
90.4
 10
-1.5
 20
91.2
 10
-0.3
 20
91.2
 10
-0.3
 20
90.4
  0
LWPOLYLINE
  5
21C
100
AcDbEntity
  8
ASSEMBLY_OUTLINES_TOP
100
AcDbPolyline
 90
        2
 70
         0
 43
0.1
 10
-1.5
 20
90.4
 10
-1.5
 20
91.2
  0
LWPOLYLINE
  5
21D
100
AcDbEntity
  8
ASSEMBLY_OUTLINES_TOP
100
AcDbPolyline
 90
        2
 70
         0
 43
0.1
 10
-1.4
 20
90.4
 10
-1.4
 20
91.2
  0
LWPOLYLINE
  5
21E
100
AcDbEntity
  8
ASSEMBLY_OUTLINES_TOP
100
AcDbPolyline
 90
        2
 70
         0
 43
0.1
 10
-1.3
 20
90.4
 10
-1.3
 20
91.2
  0
LWPOLYLINE
  5
21F
100
AcDbEntity
  8
ASSEMBLY_OUTLINES_TOP
100
AcDbPolyline
 90
        2
 70
         0
 43
0.1
 10
-1.2
 20
90.4
 10
-1.2
 20
91.2
  0
LWPOLYLINE
  5
220
100
AcDbEntity
  8
ASSEMBLY_OUTLINES_TOP
100
AcDbPolyline
 90
        2
 70
         0
 43
0.1
 10
-1.1
 20
90.4
 10
-1.1
 20
91.2
  0
LWPOLYLINE
  5
221
100
AcDbEntity
  8
ASSEMBLY_OUTLINES_TOP
100
AcDbPolyline
 90
        2
 70
         0
 43
0.1
 10
-1.0
 20
90.4
 10
-1.0
 20
91.2
  0
LWPOLYLINE
  5
222
100
AcDbEntity
  8
ASSEMBLY_OUTLINES_TOP
100
AcDbPolyline
 90
        4
 70
         1
 43
0.1
 10
-0.1
 20
116.95
 10
-0.1
 20
118.25
 10
2.8
 20
118.25
 10
2.8
 20
116.95
  0
LWPOLYLINE
  5
223
100
AcDbEntity
  8
ASSEMBLY_OUTLINES_TOP
100
AcDbPolyline
 90
        4
 70
         1
 43
0.1
 10
75.2
 20
114.4
 10
75.2
 20
115.7
 10
78.0
 20
115.7
 10
78.0
 20
114.4
  0
LWPOLYLINE
  5
224
100
AcDbEntity
  8
ASSEMBLY_OUTLINES_TOP
100
AcDbPolyline
 90
        6
 70
         1
 43
0.15
 10
55.5
 20
103.6
 10
55.5
 20
97.9
 10
72.5
 20
97.9
 10
72.5
 20
101.9
 10
71.7
 20
101.9
 10
71.7
 20
103.6
  0
LWPOLYLINE
  5
225
100
AcDbEntity
  8
ASSEMBLY_OUTLINES_TOP
100
AcDbPolyline
 90
        2
 70
         0
 43
0.5
 10
68.4
 20
100.6
 10
59.3
 20
100.6
  0
LWPOLYLINE
  5
226
100
AcDbEntity
  8
ASSEMBLY_OUTLINES_TOP
100
AcDbPolyline
 90
        2
 70
         0
 43
0.5
 10
59.3
 20
100.6
 10
59.3
 20
99.2
  0
LWPOLYLINE
  5
227
100
AcDbEntity
  8
ASSEMBLY_OUTLINES_TOP
100
AcDbPolyline
 90
        4
 70
         1
 43
0.1
 10
77.05
 20
111.25
 10
77.05
 20
112.55
 10
79.95
 20
112.55
 10
79.95
 20
111.25
  0
LWPOLYLINE
  5
228
100
AcDbEntity
  8
ASSEMBLY_OUTLINES_TOP
100
AcDbPolyline
 90
        4
 70
         1
 43
0.1
 10
72.55
 20
144.55
 10
72.55
 20
145.85
 10
75.35
 20
145.85
 10
75.35
 20
144.55
  0
LWPOLYLINE
  5
229
100
AcDbEntity
  8
ASSEMBLY_OUTLINES_TOP
100
AcDbPolyline
 90
        4
 70
         1
 43
0.1
 10
77.1
 20
102.65
 10
77.1
 20
103.95
 10
80.0
 20
103.95
 10
80.0
 20
102.65
  0
LWPOLYLINE
  5
22A
100
AcDbEntity
  8
ASSEMBLY_OUTLINES_TOP
100
AcDbPolyline
 90
        4
 70
         1
 43
0.1
 10
104.1
 20
106.15
 10
104.1
 20
115.65
 10
134.1
 20
115.65
 10
134.1
 20
106.15
  0
LWPOLYLINE
  5
22B
100
AcDbEntity
  8
ASSEMBLY_OUTLINES_TOP
100
AcDbPolyline
 90
        4
 70
         1
 43
0.1
 10
104.1
 20
111.2
 10
104.1
 20
162.2
 10
134.1
 20
162.2
 10
134.1
 20
111.2
  0
LWPOLYLINE
  5
22C
100
AcDbEntity
  8
ASSEMBLY_OUTLINES_TOP
100
AcDbPolyline
 90
        4
 70
         1
 43
0.1
 10
87.05
 20
110.05
 10
87.05
 20
112.95
 10
88.35
 20
112.95
 10
88.35
 20
110.05
  0
LWPOLYLINE
  5
22D
100
AcDbEntity
  8
ASSEMBLY_OUTLINES_TOP
100
AcDbPolyline
 90
        4
 70
         1
 43
0.1
 10
53.0
 20
146.05
 10
53.0
 20
159.35
 10
60.5
 20
159.35
 10
60.5
 20
146.05
  0
LWPOLYLINE
  5
22E
100
AcDbEntity
  8
ASSEMBLY_OUTLINES_TOP
100
AcDbPolyline
 90
        2
 70
         0
 43
0.1
 10
60.35
 20
146.05
 10
60.45
 20
146.15
  0
LWPOLYLINE
  5
22F
100
AcDbEntity
  8
ASSEMBLY_OUTLINES_TOP
100
AcDbPolyline
 90
        2
 70
         0
 43
0.1
 10
60.25
 20
146.05
 10
60.45
 20
146.25
  0
LWPOLYLINE
  5
230
100
AcDbEntity
  8
ASSEMBLY_OUTLINES_TOP
100
AcDbPolyline
 90
        2
 70
         0
 43
0.1
 10
60.15
 20
146.05
 10
60.45
 20
146.35
  0
LWPOLYLINE
  5
231
100
AcDbEntity
  8
ASSEMBLY_OUTLINES_TOP
100
AcDbPolyline
 90
        2
 70
         0
 43
0.1
 10
60.05
 20
146.05
 10
60.45
 20
146.45
  0
LWPOLYLINE
  5
232
100
AcDbEntity
  8
ASSEMBLY_OUTLINES_TOP
100
AcDbPolyline
 90
        2
 70
         0
 43
0.1
 10
59.95
 20
146.05
 10
60.45
 20
146.55
  0
LWPOLYLINE
  5
233
100
AcDbEntity
  8
ASSEMBLY_OUTLINES_TOP
100
AcDbPolyline
 90
        2
 70
         0
 43
0.1
 10
59.85
 20
146.05
 10
60.45
 20
146.65
  0
LWPOLYLINE
  5
234
100
AcDbEntity
  8
ASSEMBLY_OUTLINES_TOP
100
AcDbPolyline
 90
        2
 70
         0
 43
0.1
 10
59.75
 20
146.05
 10
60.45
 20
146.75
  0
LWPOLYLINE
  5
235
100
AcDbEntity
  8
ASSEMBLY_OUTLINES_TOP
100
AcDbPolyline
 90
        2
 70
         0
 43
0.1
 10
59.65
 20
146.05
 10
60.45
 20
146.85
  0
LWPOLYLINE
  5
236
100
AcDbEntity
  8
ASSEMBLY_OUTLINES_TOP
100
AcDbPolyline
 90
        2
 70
         0
 43
0.1
 10
59.55
 20
146.05
 10
60.45
 20
146.95
  0
LWPOLYLINE
  5
237
100
AcDbEntity
  8
ASSEMBLY_OUTLINES_TOP
100
AcDbPolyline
 90
        2
 70
         0
 43
0.1
 10
59.45
 20
146.05
 10
60.45
 20
147.05
  0
LWPOLYLINE
  5
238
100
AcDbEntity
  8
ASSEMBLY_OUTLINES_TOP
100
AcDbPolyline
 90
        4
 70
         1
 10
116.9
 20
76.35
 10
116.9
 20
106.05
 10
134.1
 20
106.05
 10
134.1
 20
76.35
  0
LWPOLYLINE
  5
239
100
AcDbEntity
  8
ASSEMBLY_OUTLINES_TOP
100
AcDbPolyline
 90
        2
 70
         0
 10
116.9
 20
101.18
 10
121.53
 20
106.05
  0
LWPOLYLINE
  5
23A
100
AcDbEntity
  8
ASSEMBLY_OUTLINES_TOP
100
AcDbPolyline
 90
        4
 70
         1
 10
83.35
 20
164.325
 10
83.35
 20
169.405
 10
134.15
 20
169.405
 10
134.15
 20
164.325
  0
CIRCLE
  5
23B
100
AcDbEntity
  8
ASSEMBLY_OUTLINES_TOP
100
AcDbCircle
 10
84.618225
 20
165.58456
 30
0.0
 40
0.45
  0
HATCH
  5
23C
100
AcDbEntity
  8
ASSEMBLY_OUTLINES_TOP
100
AcDbHatch
 10
0.0
 20
0.0
 30
0.0
210
0.0
220
0.0
230
1.0
  2
SOLID
 70
         1
 71
         1
 91
        1
 92
        1
 93
        1
 72
         2
 10
84.618224999999995
 20
165.58456000000001
 40
0.45
 50
0.0
 51
360.0
 73
         1
 97
        1
330
23B
 75
         0
 76
         1
 98
        1
 10
0.0
 20
0.0
  0
CIRCLE
  5
23D
100
AcDbEntity
  8
ASSEMBLY_OUTLINES_TOP
100
AcDbCircle
 10
87.158225
 20
165.58456
 30
0.0
 40
0.45
  0
HATCH
  5
23E
100
AcDbEntity
  8
ASSEMBLY_OUTLINES_TOP
100
AcDbHatch
 10
0.0
 20
0.0
 30
0.0
210
0.0
220
0.0
230
1.0
  2
SOLID
 70
         1
 71
         1
 91
        1
 92
        1
 93
        1
 72
         2
 10
87.158225000000002
 20
165.58456000000001
 40
0.45
 50
0.0
 51
360.0
 73
         1
 97
        1
330
23D
 75
         0
 76
         1
 98
        1
 10
0.0
 20
0.0
  0
CIRCLE
  5
23F
100
AcDbEntity
  8
ASSEMBLY_OUTLINES_TOP
100
AcDbCircle
 10
89.698225
 20
165.58456
 30
0.0
 40
0.45
  0
HATCH
  5
240
100
AcDbEntity
  8
ASSEMBLY_OUTLINES_TOP
100
AcDbHatch
 10
0.0
 20
0.0
 30
0.0
210
0.0
220
0.0
230
1.0
  2
SOLID
 70
         1
 71
         1
 91
        1
 92
        1
 93
        1
 72
         2
 10
89.698224999999994
 20
165.58456000000001
 40
0.45
 50
0.0
 51
360.0
 73
         1
 97
        1
330
23F
 75
         0
 76
         1
 98
        1
 10
0.0
 20
0.0
  0
CIRCLE
  5
241
100
AcDbEntity
  8
ASSEMBLY_OUTLINES_TOP
100
AcDbCircle
 10
92.238225
 20
165.58456
 30
0.0
 40
0.45
  0
HATCH
  5
242
100
AcDbEntity
  8
ASSEMBLY_OUTLINES_TOP
100
AcDbHatch
 10
0.0
 20
0.0
 30
0.0
210
0.0
220
0.0
230
1.0
  2
SOLID
 70
         1
 71
         1
 91
        1
 92
        1
 93
        1
 72
         2
 10
92.238225
 20
165.58456000000001
 40
0.45
 50
0.0
 51
360.0
 73
         1
 97
        1
330
241
 75
         0
 76
         1
 98
        1
 10
0.0
 20
0.0
  0
CIRCLE
  5
243
100
AcDbEntity
  8
ASSEMBLY_OUTLINES_TOP
100
AcDbCircle
 10
94.778225
 20
165.58456
 30
0.0
 40
0.45
  0
HATCH
  5
244
100
AcDbEntity
  8
ASSEMBLY_OUTLINES_TOP
100
AcDbHatch
 10
0.0
 20
0.0
 30
0.0
210
0.0
220
0.0
230
1.0
  2
SOLID
 70
         1
 71
         1
 91
        1
 92
        1
 93
        1
 72
         2
 10
94.778225000000006
 20
165.58456000000001
 40
0.45
 50
0.0
 51
360.0
 73
         1
 97
        1
330
243
 75
         0
 76
         1
 98
        1
 10
0.0
 20
0.0
  0
CIRCLE
  5
245
100
AcDbEntity
  8
ASSEMBLY_OUTLINES_TOP
100
AcDbCircle
 10
97.318225
 20
165.58456
 30
0.0
 40
0.45
  0
HATCH
  5
246
100
AcDbEntity
  8
ASSEMBLY_OUTLINES_TOP
100
AcDbHatch
 10
0.0
 20
0.0
 30
0.0
210
0.0
220
0.0
230
1.0
  2
SOLID
 70
         1
 71
         1
 91
        1
 92
        1
 93
        1
 72
         2
 10
97.318224999999998
 20
165.58456000000001
 40
0.45
 50
0.0
 51
360.0
 73
         1
 97
        1
330
245
 75
         0
 76
         1
 98
        1
 10
0.0
 20
0.0
  0
CIRCLE
  5
247
100
AcDbEntity
  8
ASSEMBLY_OUTLINES_TOP
100
AcDbCircle
 10
99.858225
 20
165.58456
 30
0.0
 40
0.45
  0
HATCH
  5
248
100
AcDbEntity
  8
ASSEMBLY_OUTLINES_TOP
100
AcDbHatch
 10
0.0
 20
0.0
 30
0.0
210
0.0
220
0.0
230
1.0
  2
SOLID
 70
         1
 71
         1
 91
        1
 92
        1
 93
        1
 72
         2
 10
99.858225000000004
 20
165.58456000000001
 40
0.45
 50
0.0
 51
360.0
 73
         1
 97
        1
330
247
 75
         0
 76
         1
 98
        1
 10
0.0
 20
0.0
  0
CIRCLE
  5
249
100
AcDbEntity
  8
ASSEMBLY_OUTLINES_TOP
100
AcDbCircle
 10
102.398225
 20
165.58456
 30
0.0
 40
0.45
  0
HATCH
  5
24A
100
AcDbEntity
  8
ASSEMBLY_OUTLINES_TOP
100
AcDbHatch
 10
0.0
 20
0.0
 30
0.0
210
0.0
220
0.0
230
1.0
  2
SOLID
 70
         1
 71
         1
 91
        1
 92
        1
 93
        1
 72
         2
 10
102.398225
 20
165.58456000000001
 40
0.45
 50
0.0
 51
360.0
 73
         1
 97
        1
330
249
 75
         0
 76
         1
 98
        1
 10
0.0
 20
0.0
  0
CIRCLE
  5
24B
100
AcDbEntity
  8
ASSEMBLY_OUTLINES_TOP
100
AcDbCircle
 10
104.938225
 20
165.58456
 30
0.0
 40
0.45
  0
HATCH
  5
24C
100
AcDbEntity
  8
ASSEMBLY_OUTLINES_TOP
100
AcDbHatch
 10
0.0
 20
0.0
 30
0.0
210
0.0
220
0.0
230
1.0
  2
SOLID
 70
         1
 71
         1
 91
        1
 92
        1
 93
        1
 72
         2
 10
104.938225
 20
165.58456000000001
 40
0.45
 50
0.0
 51
360.0
 73
         1
 97
        1
330
24B
 75
         0
 76
         1
 98
        1
 10
0.0
 20
0.0
  0
CIRCLE
  5
24D
100
AcDbEntity
  8
ASSEMBLY_OUTLINES_TOP
100
AcDbCircle
 10
107.478225
 20
165.58456
 30
0.0
 40
0.45
  0
HATCH
  5
24E
100
AcDbEntity
  8
ASSEMBLY_OUTLINES_TOP
100
AcDbHatch
 10
0.0
 20
0.0
 30
0.0
210
0.0
220
0.0
230
1.0
  2
SOLID
 70
         1
 71
         1
 91
        1
 92
        1
 93
        1
 72
         2
 10
107.47822499999999
 20
165.58456000000001
 40
0.45
 50
0.0
 51
360.0
 73
         1
 97
        1
330
24D
 75
         0
 76
         1
 98
        1
 10
0.0
 20
0.0
  0
CIRCLE
  5
24F
100
AcDbEntity
  8
ASSEMBLY_OUTLINES_TOP
100
AcDbCircle
 10
110.021774
 20
165.57544
 30
0.0
 40
0.45
  0
HATCH
  5
250
100
AcDbEntity
  8
ASSEMBLY_OUTLINES_TOP
100
AcDbHatch
 10
0.0
 20
0.0
 30
0.0
210
0.0
220
0.0
230
1.0
  2
SOLID
 70
         1
 71
         1
 91
        1
 92
        1
 93
        1
 72
         2
 10
110.02177399999999
 20
165.57543999999999
 40
0.45
 50
0.0
 51
360.0
 73
         1
 97
        1
330
24F
 75
         0
 76
         1
 98
        1
 10
0.0
 20
0.0
  0
CIRCLE
  5
251
100
AcDbEntity
  8
ASSEMBLY_OUTLINES_TOP
100
AcDbCircle
 10
112.561774
 20
165.57544
 30
0.0
 40
0.45
  0
HATCH
  5
252
100
AcDbEntity
  8
ASSEMBLY_OUTLINES_TOP
100
AcDbHatch
 10
0.0
 20
0.0
 30
0.0
210
0.0
220
0.0
230
1.0
  2
SOLID
 70
         1
 71
         1
 91
        1
 92
        1
 93
        1
 72
         2
 10
112.561774
 20
165.57543999999999
 40
0.45
 50
0.0
 51
360.0
 73
         1
 97
        1
330
251
 75
         0
 76
         1
 98
        1
 10
0.0
 20
0.0
  0
CIRCLE
  5
253
100
AcDbEntity
  8
ASSEMBLY_OUTLINES_TOP
100
AcDbCircle
 10
115.101774
 20
165.57544
 30
0.0
 40
0.45
  0
HATCH
  5
254
100
AcDbEntity
  8
ASSEMBLY_OUTLINES_TOP
100
AcDbHatch
 10
0.0
 20
0.0
 30
0.0
210
0.0
220
0.0
230
1.0
  2
SOLID
 70
         1
 71
         1
 91
        1
 92
        1
 93
        1
 72
         2
 10
115.10177400000001
 20
165.57543999999999
 40
0.45
 50
0.0
 51
360.0
 73
         1
 97
        1
330
253
 75
         0
 76
         1
 98
        1
 10
0.0
 20
0.0
  0
CIRCLE
  5
255
100
AcDbEntity
  8
ASSEMBLY_OUTLINES_TOP
100
AcDbCircle
 10
117.641774
 20
165.57544
 30
0.0
 40
0.45
  0
HATCH
  5
256
100
AcDbEntity
  8
ASSEMBLY_OUTLINES_TOP
100
AcDbHatch
 10
0.0
 20
0.0
 30
0.0
210
0.0
220
0.0
230
1.0
  2
SOLID
 70
         1
 71
         1
 91
        1
 92
        1
 93
        1
 72
         2
 10
117.641774
 20
165.57543999999999
 40
0.45
 50
0.0
 51
360.0
 73
         1
 97
        1
330
255
 75
         0
 76
         1
 98
        1
 10
0.0
 20
0.0
  0
CIRCLE
  5
257
100
AcDbEntity
  8
ASSEMBLY_OUTLINES_TOP
100
AcDbCircle
 10
120.181774
 20
165.57544
 30
0.0
 40
0.45
  0
HATCH
  5
258
100
AcDbEntity
  8
ASSEMBLY_OUTLINES_TOP
100
AcDbHatch
 10
0.0
 20
0.0
 30
0.0
210
0.0
220
0.0
230
1.0
  2
SOLID
 70
         1
 71
         1
 91
        1
 92
        1
 93
        1
 72
         2
 10
120.181774
 20
165.57543999999999
 40
0.45
 50
0.0
 51
360.0
 73
         1
 97
        1
330
257
 75
         0
 76
         1
 98
        1
 10
0.0
 20
0.0
  0
CIRCLE
  5
259
100
AcDbEntity
  8
ASSEMBLY_OUTLINES_TOP
100
AcDbCircle
 10
122.721774
 20
165.57544
 30
0.0
 40
0.45
  0
HATCH
  5
25A
100
AcDbEntity
  8
ASSEMBLY_OUTLINES_TOP
100
AcDbHatch
 10
0.0
 20
0.0
 30
0.0
210
0.0
220
0.0
230
1.0
  2
SOLID
 70
         1
 71
         1
 91
        1
 92
        1
 93
        1
 72
         2
 10
122.721774
 20
165.57543999999999
 40
0.45
 50
0.0
 51
360.0
 73
         1
 97
        1
330
259
 75
         0
 76
         1
 98
        1
 10
0.0
 20
0.0
  0
CIRCLE
  5
25B
100
AcDbEntity
  8
ASSEMBLY_OUTLINES_TOP
100
AcDbCircle
 10
125.261774
 20
165.57544
 30
0.0
 40
0.45
  0
HATCH
  5
25C
100
AcDbEntity
  8
ASSEMBLY_OUTLINES_TOP
100
AcDbHatch
 10
0.0
 20
0.0
 30
0.0
210
0.0
220
0.0
230
1.0
  2
SOLID
 70
         1
 71
         1
 91
        1
 92
        1
 93
        1
 72
         2
 10
125.261774
 20
165.57543999999999
 40
0.45
 50
0.0
 51
360.0
 73
         1
 97
        1
330
25B
 75
         0
 76
         1
 98
        1
 10
0.0
 20
0.0
  0
CIRCLE
  5
25D
100
AcDbEntity
  8
ASSEMBLY_OUTLINES_TOP
100
AcDbCircle
 10
127.801774
 20
165.57544
 30
0.0
 40
0.45
  0
HATCH
  5
25E
100
AcDbEntity
  8
ASSEMBLY_OUTLINES_TOP
100
AcDbHatch
 10
0.0
 20
0.0
 30
0.0
210
0.0
220
0.0
230
1.0
  2
SOLID
 70
         1
 71
         1
 91
        1
 92
        1
 93
        1
 72
         2
 10
127.80177399999999
 20
165.57543999999999
 40
0.45
 50
0.0
 51
360.0
 73
         1
 97
        1
330
25D
 75
         0
 76
         1
 98
        1
 10
0.0
 20
0.0
  0
CIRCLE
  5
25F
100
AcDbEntity
  8
ASSEMBLY_OUTLINES_TOP
100
AcDbCircle
 10
130.341774
 20
165.57544
 30
0.0
 40
0.45
  0
HATCH
  5
260
100
AcDbEntity
  8
ASSEMBLY_OUTLINES_TOP
100
AcDbHatch
 10
0.0
 20
0.0
 30
0.0
210
0.0
220
0.0
230
1.0
  2
SOLID
 70
         1
 71
         1
 91
        1
 92
        1
 93
        1
 72
         2
 10
130.34177399999999
 20
165.57543999999999
 40
0.45
 50
0.0
 51
360.0
 73
         1
 97
        1
330
25F
 75
         0
 76
         1
 98
        1
 10
0.0
 20
0.0
  0
CIRCLE
  5
261
100
AcDbEntity
  8
ASSEMBLY_OUTLINES_TOP
100
AcDbCircle
 10
132.881774
 20
165.57544
 30
0.0
 40
0.45
  0
HATCH
  5
262
100
AcDbEntity
  8
ASSEMBLY_OUTLINES_TOP
100
AcDbHatch
 10
0.0
 20
0.0
 30
0.0
210
0.0
220
0.0
230
1.0
  2
SOLID
 70
         1
 71
         1
 91
        1
 92
        1
 93
        1
 72
         2
 10
132.88177400000001
 20
165.57543999999999
 40
0.45
 50
0.0
 51
360.0
 73
         1
 97
        1
330
261
 75
         0
 76
         1
 98
        1
 10
0.0
 20
0.0
  0
CIRCLE
  5
263
100
AcDbEntity
  8
ASSEMBLY_OUTLINES_TOP
100
AcDbCircle
 10
84.62
 20
168.12
 30
0.0
 40
0.45
  0
HATCH
  5
264
100
AcDbEntity
  8
ASSEMBLY_OUTLINES_TOP
100
AcDbHatch
 10
0.0
 20
0.0
 30
0.0
210
0.0
220
0.0
230
1.0
  2
SOLID
 70
         1
 71
         1
 91
        1
 92
        1
 93
        1
 72
         2
 10
84.620000000000005
 20
168.12
 40
0.45
 50
0.0
 51
360.0
 73
         1
 97
        1
330
263
 75
         0
 76
         1
 98
        1
 10
0.0
 20
0.0
  0
CIRCLE
  5
265
100
AcDbEntity
  8
ASSEMBLY_OUTLINES_TOP
100
AcDbCircle
 10
87.16
 20
168.12
 30
0.0
 40
0.45
  0
HATCH
  5
266
100
AcDbEntity
  8
ASSEMBLY_OUTLINES_TOP
100
AcDbHatch
 10
0.0
 20
0.0
 30
0.0
210
0.0
220
0.0
230
1.0
  2
SOLID
 70
         1
 71
         1
 91
        1
 92
        1
 93
        1
 72
         2
 10
87.159999999999997
 20
168.12
 40
0.45
 50
0.0
 51
360.0
 73
         1
 97
        1
330
265
 75
         0
 76
         1
 98
        1
 10
0.0
 20
0.0
  0
CIRCLE
  5
267
100
AcDbEntity
  8
ASSEMBLY_OUTLINES_TOP
100
AcDbCircle
 10
89.7
 20
168.12
 30
0.0
 40
0.45
  0
HATCH
  5
268
100
AcDbEntity
  8
ASSEMBLY_OUTLINES_TOP
100
AcDbHatch
 10
0.0
 20
0.0
 30
0.0
210
0.0
220
0.0
230
1.0
  2
SOLID
 70
         1
 71
         1
 91
        1
 92
        1
 93
        1
 72
         2
 10
89.700000000000003
 20
168.12
 40
0.45
 50
0.0
 51
360.0
 73
         1
 97
        1
330
267
 75
         0
 76
         1
 98
        1
 10
0.0
 20
0.0
  0
CIRCLE
  5
269
100
AcDbEntity
  8
ASSEMBLY_OUTLINES_TOP
100
AcDbCircle
 10
92.24
 20
168.12
 30
0.0
 40
0.45
  0
HATCH
  5
26A
100
AcDbEntity
  8
ASSEMBLY_OUTLINES_TOP
100
AcDbHatch
 10
0.0
 20
0.0
 30
0.0
210
0.0
220
0.0
230
1.0
  2
SOLID
 70
         1
 71
         1
 91
        1
 92
        1
 93
        1
 72
         2
 10
92.239999999999995
 20
168.12
 40
0.45
 50
0.0
 51
360.0
 73
         1
 97
        1
330
269
 75
         0
 76
         1
 98
        1
 10
0.0
 20
0.0
  0
CIRCLE
  5
26B
100
AcDbEntity
  8
ASSEMBLY_OUTLINES_TOP
100
AcDbCircle
 10
94.78
 20
168.12
 30
0.0
 40
0.45
  0
HATCH
  5
26C
100
AcDbEntity
  8
ASSEMBLY_OUTLINES_TOP
100
AcDbHatch
 10
0.0
 20
0.0
 30
0.0
210
0.0
220
0.0
230
1.0
  2
SOLID
 70
         1
 71
         1
 91
        1
 92
        1
 93
        1
 72
         2
 10
94.780000000000001
 20
168.12
 40
0.45
 50
0.0
 51
360.0
 73
         1
 97
        1
330
26B
 75
         0
 76
         1
 98
        1
 10
0.0
 20
0.0
  0
CIRCLE
  5
26D
100
AcDbEntity
  8
ASSEMBLY_OUTLINES_TOP
100
AcDbCircle
 10
97.32
 20
168.12
 30
0.0
 40
0.45
  0
HATCH
  5
26E
100
AcDbEntity
  8
ASSEMBLY_OUTLINES_TOP
100
AcDbHatch
 10
0.0
 20
0.0
 30
0.0
210
0.0
220
0.0
230
1.0
  2
SOLID
 70
         1
 71
         1
 91
        1
 92
        1
 93
        1
 72
         2
 10
97.319999999999993
 20
168.12
 40
0.45
 50
0.0
 51
360.0
 73
         1
 97
        1
330
26D
 75
         0
 76
         1
 98
        1
 10
0.0
 20
0.0
  0
CIRCLE
  5
26F
100
AcDbEntity
  8
ASSEMBLY_OUTLINES_TOP
100
AcDbCircle
 10
99.86
 20
168.12
 30
0.0
 40
0.45
  0
HATCH
  5
270
100
AcDbEntity
  8
ASSEMBLY_OUTLINES_TOP
100
AcDbHatch
 10
0.0
 20
0.0
 30
0.0
210
0.0
220
0.0
230
1.0
  2
SOLID
 70
         1
 71
         1
 91
        1
 92
        1
 93
        1
 72
         2
 10
99.859999999999999
 20
168.12
 40
0.45
 50
0.0
 51
360.0
 73
         1
 97
        1
330
26F
 75
         0
 76
         1
 98
        1
 10
0.0
 20
0.0
  0
CIRCLE
  5
271
100
AcDbEntity
  8
ASSEMBLY_OUTLINES_TOP
100
AcDbCircle
 10
102.4
 20
168.12
 30
0.0
 40
0.45
  0
HATCH
  5
272
100
AcDbEntity
  8
ASSEMBLY_OUTLINES_TOP
100
AcDbHatch
 10
0.0
 20
0.0
 30
0.0
210
0.0
220
0.0
230
1.0
  2
SOLID
 70
         1
 71
         1
 91
        1
 92
        1
 93
        1
 72
         2
 10
102.40000000000001
 20
168.12
 40
0.45
 50
0.0
 51
360.0
 73
         1
 97
        1
330
271
 75
         0
 76
         1
 98
        1
 10
0.0
 20
0.0
  0
CIRCLE
  5
273
100
AcDbEntity
  8
ASSEMBLY_OUTLINES_TOP
100
AcDbCircle
 10
104.94
 20
168.12
 30
0.0
 40
0.45
  0
HATCH
  5
274
100
AcDbEntity
  8
ASSEMBLY_OUTLINES_TOP
100
AcDbHatch
 10
0.0
 20
0.0
 30
0.0
210
0.0
220
0.0
230
1.0
  2
SOLID
 70
         1
 71
         1
 91
        1
 92
        1
 93
        1
 72
         2
 10
104.94
 20
168.12
 40
0.45
 50
0.0
 51
360.0
 73
         1
 97
        1
330
273
 75
         0
 76
         1
 98
        1
 10
0.0
 20
0.0
  0
CIRCLE
  5
275
100
AcDbEntity
  8
ASSEMBLY_OUTLINES_TOP
100
AcDbCircle
 10
107.48
 20
168.12
 30
0.0
 40
0.45
  0
HATCH
  5
276
100
AcDbEntity
  8
ASSEMBLY_OUTLINES_TOP
100
AcDbHatch
 10
0.0
 20
0.0
 30
0.0
210
0.0
220
0.0
230
1.0
  2
SOLID
 70
         1
 71
         1
 91
        1
 92
        1
 93
        1
 72
         2
 10
107.48
 20
168.12
 40
0.45
 50
0.0
 51
360.0
 73
         1
 97
        1
330
275
 75
         0
 76
         1
 98
        1
 10
0.0
 20
0.0
  0
CIRCLE
  5
277
100
AcDbEntity
  8
ASSEMBLY_OUTLINES_TOP
100
AcDbCircle
 10
110.023549
 20
168.12088
 30
0.0
 40
0.45
  0
HATCH
  5
278
100
AcDbEntity
  8
ASSEMBLY_OUTLINES_TOP
100
AcDbHatch
 10
0.0
 20
0.0
 30
0.0
210
0.0
220
0.0
230
1.0
  2
SOLID
 70
         1
 71
         1
 91
        1
 92
        1
 93
        1
 72
         2
 10
110.023549
 20
168.12088
 40
0.45
 50
0.0
 51
360.0
 73
         1
 97
        1
330
277
 75
         0
 76
         1
 98
        1
 10
0.0
 20
0.0
  0
CIRCLE
  5
279
100
AcDbEntity
  8
ASSEMBLY_OUTLINES_TOP
100
AcDbCircle
 10
112.563549
 20
168.12088
 30
0.0
 40
0.45
  0
HATCH
  5
27A
100
AcDbEntity
  8
ASSEMBLY_OUTLINES_TOP
100
AcDbHatch
 10
0.0
 20
0.0
 30
0.0
210
0.0
220
0.0
230
1.0
  2
SOLID
 70
         1
 71
         1
 91
        1
 92
        1
 93
        1
 72
         2
 10
112.56354899999999
 20
168.12088
 40
0.45
 50
0.0
 51
360.0
 73
         1
 97
        1
330
279
 75
         0
 76
         1
 98
        1
 10
0.0
 20
0.0
  0
CIRCLE
  5
27B
100
AcDbEntity
  8
ASSEMBLY_OUTLINES_TOP
100
AcDbCircle
 10
115.103549
 20
168.12088
 30
0.0
 40
0.45
  0
HATCH
  5
27C
100
AcDbEntity
  8
ASSEMBLY_OUTLINES_TOP
100
AcDbHatch
 10
0.0
 20
0.0
 30
0.0
210
0.0
220
0.0
230
1.0
  2
SOLID
 70
         1
 71
         1
 91
        1
 92
        1
 93
        1
 72
         2
 10
115.103549
 20
168.12088
 40
0.45
 50
0.0
 51
360.0
 73
         1
 97
        1
330
27B
 75
         0
 76
         1
 98
        1
 10
0.0
 20
0.0
  0
CIRCLE
  5
27D
100
AcDbEntity
  8
ASSEMBLY_OUTLINES_TOP
100
AcDbCircle
 10
117.643549
 20
168.12088
 30
0.0
 40
0.45
  0
HATCH
  5
27E
100
AcDbEntity
  8
ASSEMBLY_OUTLINES_TOP
100
AcDbHatch
 10
0.0
 20
0.0
 30
0.0
210
0.0
220
0.0
230
1.0
  2
SOLID
 70
         1
 71
         1
 91
        1
 92
        1
 93
        1
 72
         2
 10
117.64354899999999
 20
168.12088
 40
0.45
 50
0.0
 51
360.0
 73
         1
 97
        1
330
27D
 75
         0
 76
         1
 98
        1
 10
0.0
 20
0.0
  0
CIRCLE
  5
27F
100
AcDbEntity
  8
ASSEMBLY_OUTLINES_TOP
100
AcDbCircle
 10
120.183549
 20
168.12088
 30
0.0
 40
0.45
  0
HATCH
  5
280
100
AcDbEntity
  8
ASSEMBLY_OUTLINES_TOP
100
AcDbHatch
 10
0.0
 20
0.0
 30
0.0
210
0.0
220
0.0
230
1.0
  2
SOLID
 70
         1
 71
         1
 91
        1
 92
        1
 93
        1
 72
         2
 10
120.183549
 20
168.12088
 40
0.45
 50
0.0
 51
360.0
 73
         1
 97
        1
330
27F
 75
         0
 76
         1
 98
        1
 10
0.0
 20
0.0
  0
CIRCLE
  5
281
100
AcDbEntity
  8
ASSEMBLY_OUTLINES_TOP
100
AcDbCircle
 10
122.723549
 20
168.12088
 30
0.0
 40
0.45
  0
HATCH
  5
282
100
AcDbEntity
  8
ASSEMBLY_OUTLINES_TOP
100
AcDbHatch
 10
0.0
 20
0.0
 30
0.0
210
0.0
220
0.0
230
1.0
  2
SOLID
 70
         1
 71
         1
 91
        1
 92
        1
 93
        1
 72
         2
 10
122.72354900000001
 20
168.12088
 40
0.45
 50
0.0
 51
360.0
 73
         1
 97
        1
330
281
 75
         0
 76
         1
 98
        1
 10
0.0
 20
0.0
  0
CIRCLE
  5
283
100
AcDbEntity
  8
ASSEMBLY_OUTLINES_TOP
100
AcDbCircle
 10
125.263549
 20
168.12088
 30
0.0
 40
0.45
  0
HATCH
  5
284
100
AcDbEntity
  8
ASSEMBLY_OUTLINES_TOP
100
AcDbHatch
 10
0.0
 20
0.0
 30
0.0
210
0.0
220
0.0
230
1.0
  2
SOLID
 70
         1
 71
         1
 91
        1
 92
        1
 93
        1
 72
         2
 10
125.263549
 20
168.12088
 40
0.45
 50
0.0
 51
360.0
 73
         1
 97
        1
330
283
 75
         0
 76
         1
 98
        1
 10
0.0
 20
0.0
  0
CIRCLE
  5
285
100
AcDbEntity
  8
ASSEMBLY_OUTLINES_TOP
100
AcDbCircle
 10
127.803549
 20
168.12088
 30
0.0
 40
0.45
  0
HATCH
  5
286
100
AcDbEntity
  8
ASSEMBLY_OUTLINES_TOP
100
AcDbHatch
 10
0.0
 20
0.0
 30
0.0
210
0.0
220
0.0
230
1.0
  2
SOLID
 70
         1
 71
         1
 91
        1
 92
        1
 93
        1
 72
         2
 10
127.803549
 20
168.12088
 40
0.45
 50
0.0
 51
360.0
 73
         1
 97
        1
330
285
 75
         0
 76
         1
 98
        1
 10
0.0
 20
0.0
  0
CIRCLE
  5
287
100
AcDbEntity
  8
ASSEMBLY_OUTLINES_TOP
100
AcDbCircle
 10
130.343549
 20
168.12088
 30
0.0
 40
0.45
  0
HATCH
  5
288
100
AcDbEntity
  8
ASSEMBLY_OUTLINES_TOP
100
AcDbHatch
 10
0.0
 20
0.0
 30
0.0
210
0.0
220
0.0
230
1.0
  2
SOLID
 70
         1
 71
         1
 91
        1
 92
        1
 93
        1
 72
         2
 10
130.343549
 20
168.12088
 40
0.45
 50
0.0
 51
360.0
 73
         1
 97
        1
330
287
 75
         0
 76
         1
 98
        1
 10
0.0
 20
0.0
  0
CIRCLE
  5
289
100
AcDbEntity
  8
ASSEMBLY_OUTLINES_TOP
100
AcDbCircle
 10
132.883549
 20
168.12088
 30
0.0
 40
0.45
  0
HATCH
  5
28A
100
AcDbEntity
  8
ASSEMBLY_OUTLINES_TOP
100
AcDbHatch
 10
0.0
 20
0.0
 30
0.0
210
0.0
220
0.0
230
1.0
  2
SOLID
 70
         1
 71
         1
 91
        1
 92
        1
 93
        1
 72
         2
 10
132.88354899999999
 20
168.12088
 40
0.45
 50
0.0
 51
360.0
 73
         1
 97
        1
330
289
 75
         0
 76
         1
 98
        1
 10
0.0
 20
0.0
  0
LWPOLYLINE
  5
28B
100
AcDbEntity
  8
ASSEMBLY_OUTLINES_TOP
100
AcDbPolyline
 90
        4
 70
         1
 43
0.1
 10
37.275
 20
130.35
 10
37.275
 20
131.65
 10
40.175
 20
131.65
 10
40.175
 20
130.35
  0
LWPOLYLINE
  5
28C
100
AcDbEntity
  8
ASSEMBLY_OUTLINES_TOP
100
AcDbPolyline
 90
        4
 70
         1
 43
0.1
 10
78.7
 20
146.4
 10
78.7
 20
149.2
 10
80.0
 20
149.2
 10
80.0
 20
146.4
  0
LWPOLYLINE
  5
28D
100
AcDbEntity
  8
ASSEMBLY_OUTLINES_TOP
100
AcDbPolyline
 90
        4
 70
         1
 43
0.1
 10
63.15
 20
86.45
 10
63.15
 20
87.75
 10
66.05
 20
87.75
 10
66.05
 20
86.45
  0
LWPOLYLINE
  5
28E
100
AcDbEntity
  8
ASSEMBLY_OUTLINES_TOP
100
AcDbPolyline
 90
        4
 70
         1
 43
0.1
 10
2.85
 20
152.45
 10
2.85
 20
155.65
 10
4.45
 20
155.65
 10
4.45
 20
152.45
  0
LWPOLYLINE
  5
28F
100
AcDbEntity
  8
ASSEMBLY_OUTLINES_TOP
100
AcDbPolyline
 90
        4
 70
         1
 43
0.1
 10
17.4
 20
91.75
 10
17.4
 20
110.25
 10
29.5
 20
110.25
 10
29.5
 20
91.75
  0
LWPOLYLINE
  5
290
100
AcDbEntity
  8
ASSEMBLY_OUTLINES_TOP
100
AcDbPolyline
 90
        2
 70
         1
 43
0.1
 10
17.9
 20
92.75
 42
-1.0
 10
18.9
 20
92.75
 42
-1.0
  0
LWPOLYLINE
  5
291
100
AcDbEntity
  8
ASSEMBLY_OUTLINES_TOP
100
AcDbPolyline
 90
        4
 70
         1
 43
0.1
 10
49.15
 20
100.45
 10
49.15
 20
103.25
 10
50.45
 20
103.25
 10
50.45
 20
100.45
  0
LWPOLYLINE
  5
292
100
AcDbEntity
  8
ASSEMBLY_OUTLINES_TOP
100
AcDbPolyline
 90
        4
 70
         1
 43
0.1
 10
63.15
 20
87.9
 10
63.15
 20
89.2
 10
66.05
 20
89.2
 10
66.05
 20
87.9
  0
LWPOLYLINE
  5
293
100
AcDbEntity
  8
ASSEMBLY_OUTLINES_TOP
100
AcDbPolyline
 90
        4
 70
         1
 43
0.1
 10
39.975
 20
123.35
 10
39.975
 20
125.15
 10
43.275
 20
125.15
 10
43.275
 20
123.35
  0
LWPOLYLINE
  5
294
100
AcDbEntity
  8
ASSEMBLY_OUTLINES_TOP
100
AcDbPolyline
 90
        4
 70
         1
 43
0.1
 10
51.3
 20
156.55
 10
51.3
 20
159.35
 10
52.6
 20
159.35
 10
52.6
 20
156.55
  0
LWPOLYLINE
  5
295
100
AcDbEntity
  8
ASSEMBLY_OUTLINES_TOP
100
AcDbPolyline
 90
        4
 70
         1
 43
0.1
 10
58.35
 20
107.6
 10
58.35
 20
110.8
 10
59.95
 20
110.8
 10
59.95
 20
107.6
  0
LWPOLYLINE
  5
296
100
AcDbEntity
  8
ASSEMBLY_OUTLINES_TOP
100
AcDbPolyline
 90
        4
 70
         1
 10
-7.705
 20
95.95
 10
-7.705
 20
146.75
 10
-2.625
 20
146.75
 10
-2.625
 20
95.95
  0
CIRCLE
  5
297
100
AcDbEntity
  8
ASSEMBLY_OUTLINES_TOP
100
AcDbCircle
 10
-3.88456
 20
97.218225
 30
0.0
 40
0.45
  0
HATCH
  5
298
100
AcDbEntity
  8
ASSEMBLY_OUTLINES_TOP
100
AcDbHatch
 10
0.0
 20
0.0
 30
0.0
210
0.0
220
0.0
230
1.0
  2
SOLID
 70
         1
 71
         1
 91
        1
 92
        1
 93
        1
 72
         2
 10
-3.88456
 20
97.218225000000004
 40
0.45
 50
0.0
 51
360.0
 73
         1
 97
        1
330
297
 75
         0
 76
         1
 98
        1
 10
0.0
 20
0.0
  0
CIRCLE
  5
299
100
AcDbEntity
  8
ASSEMBLY_OUTLINES_TOP
100
AcDbCircle
 10
-3.88456
 20
99.758225
 30
0.0
 40
0.45
  0
HATCH
  5
29A
100
AcDbEntity
  8
ASSEMBLY_OUTLINES_TOP
100
AcDbHatch
 10
0.0
 20
0.0
 30
0.0
210
0.0
220
0.0
230
1.0
  2
SOLID
 70
         1
 71
         1
 91
        1
 92
        1
 93
        1
 72
         2
 10
-3.88456
 20
99.758224999999996
 40
0.45
 50
0.0
 51
360.0
 73
         1
 97
        1
330
299
 75
         0
 76
         1
 98
        1
 10
0.0
 20
0.0
  0
CIRCLE
  5
29B
100
AcDbEntity
  8
ASSEMBLY_OUTLINES_TOP
100
AcDbCircle
 10
-3.88456
 20
102.298225
 30
0.0
 40
0.45
  0
HATCH
  5
29C
100
AcDbEntity
  8
ASSEMBLY_OUTLINES_TOP
100
AcDbHatch
 10
0.0
 20
0.0
 30
0.0
210
0.0
220
0.0
230
1.0
  2
SOLID
 70
         1
 71
         1
 91
        1
 92
        1
 93
        1
 72
         2
 10
-3.88456
 20
102.298225
 40
0.45
 50
0.0
 51
360.0
 73
         1
 97
        1
330
29B
 75
         0
 76
         1
 98
        1
 10
0.0
 20
0.0
  0
CIRCLE
  5
29D
100
AcDbEntity
  8
ASSEMBLY_OUTLINES_TOP
100
AcDbCircle
 10
-3.88456
 20
104.838225
 30
0.0
 40
0.45
  0
HATCH
  5
29E
100
AcDbEntity
  8
ASSEMBLY_OUTLINES_TOP
100
AcDbHatch
 10
0.0
 20
0.0
 30
0.0
210
0.0
220
0.0
230
1.0
  2
SOLID
 70
         1
 71
         1
 91
        1
 92
        1
 93
        1
 72
         2
 10
-3.88456
 20
104.83822499999999
 40
0.45
 50
0.0
 51
360.0
 73
         1
 97
        1
330
29D
 75
         0
 76
         1
 98
        1
 10
0.0
 20
0.0
  0
CIRCLE
  5
29F
100
AcDbEntity
  8
ASSEMBLY_OUTLINES_TOP
100
AcDbCircle
 10
-3.88456
 20
107.378225
 30
0.0
 40
0.45
  0
HATCH
  5
2A0
100
AcDbEntity
  8
ASSEMBLY_OUTLINES_TOP
100
AcDbHatch
 10
0.0
 20
0.0
 30
0.0
210
0.0
220
0.0
230
1.0
  2
SOLID
 70
         1
 71
         1
 91
        1
 92
        1
 93
        1
 72
         2
 10
-3.88456
 20
107.378225
 40
0.45
 50
0.0
 51
360.0
 73
         1
 97
        1
330
29F
 75
         0
 76
         1
 98
        1
 10
0.0
 20
0.0
  0
CIRCLE
  5
2A1
100
AcDbEntity
  8
ASSEMBLY_OUTLINES_TOP
100
AcDbCircle
 10
-3.88456
 20
109.918225
 30
0.0
 40
0.45
  0
HATCH
  5
2A2
100
AcDbEntity
  8
ASSEMBLY_OUTLINES_TOP
100
AcDbHatch
 10
0.0
 20
0.0
 30
0.0
210
0.0
220
0.0
230
1.0
  2
SOLID
 70
         1
 71
         1
 91
        1
 92
        1
 93
        1
 72
         2
 10
-3.88456
 20
109.91822500000001
 40
0.45
 50
0.0
 51
360.0
 73
         1
 97
        1
330
2A1
 75
         0
 76
         1
 98
        1
 10
0.0
 20
0.0
  0
CIRCLE
  5
2A3
100
AcDbEntity
  8
ASSEMBLY_OUTLINES_TOP
100
AcDbCircle
 10
-3.88456
 20
112.458225
 30
0.0
 40
0.45
  0
HATCH
  5
2A4
100
AcDbEntity
  8
ASSEMBLY_OUTLINES_TOP
100
AcDbHatch
 10
0.0
 20
0.0
 30
0.0
210
0.0
220
0.0
230
1.0
  2
SOLID
 70
         1
 71
         1
 91
        1
 92
        1
 93
        1
 72
         2
 10
-3.88456
 20
112.458225
 40
0.45
 50
0.0
 51
360.0
 73
         1
 97
        1
330
2A3
 75
         0
 76
         1
 98
        1
 10
0.0
 20
0.0
  0
CIRCLE
  5
2A5
100
AcDbEntity
  8
ASSEMBLY_OUTLINES_TOP
100
AcDbCircle
 10
-3.88456
 20
114.998225
 30
0.0
 40
0.45
  0
HATCH
  5
2A6
100
AcDbEntity
  8
ASSEMBLY_OUTLINES_TOP
100
AcDbHatch
 10
0.0
 20
0.0
 30
0.0
210
0.0
220
0.0
230
1.0
  2
SOLID
 70
         1
 71
         1
 91
        1
 92
        1
 93
        1
 72
         2
 10
-3.88456
 20
114.99822500000001
 40
0.45
 50
0.0
 51
360.0
 73
         1
 97
        1
330
2A5
 75
         0
 76
         1
 98
        1
 10
0.0
 20
0.0
  0
CIRCLE
  5
2A7
100
AcDbEntity
  8
ASSEMBLY_OUTLINES_TOP
100
AcDbCircle
 10
-3.88456
 20
117.538225
 30
0.0
 40
0.45
  0
HATCH
  5
2A8
100
AcDbEntity
  8
ASSEMBLY_OUTLINES_TOP
100
AcDbHatch
 10
0.0
 20
0.0
 30
0.0
210
0.0
220
0.0
230
1.0
  2
SOLID
 70
         1
 71
         1
 91
        1
 92
        1
 93
        1
 72
         2
 10
-3.88456
 20
117.538225
 40
0.45
 50
0.0
 51
360.0
 73
         1
 97
        1
330
2A7
 75
         0
 76
         1
 98
        1
 10
0.0
 20
0.0
  0
CIRCLE
  5
2A9
100
AcDbEntity
  8
ASSEMBLY_OUTLINES_TOP
100
AcDbCircle
 10
-3.88456
 20
120.078225
 30
0.0
 40
0.45
  0
HATCH
  5
2AA
100
AcDbEntity
  8
ASSEMBLY_OUTLINES_TOP
100
AcDbHatch
 10
0.0
 20
0.0
 30
0.0
210
0.0
220
0.0
230
1.0
  2
SOLID
 70
         1
 71
         1
 91
        1
 92
        1
 93
        1
 72
         2
 10
-3.88456
 20
120.078225
 40
0.45
 50
0.0
 51
360.0
 73
         1
 97
        1
330
2A9
 75
         0
 76
         1
 98
        1
 10
0.0
 20
0.0
  0
CIRCLE
  5
2AB
100
AcDbEntity
  8
ASSEMBLY_OUTLINES_TOP
100
AcDbCircle
 10
-3.87544
 20
122.621774
 30
0.0
 40
0.45
  0
HATCH
  5
2AC
100
AcDbEntity
  8
ASSEMBLY_OUTLINES_TOP
100
AcDbHatch
 10
0.0
 20
0.0
 30
0.0
210
0.0
220
0.0
230
1.0
  2
SOLID
 70
         1
 71
         1
 91
        1
 92
        1
 93
        1
 72
         2
 10
-3.8754400000000002
 20
122.621774
 40
0.45
 50
0.0
 51
360.0
 73
         1
 97
        1
330
2AB
 75
         0
 76
         1
 98
        1
 10
0.0
 20
0.0
  0
CIRCLE
  5
2AD
100
AcDbEntity
  8
ASSEMBLY_OUTLINES_TOP
100
AcDbCircle
 10
-3.87544
 20
125.161774
 30
0.0
 40
0.45
  0
HATCH
  5
2AE
100
AcDbEntity
  8
ASSEMBLY_OUTLINES_TOP
100
AcDbHatch
 10
0.0
 20
0.0
 30
0.0
210
0.0
220
0.0
230
1.0
  2
SOLID
 70
         1
 71
         1
 91
        1
 92
        1
 93
        1
 72
         2
 10
-3.8754400000000002
 20
125.16177399999999
 40
0.45
 50
0.0
 51
360.0
 73
         1
 97
        1
330
2AD
 75
         0
 76
         1
 98
        1
 10
0.0
 20
0.0
  0
CIRCLE
  5
2AF
100
AcDbEntity
  8
ASSEMBLY_OUTLINES_TOP
100
AcDbCircle
 10
-3.87544
 20
127.701774
 30
0.0
 40
0.45
  0
HATCH
  5
2B0
100
AcDbEntity
  8
ASSEMBLY_OUTLINES_TOP
100
AcDbHatch
 10
0.0
 20
0.0
 30
0.0
210
0.0
220
0.0
230
1.0
  2
SOLID
 70
         1
 71
         1
 91
        1
 92
        1
 93
        1
 72
         2
 10
-3.8754400000000002
 20
127.701774
 40
0.45
 50
0.0
 51
360.0
 73
         1
 97
        1
330
2AF
 75
         0
 76
         1
 98
        1
 10
0.0
 20
0.0
  0
CIRCLE
  5
2B1
100
AcDbEntity
  8
ASSEMBLY_OUTLINES_TOP
100
AcDbCircle
 10
-3.87544
 20
130.241774
 30
0.0
 40
0.45
  0
HATCH
  5
2B2
100
AcDbEntity
  8
ASSEMBLY_OUTLINES_TOP
100
AcDbHatch
 10
0.0
 20
0.0
 30
0.0
210
0.0
220
0.0
230
1.0
  2
SOLID
 70
         1
 71
         1
 91
        1
 92
        1
 93
        1
 72
         2
 10
-3.8754400000000002
 20
130.24177399999999
 40
0.45
 50
0.0
 51
360.0
 73
         1
 97
        1
330
2B1
 75
         0
 76
         1
 98
        1
 10
0.0
 20
0.0
  0
CIRCLE
  5
2B3
100
AcDbEntity
  8
ASSEMBLY_OUTLINES_TOP
100
AcDbCircle
 10
-3.87544
 20
132.781774
 30
0.0
 40
0.45
  0
HATCH
  5
2B4
100
AcDbEntity
  8
ASSEMBLY_OUTLINES_TOP
100
AcDbHatch
 10
0.0
 20
0.0
 30
0.0
210
0.0
220
0.0
230
1.0
  2
SOLID
 70
         1
 71
         1
 91
        1
 92
        1
 93
        1
 72
         2
 10
-3.8754400000000002
 20
132.78177400000001
 40
0.45
 50
0.0
 51
360.0
 73
         1
 97
        1
330
2B3
 75
         0
 76
         1
 98
        1
 10
0.0
 20
0.0
  0
CIRCLE
  5
2B5
100
AcDbEntity
  8
ASSEMBLY_OUTLINES_TOP
100
AcDbCircle
 10
-3.87544
 20
135.321774
 30
0.0
 40
0.45
  0
HATCH
  5
2B6
100
AcDbEntity
  8
ASSEMBLY_OUTLINES_TOP
100
AcDbHatch
 10
0.0
 20
0.0
 30
0.0
210
0.0
220
0.0
230
1.0
  2
SOLID
 70
         1
 71
         1
 91
        1
 92
        1
 93
        1
 72
         2
 10
-3.8754400000000002
 20
135.321774
 40
0.45
 50
0.0
 51
360.0
 73
         1
 97
        1
330
2B5
 75
         0
 76
         1
 98
        1
 10
0.0
 20
0.0
  0
CIRCLE
  5
2B7
100
AcDbEntity
  8
ASSEMBLY_OUTLINES_TOP
100
AcDbCircle
 10
-3.87544
 20
137.861774
 30
0.0
 40
0.45
  0
HATCH
  5
2B8
100
AcDbEntity
  8
ASSEMBLY_OUTLINES_TOP
100
AcDbHatch
 10
0.0
 20
0.0
 30
0.0
210
0.0
220
0.0
230
1.0
  2
SOLID
 70
         1
 71
         1
 91
        1
 92
        1
 93
        1
 72
         2
 10
-3.8754400000000002
 20
137.861774
 40
0.45
 50
0.0
 51
360.0
 73
         1
 97
        1
330
2B7
 75
         0
 76
         1
 98
        1
 10
0.0
 20
0.0
  0
CIRCLE
  5
2B9
100
AcDbEntity
  8
ASSEMBLY_OUTLINES_TOP
100
AcDbCircle
 10
-3.87544
 20
140.401774
 30
0.0
 40
0.45
  0
HATCH
  5
2BA
100
AcDbEntity
  8
ASSEMBLY_OUTLINES_TOP
100
AcDbHatch
 10
0.0
 20
0.0
 30
0.0
210
0.0
220
0.0
230
1.0
  2
SOLID
 70
         1
 71
         1
 91
        1
 92
        1
 93
        1
 72
         2
 10
-3.8754400000000002
 20
140.40177399999999
 40
0.45
 50
0.0
 51
360.0
 73
         1
 97
        1
330
2B9
 75
         0
 76
         1
 98
        1
 10
0.0
 20
0.0
  0
CIRCLE
  5
2BB
100
AcDbEntity
  8
ASSEMBLY_OUTLINES_TOP
100
AcDbCircle
 10
-3.87544
 20
142.941774
 30
0.0
 40
0.45
  0
HATCH
  5
2BC
100
AcDbEntity
  8
ASSEMBLY_OUTLINES_TOP
100
AcDbHatch
 10
0.0
 20
0.0
 30
0.0
210
0.0
220
0.0
230
1.0
  2
SOLID
 70
         1
 71
         1
 91
        1
 92
        1
 93
        1
 72
         2
 10
-3.8754400000000002
 20
142.94177400000001
 40
0.45
 50
0.0
 51
360.0
 73
         1
 97
        1
330
2BB
 75
         0
 76
         1
 98
        1
 10
0.0
 20
0.0
  0
CIRCLE
  5
2BD
100
AcDbEntity
  8
ASSEMBLY_OUTLINES_TOP
100
AcDbCircle
 10
-3.87544
 20
145.481774
 30
0.0
 40
0.45
  0
HATCH
  5
2BE
100
AcDbEntity
  8
ASSEMBLY_OUTLINES_TOP
100
AcDbHatch
 10
0.0
 20
0.0
 30
0.0
210
0.0
220
0.0
230
1.0
  2
SOLID
 70
         1
 71
         1
 91
        1
 92
        1
 93
        1
 72
         2
 10
-3.8754400000000002
 20
145.481774
 40
0.45
 50
0.0
 51
360.0
 73
         1
 97
        1
330
2BD
 75
         0
 76
         1
 98
        1
 10
0.0
 20
0.0
  0
CIRCLE
  5
2BF
100
AcDbEntity
  8
ASSEMBLY_OUTLINES_TOP
100
AcDbCircle
 10
-6.42
 20
97.22
 30
0.0
 40
0.45
  0
HATCH
  5
2C0
100
AcDbEntity
  8
ASSEMBLY_OUTLINES_TOP
100
AcDbHatch
 10
0.0
 20
0.0
 30
0.0
210
0.0
220
0.0
230
1.0
  2
SOLID
 70
         1
 71
         1
 91
        1
 92
        1
 93
        1
 72
         2
 10
-6.4199999999999999
 20
97.219999999999999
 40
0.45
 50
0.0
 51
360.0
 73
         1
 97
        1
330
2BF
 75
         0
 76
         1
 98
        1
 10
0.0
 20
0.0
  0
CIRCLE
  5
2C1
100
AcDbEntity
  8
ASSEMBLY_OUTLINES_TOP
100
AcDbCircle
 10
-6.42
 20
99.76
 30
0.0
 40
0.45
  0
HATCH
  5
2C2
100
AcDbEntity
  8
ASSEMBLY_OUTLINES_TOP
100
AcDbHatch
 10
0.0
 20
0.0
 30
0.0
210
0.0
220
0.0
230
1.0
  2
SOLID
 70
         1
 71
         1
 91
        1
 92
        1
 93
        1
 72
         2
 10
-6.4199999999999999
 20
99.760000000000005
 40
0.45
 50
0.0
 51
360.0
 73
         1
 97
        1
330
2C1
 75
         0
 76
         1
 98
        1
 10
0.0
 20
0.0
  0
CIRCLE
  5
2C3
100
AcDbEntity
  8
ASSEMBLY_OUTLINES_TOP
100
AcDbCircle
 10
-6.42
 20
102.3
 30
0.0
 40
0.45
  0
HATCH
  5
2C4
100
AcDbEntity
  8
ASSEMBLY_OUTLINES_TOP
100
AcDbHatch
 10
0.0
 20
0.0
 30
0.0
210
0.0
220
0.0
230
1.0
  2
SOLID
 70
         1
 71
         1
 91
        1
 92
        1
 93
        1
 72
         2
 10
-6.4199999999999999
 20
102.3
 40
0.45
 50
0.0
 51
360.0
 73
         1
 97
        1
330
2C3
 75
         0
 76
         1
 98
        1
 10
0.0
 20
0.0
  0
CIRCLE
  5
2C5
100
AcDbEntity
  8
ASSEMBLY_OUTLINES_TOP
100
AcDbCircle
 10
-6.42
 20
104.84
 30
0.0
 40
0.45
  0
HATCH
  5
2C6
100
AcDbEntity
  8
ASSEMBLY_OUTLINES_TOP
100
AcDbHatch
 10
0.0
 20
0.0
 30
0.0
210
0.0
220
0.0
230
1.0
  2
SOLID
 70
         1
 71
         1
 91
        1
 92
        1
 93
        1
 72
         2
 10
-6.4199999999999999
 20
104.84
 40
0.45
 50
0.0
 51
360.0
 73
         1
 97
        1
330
2C5
 75
         0
 76
         1
 98
        1
 10
0.0
 20
0.0
  0
CIRCLE
  5
2C7
100
AcDbEntity
  8
ASSEMBLY_OUTLINES_TOP
100
AcDbCircle
 10
-6.42
 20
107.38
 30
0.0
 40
0.45
  0
HATCH
  5
2C8
100
AcDbEntity
  8
ASSEMBLY_OUTLINES_TOP
100
AcDbHatch
 10
0.0
 20
0.0
 30
0.0
210
0.0
220
0.0
230
1.0
  2
SOLID
 70
         1
 71
         1
 91
        1
 92
        1
 93
        1
 72
         2
 10
-6.4199999999999999
 20
107.38
 40
0.45
 50
0.0
 51
360.0
 73
         1
 97
        1
330
2C7
 75
         0
 76
         1
 98
        1
 10
0.0
 20
0.0
  0
CIRCLE
  5
2C9
100
AcDbEntity
  8
ASSEMBLY_OUTLINES_TOP
100
AcDbCircle
 10
-6.42
 20
109.92
 30
0.0
 40
0.45
  0
HATCH
  5
2CA
100
AcDbEntity
  8
ASSEMBLY_OUTLINES_TOP
100
AcDbHatch
 10
0.0
 20
0.0
 30
0.0
210
0.0
220
0.0
230
1.0
  2
SOLID
 70
         1
 71
         1
 91
        1
 92
        1
 93
        1
 72
         2
 10
-6.4199999999999999
 20
109.92
 40
0.45
 50
0.0
 51
360.0
 73
         1
 97
        1
330
2C9
 75
         0
 76
         1
 98
        1
 10
0.0
 20
0.0
  0
CIRCLE
  5
2CB
100
AcDbEntity
  8
ASSEMBLY_OUTLINES_TOP
100
AcDbCircle
 10
-6.42
 20
112.46
 30
0.0
 40
0.45
  0
HATCH
  5
2CC
100
AcDbEntity
  8
ASSEMBLY_OUTLINES_TOP
100
AcDbHatch
 10
0.0
 20
0.0
 30
0.0
210
0.0
220
0.0
230
1.0
  2
SOLID
 70
         1
 71
         1
 91
        1
 92
        1
 93
        1
 72
         2
 10
-6.4199999999999999
 20
112.45999999999999
 40
0.45
 50
0.0
 51
360.0
 73
         1
 97
        1
330
2CB
 75
         0
 76
         1
 98
        1
 10
0.0
 20
0.0
  0
CIRCLE
  5
2CD
100
AcDbEntity
  8
ASSEMBLY_OUTLINES_TOP
100
AcDbCircle
 10
-6.42
 20
115.0
 30
0.0
 40
0.45
  0
HATCH
  5
2CE
100
AcDbEntity
  8
ASSEMBLY_OUTLINES_TOP
100
AcDbHatch
 10
0.0
 20
0.0
 30
0.0
210
0.0
220
0.0
230
1.0
  2
SOLID
 70
         1
 71
         1
 91
        1
 92
        1
 93
        1
 72
         2
 10
-6.4199999999999999
 20
115.0
 40
0.45
 50
0.0
 51
360.0
 73
         1
 97
        1
330
2CD
 75
         0
 76
         1
 98
        1
 10
0.0
 20
0.0
  0
CIRCLE
  5
2CF
100
AcDbEntity
  8
ASSEMBLY_OUTLINES_TOP
100
AcDbCircle
 10
-6.42
 20
117.54
 30
0.0
 40
0.45
  0
HATCH
  5
2D0
100
AcDbEntity
  8
ASSEMBLY_OUTLINES_TOP
100
AcDbHatch
 10
0.0
 20
0.0
 30
0.0
210
0.0
220
0.0
230
1.0
  2
SOLID
 70
         1
 71
         1
 91
        1
 92
        1
 93
        1
 72
         2
 10
-6.4199999999999999
 20
117.54000000000001
 40
0.45
 50
0.0
 51
360.0
 73
         1
 97
        1
330
2CF
 75
         0
 76
         1
 98
        1
 10
0.0
 20
0.0
  0
CIRCLE
  5
2D1
100
AcDbEntity
  8
ASSEMBLY_OUTLINES_TOP
100
AcDbCircle
 10
-6.42
 20
120.08
 30
0.0
 40
0.45
  0
HATCH
  5
2D2
100
AcDbEntity
  8
ASSEMBLY_OUTLINES_TOP
100
AcDbHatch
 10
0.0
 20
0.0
 30
0.0
210
0.0
220
0.0
230
1.0
  2
SOLID
 70
         1
 71
         1
 91
        1
 92
        1
 93
        1
 72
         2
 10
-6.4199999999999999
 20
120.08
 40
0.45
 50
0.0
 51
360.0
 73
         1
 97
        1
330
2D1
 75
         0
 76
         1
 98
        1
 10
0.0
 20
0.0
  0
CIRCLE
  5
2D3
100
AcDbEntity
  8
ASSEMBLY_OUTLINES_TOP
100
AcDbCircle
 10
-6.42088
 20
122.623549
 30
0.0
 40
0.45
  0
HATCH
  5
2D4
100
AcDbEntity
  8
ASSEMBLY_OUTLINES_TOP
100
AcDbHatch
 10
0.0
 20
0.0
 30
0.0
210
0.0
220
0.0
230
1.0
  2
SOLID
 70
         1
 71
         1
 91
        1
 92
        1
 93
        1
 72
         2
 10
-6.4208800000000004
 20
122.623549
 40
0.45
 50
0.0
 51
360.0
 73
         1
 97
        1
330
2D3
 75
         0
 76
         1
 98
        1
 10
0.0
 20
0.0
  0
CIRCLE
  5
2D5
100
AcDbEntity
  8
ASSEMBLY_OUTLINES_TOP
100
AcDbCircle
 10
-6.42088
 20
125.163549
 30
0.0
 40
0.45
  0
HATCH
  5
2D6
100
AcDbEntity
  8
ASSEMBLY_OUTLINES_TOP
100
AcDbHatch
 10
0.0
 20
0.0
 30
0.0
210
0.0
220
0.0
230
1.0
  2
SOLID
 70
         1
 71
         1
 91
        1
 92
        1
 93
        1
 72
         2
 10
-6.4208800000000004
 20
125.163549
 40
0.45
 50
0.0
 51
360.0
 73
         1
 97
        1
330
2D5
 75
         0
 76
         1
 98
        1
 10
0.0
 20
0.0
  0
CIRCLE
  5
2D7
100
AcDbEntity
  8
ASSEMBLY_OUTLINES_TOP
100
AcDbCircle
 10
-6.42088
 20
127.703549
 30
0.0
 40
0.45
  0
HATCH
  5
2D8
100
AcDbEntity
  8
ASSEMBLY_OUTLINES_TOP
100
AcDbHatch
 10
0.0
 20
0.0
 30
0.0
210
0.0
220
0.0
230
1.0
  2
SOLID
 70
         1
 71
         1
 91
        1
 92
        1
 93
        1
 72
         2
 10
-6.4208800000000004
 20
127.703549
 40
0.45
 50
0.0
 51
360.0
 73
         1
 97
        1
330
2D7
 75
         0
 76
         1
 98
        1
 10
0.0
 20
0.0
  0
CIRCLE
  5
2D9
100
AcDbEntity
  8
ASSEMBLY_OUTLINES_TOP
100
AcDbCircle
 10
-6.42088
 20
130.243549
 30
0.0
 40
0.45
  0
HATCH
  5
2DA
100
AcDbEntity
  8
ASSEMBLY_OUTLINES_TOP
100
AcDbHatch
 10
0.0
 20
0.0
 30
0.0
210
0.0
220
0.0
230
1.0
  2
SOLID
 70
         1
 71
         1
 91
        1
 92
        1
 93
        1
 72
         2
 10
-6.4208800000000004
 20
130.243549
 40
0.45
 50
0.0
 51
360.0
 73
         1
 97
        1
330
2D9
 75
         0
 76
         1
 98
        1
 10
0.0
 20
0.0
  0
CIRCLE
  5
2DB
100
AcDbEntity
  8
ASSEMBLY_OUTLINES_TOP
100
AcDbCircle
 10
-6.42088
 20
132.783549
 30
0.0
 40
0.45
  0
HATCH
  5
2DC
100
AcDbEntity
  8
ASSEMBLY_OUTLINES_TOP
100
AcDbHatch
 10
0.0
 20
0.0
 30
0.0
210
0.0
220
0.0
230
1.0
  2
SOLID
 70
         1
 71
         1
 91
        1
 92
        1
 93
        1
 72
         2
 10
-6.4208800000000004
 20
132.78354899999999
 40
0.45
 50
0.0
 51
360.0
 73
         1
 97
        1
330
2DB
 75
         0
 76
         1
 98
        1
 10
0.0
 20
0.0
  0
CIRCLE
  5
2DD
100
AcDbEntity
  8
ASSEMBLY_OUTLINES_TOP
100
AcDbCircle
 10
-6.42088
 20
135.323549
 30
0.0
 40
0.45
  0
HATCH
  5
2DE
100
AcDbEntity
  8
ASSEMBLY_OUTLINES_TOP
100
AcDbHatch
 10
0.0
 20
0.0
 30
0.0
210
0.0
220
0.0
230
1.0
  2
SOLID
 70
         1
 71
         1
 91
        1
 92
        1
 93
        1
 72
         2
 10
-6.4208800000000004
 20
135.32354900000001
 40
0.45
 50
0.0
 51
360.0
 73
         1
 97
        1
330
2DD
 75
         0
 76
         1
 98
        1
 10
0.0
 20
0.0
  0
CIRCLE
  5
2DF
100
AcDbEntity
  8
ASSEMBLY_OUTLINES_TOP
100
AcDbCircle
 10
-6.42088
 20
137.863549
 30
0.0
 40
0.45
  0
HATCH
  5
2E0
100
AcDbEntity
  8
ASSEMBLY_OUTLINES_TOP
100
AcDbHatch
 10
0.0
 20
0.0
 30
0.0
210
0.0
220
0.0
230
1.0
  2
SOLID
 70
         1
 71
         1
 91
        1
 92
        1
 93
        1
 72
         2
 10
-6.4208800000000004
 20
137.86354900000001
 40
0.45
 50
0.0
 51
360.0
 73
         1
 97
        1
330
2DF
 75
         0
 76
         1
 98
        1
 10
0.0
 20
0.0
  0
CIRCLE
  5
2E1
100
AcDbEntity
  8
ASSEMBLY_OUTLINES_TOP
100
AcDbCircle
 10
-6.42088
 20
140.403549
 30
0.0
 40
0.45
  0
HATCH
  5
2E2
100
AcDbEntity
  8
ASSEMBLY_OUTLINES_TOP
100
AcDbHatch
 10
0.0
 20
0.0
 30
0.0
210
0.0
220
0.0
230
1.0
  2
SOLID
 70
         1
 71
         1
 91
        1
 92
        1
 93
        1
 72
         2
 10
-6.4208800000000004
 20
140.403549
 40
0.45
 50
0.0
 51
360.0
 73
         1
 97
        1
330
2E1
 75
         0
 76
         1
 98
        1
 10
0.0
 20
0.0
  0
CIRCLE
  5
2E3
100
AcDbEntity
  8
ASSEMBLY_OUTLINES_TOP
100
AcDbCircle
 10
-6.42088
 20
142.943549
 30
0.0
 40
0.45
  0
HATCH
  5
2E4
100
AcDbEntity
  8
ASSEMBLY_OUTLINES_TOP
100
AcDbHatch
 10
0.0
 20
0.0
 30
0.0
210
0.0
220
0.0
230
1.0
  2
SOLID
 70
         1
 71
         1
 91
        1
 92
        1
 93
        1
 72
         2
 10
-6.4208800000000004
 20
142.94354899999999
 40
0.45
 50
0.0
 51
360.0
 73
         1
 97
        1
330
2E3
 75
         0
 76
         1
 98
        1
 10
0.0
 20
0.0
  0
CIRCLE
  5
2E5
100
AcDbEntity
  8
ASSEMBLY_OUTLINES_TOP
100
AcDbCircle
 10
-6.42088
 20
145.483549
 30
0.0
 40
0.45
  0
HATCH
  5
2E6
100
AcDbEntity
  8
ASSEMBLY_OUTLINES_TOP
100
AcDbHatch
 10
0.0
 20
0.0
 30
0.0
210
0.0
220
0.0
230
1.0
  2
SOLID
 70
         1
 71
         1
 91
        1
 92
        1
 93
        1
 72
         2
 10
-6.4208800000000004
 20
145.48354900000001
 40
0.45
 50
0.0
 51
360.0
 73
         1
 97
        1
330
2E5
 75
         0
 76
         1
 98
        1
 10
0.0
 20
0.0
  0
LWPOLYLINE
  5
2E7
100
AcDbEntity
  8
ASSEMBLY_OUTLINES_TOP
100
AcDbPolyline
 90
        4
 70
         1
 43
0.1
 10
36.8
 20
152.45
 10
36.8
 20
155.25
 10
38.1
 20
155.25
 10
38.1
 20
152.45
  0
LWPOLYLINE
  5
2E8
100
AcDbEntity
  8
ASSEMBLY_OUTLINES_TOP
100
AcDbPolyline
 90
        4
 70
         1
 43
0.1
 10
40.375
 20
130.35
 10
40.375
 20
131.65
 10
43.275
 20
131.65
 10
43.275
 20
130.35
  0
LWPOLYLINE
  5
2E9
100
AcDbEntity
  8
ASSEMBLY_OUTLINES_TOP
100
AcDbPolyline
 90
        4
 70
         1
 10
1.48
 20
108.28
 10
1.48
 20
110.82
 10
6.56
 20
110.82
 10
6.56
 20
108.28
  0
LWPOLYLINE
  5
2EA
100
AcDbEntity
  8
ASSEMBLY_OUTLINES_TOP
100
AcDbPolyline
 90
        4
 70
         1
 43
0.1
 10
3.0
 20
91.3
 10
3.0
 20
94.5
 10
4.6
 20
94.5
 10
4.6
 20
91.3
  0
LWPOLYLINE
  5
2EB
100
AcDbEntity
  8
ASSEMBLY_OUTLINES_TOP
100
AcDbPolyline
 90
        4
 70
         1
 43
0.1
 10
85.3
 20
84.45
 10
85.3
 20
85.25
 10
86.5
 20
85.25
 10
86.5
 20
84.45
  0
LWPOLYLINE
  5
2EC
100
AcDbEntity
  8
ASSEMBLY_OUTLINES_TOP
100
AcDbPolyline
 90
        2
 70
         0
 43
0.1
 10
85.3
 20
84.45
 10
85.3
 20
85.25
  0
LWPOLYLINE
  5
2ED
100
AcDbEntity
  8
ASSEMBLY_OUTLINES_TOP
100
AcDbPolyline
 90
        2
 70
         0
 43
0.1
 10
85.4
 20
84.45
 10
85.4
 20
85.25
  0
LWPOLYLINE
  5
2EE
100
AcDbEntity
  8
ASSEMBLY_OUTLINES_TOP
100
AcDbPolyline
 90
        2
 70
         0
 43
0.1
 10
85.5
 20
84.45
 10
85.5
 20
85.25
  0
LWPOLYLINE
  5
2EF
100
AcDbEntity
  8
ASSEMBLY_OUTLINES_TOP
100
AcDbPolyline
 90
        2
 70
         0
 43
0.1
 10
85.6
 20
84.45
 10
85.6
 20
85.25
  0
LWPOLYLINE
  5
2F0
100
AcDbEntity
  8
ASSEMBLY_OUTLINES_TOP
100
AcDbPolyline
 90
        2
 70
         0
 43
0.1
 10
85.7
 20
84.45
 10
85.7
 20
85.25
  0
LWPOLYLINE
  5
2F1
100
AcDbEntity
  8
ASSEMBLY_OUTLINES_TOP
100
AcDbPolyline
 90
        2
 70
         0
 43
0.1
 10
85.8
 20
84.45
 10
85.8
 20
85.25
  0
LWPOLYLINE
  5
2F2
100
AcDbEntity
  8
ASSEMBLY_OUTLINES_TOP
100
AcDbPolyline
 90
        4
 70
         1
 43
0.1
 10
38.6
 20
90.55
 10
38.6
 20
91.85
 10
41.5
 20
91.85
 10
41.5
 20
90.55
  0
LWPOLYLINE
  5
2F3
100
AcDbEntity
  8
ASSEMBLY_OUTLINES_TOP
100
AcDbPolyline
 90
        4
 70
         1
 43
0.1
 10
76.7
 20
146.05
 10
76.7
 20
149.35
 10
78.5
 20
149.35
 10
78.5
 20
146.05
  0
LWPOLYLINE
  5
2F4
100
AcDbEntity
  8
ASSEMBLY_OUTLINES_TOP
100
AcDbPolyline
 90
        4
 70
         1
 10
1.48
 20
103.18
 10
1.48
 20
105.72
 10
6.56
 20
105.72
 10
6.56
 20
103.18
  0
LWPOLYLINE
  5
2F5
100
AcDbEntity
  8
ASSEMBLY_OUTLINES_TOP
100
AcDbPolyline
 90
        4
 70
         1
 43
0.1
 10
113.3
 20
95.8
 10
113.3
 20
97.1
 10
116.1
 20
97.1
 10
116.1
 20
95.8
  0
LWPOLYLINE
  5
2F6
100
AcDbEntity
  8
ASSEMBLY_OUTLINES_TOP
100
AcDbPolyline
 90
        4
 70
         1
 43
0.1
 10
34.95
 20
146.4
 10
34.95
 20
149.7
 10
36.75
 20
149.7
 10
36.75
 20
146.4
  0
LWPOLYLINE
  5
2F7
100
AcDbEntity
  8
ASSEMBLY_OUTLINES_TOP
100
AcDbPolyline
 90
        4
 70
         1
 43
0.1
 10
65.65
 20
156.3
 10
65.65
 20
159.1
 10
66.95
 20
159.1
 10
66.95
 20
156.3
  0
LWPOLYLINE
  5
2F8
100
AcDbEntity
  8
ASSEMBLY_OUTLINES_TOP
100
AcDbPolyline
 90
        4
 70
         1
 43
0.1
 10
47.95
 20
146.05
 10
47.95
 20
148.85
 10
49.25
 20
148.85
 10
49.25
 20
146.05
  0
LWPOLYLINE
  5
2F9
100
AcDbEntity
  8
ASSEMBLY_OUTLINES_TOP
100
AcDbPolyline
 90
        4
 70
         1
 43
0.1
 10
78.65
 20
153.6
 10
78.65
 20
156.4
 10
79.95
 20
156.4
 10
79.95
 20
153.6
  0
LWPOLYLINE
  5
2FA
100
AcDbEntity
  8
ASSEMBLY_OUTLINES_TOP
100
AcDbPolyline
 90
        4
 70
         1
 43
0.1
 10
40.4
 20
107.2
 10
40.4
 20
110.0
 10
41.7
 20
110.0
 10
41.7
 20
107.2
  0
LWPOLYLINE
  5
2FB
100
AcDbEntity
  8
ASSEMBLY_OUTLINES_TOP
100
AcDbPolyline
 90
        4
 70
         1
 43
0.1
 10
35.3
 20
90.05
 10
35.3
 20
91.35
 10
38.1
 20
91.35
 10
38.1
 20
90.05
  0
LWPOLYLINE
  5
2FC
100
AcDbEntity
  8
ASSEMBLY_OUTLINES_TOP
100
AcDbPolyline
 90
        4
 70
         1
 10
21.45
 20
148.6
 10
21.45
 20
153.6
 10
27.75
 20
153.6
 10
27.75
 20
148.6
  0
LWPOLYLINE
  5
2FD
100
AcDbEntity
  8
ASSEMBLY_OUTLINES_TOP
100
AcDbPolyline
 90
        4
 70
         1
 10
18.03
 20
144.98
 10
18.03
 20
150.06
 10
20.57
 20
150.06
 10
20.57
 20
144.98
  0
LWPOLYLINE
  5
2FE
100
AcDbEntity
  8
ASSEMBLY_OUTLINES_TOP
100
AcDbPolyline
 90
        4
 70
         1
 43
0.1
 10
51.3
 20
153.45
 10
51.3
 20
156.25
 10
52.6
 20
156.25
 10
52.6
 20
153.45
  0
LWPOLYLINE
  5
2FF
100
AcDbEntity
  8
ASSEMBLY_OUTLINES_TOP
100
AcDbPolyline
 90
        4
 70
         1
 43
0.1
 10
69.85
 20
159.7
 10
69.85
 20
161.0
 10
72.75
 20
161.0
 10
72.75
 20
159.7
  0
LWPOLYLINE
  5
300
100
AcDbEntity
  8
ASSEMBLY_OUTLINES_TOP
100
AcDbPolyline
 90
        4
 70
         1
 43
0.1
 10
89.95
 20
122.65
 10
89.95
 20
123.95
 10
92.85
 20
123.95
 10
92.85
 20
122.65
  0
LWPOLYLINE
  5
301
100
AcDbEntity
  8
ASSEMBLY_OUTLINES_TOP
100
AcDbPolyline
 90
        4
 70
         1
 10
85.38
 20
86.76
 10
85.38
 20
96.76
 10
87.92
 20
96.76
 10
87.92
 20
86.76
  0
LWPOLYLINE
  5
302
100
AcDbEntity
  8
ASSEMBLY_OUTLINES_TOP
100
AcDbPolyline
 90
        4
 70
         1
 43
0.1
 10
82.1
 20
86.0
 10
82.1
 20
89.0
 10
83.5
 20
89.0
 10
83.5
 20
86.0
  0
LWPOLYLINE
  5
303
100
AcDbEntity
  8
ASSEMBLY_OUTLINES_TOP
100
AcDbPolyline
 90
        2
 70
         0
 43
0.1
 10
82.1
 20
88.9
 10
82.2
 20
89.0
  0
LWPOLYLINE
  5
304
100
AcDbEntity
  8
ASSEMBLY_OUTLINES_TOP
100
AcDbPolyline
 90
        2
 70
         0
 43
0.1
 10
82.1
 20
88.8
 10
82.3
 20
89.0
  0
LWPOLYLINE
  5
305
100
AcDbEntity
  8
ASSEMBLY_OUTLINES_TOP
100
AcDbPolyline
 90
        2
 70
         0
 43
0.1
 10
82.1
 20
88.7
 10
82.4
 20
89.0
  0
LWPOLYLINE
  5
306
100
AcDbEntity
  8
ASSEMBLY_OUTLINES_TOP
100
AcDbPolyline
 90
        2
 70
         0
 43
0.1
 10
82.1
 20
88.6
 10
82.5
 20
89.0
  0
LWPOLYLINE
  5
307
100
AcDbEntity
  8
ASSEMBLY_OUTLINES_TOP
100
AcDbPolyline
 90
        2
 70
         0
 43
0.1
 10
82.1
 20
88.5
 10
82.6
 20
89.0
  0
LWPOLYLINE
  5
308
100
AcDbEntity
  8
ASSEMBLY_OUTLINES_TOP
100
AcDbPolyline
 90
        2
 70
         0
 43
0.1
 10
82.1
 20
88.4
 10
82.7
 20
89.0
  0
LWPOLYLINE
  5
309
100
AcDbEntity
  8
ASSEMBLY_OUTLINES_TOP
100
AcDbPolyline
 90
        4
 70
         1
 43
0.1
 10
39.2
 20
159.65
 10
39.2
 20
160.95
 10
42.1
 20
160.95
 10
42.1
 20
159.65
  0
LWPOLYLINE
  5
30A
100
AcDbEntity
  8
ASSEMBLY_OUTLINES_TOP
100
AcDbPolyline
 90
        4
 70
         1
 43
0.1
 10
93.15
 20
89.1
 10
93.15
 20
92.0
 10
94.45
 20
92.0
 10
94.45
 20
89.1
  0
LWPOLYLINE
  5
30B
100
AcDbEntity
  8
ASSEMBLY_OUTLINES_TOP
100
AcDbPolyline
 90
        4
 70
         1
 43
0.1
 10
88.15
 20
150.0
 10
88.15
 20
152.8
 10
89.45
 20
152.8
 10
89.45
 20
150.0
  0
LWPOLYLINE
  5
30C
100
AcDbEntity
  8
ASSEMBLY_OUTLINES_TOP
100
AcDbPolyline
 90
        8
 70
         1
 43
0.1
 10
43.975
 20
127.35
 10
43.975
 20
124.05
 42
0.4142135624
 10
44.975
 20
123.05
 10
48.175
 20
123.05
 42
0.4142135624
 10
49.175
 20
124.05
 10
49.175
 20
127.35
 42
0.4142135624
 10
48.175
 20
128.35
 10
44.975
 20
128.35
 42
0.4142135624
  0
LWPOLYLINE
  5
30D
100
AcDbEntity
  8
ASSEMBLY_OUTLINES_TOP
100
AcDbPolyline
 90
        4
 70
         1
 43
0.1
 10
89.6
 20
102.85
 10
89.6
 20
105.85
 10
91.0
 20
105.85
 10
91.0
 20
102.85
  0
LWPOLYLINE
  5
30E
100
AcDbEntity
  8
ASSEMBLY_OUTLINES_TOP
100
AcDbPolyline
 90
        2
 70
         0
 43
0.1
 10
89.6
 20
105.75
 10
89.7
 20
105.85
  0
LWPOLYLINE
  5
30F
100
AcDbEntity
  8
ASSEMBLY_OUTLINES_TOP
100
AcDbPolyline
 90
        2
 70
         0
 43
0.1
 10
89.6
 20
105.65
 10
89.8
 20
105.85
  0
LWPOLYLINE
  5
310
100
AcDbEntity
  8
ASSEMBLY_OUTLINES_TOP
100
AcDbPolyline
 90
        2
 70
         0
 43
0.1
 10
89.6
 20
105.55
 10
89.9
 20
105.85
  0
LWPOLYLINE
  5
311
100
AcDbEntity
  8
ASSEMBLY_OUTLINES_TOP
100
AcDbPolyline
 90
        2
 70
         0
 43
0.1
 10
89.6
 20
105.45
 10
90.0
 20
105.85
  0
LWPOLYLINE
  5
312
100
AcDbEntity
  8
ASSEMBLY_OUTLINES_TOP
100
AcDbPolyline
 90
        2
 70
         0
 43
0.1
 10
89.6
 20
105.35
 10
90.1
 20
105.85
  0
LWPOLYLINE
  5
313
100
AcDbEntity
  8
ASSEMBLY_OUTLINES_TOP
100
AcDbPolyline
 90
        2
 70
         0
 43
0.1
 10
89.6
 20
105.25
 10
90.2
 20
105.85
  0
LWPOLYLINE
  5
314
100
AcDbEntity
  8
ASSEMBLY_OUTLINES_TOP
100
AcDbPolyline
 90
        4
 70
         1
 43
0.1
 10
18.1
 20
88.7
 10
18.1
 20
90.0
 10
21.0
 20
90.0
 10
21.0
 20
88.7
  0
LWPOLYLINE
  5
315
100
AcDbEntity
  8
ASSEMBLY_OUTLINES_TOP
100
AcDbPolyline
 90
        4
 70
         1
 43
0.1
 10
36.5
 20
113.25
 10
36.5
 20
116.15
 10
37.8
 20
116.15
 10
37.8
 20
113.25
  0
LWPOLYLINE
  5
316
100
AcDbEntity
  8
ASSEMBLY_OUTLINES_TOP
100
AcDbPolyline
 90
        4
 70
         1
 43
0.1
 10
77.2
 20
92.75
 10
77.2
 20
98.75
 10
83.2
 20
98.75
 10
83.2
 20
92.75
  0
LWPOLYLINE
  5
317
100
AcDbEntity
  8
ASSEMBLY_OUTLINES_TOP
100
AcDbPolyline
 90
        2
 70
         1
 43
0.1
 10
77.7
 20
97.75
 42
-1.0
 10
78.7
 20
97.75
 42
-1.0
  0
LWPOLYLINE
  5
318
100
AcDbEntity
  8
ASSEMBLY_OUTLINES_TOP
100
AcDbPolyline
 90
        4
 70
         1
 43
0.1
 10
52.5
 20
100.85
 10
52.5
 20
103.75
 10
53.8
 20
103.75
 10
53.8
 20
100.85
  0
LWPOLYLINE
  5
319
100
AcDbEntity
  8
ASSEMBLY_OUTLINES_TOP
100
AcDbPolyline
 90
        4
 70
         1
 43
0.1
 10
88.0
 20
91.35
 10
88.0
 20
94.15
 10
89.3
 20
94.15
 10
89.3
 20
91.35
  0
LWPOLYLINE
  5
31A
100
AcDbEntity
  8
ASSEMBLY_OUTLINES_TOP
100
AcDbPolyline
 90
        4
 70
         1
 43
0.1
 10
72.8
 20
159.7
 10
72.8
 20
161.0
 10
75.7
 20
161.0
 10
75.7
 20
159.7
  0
LWPOLYLINE
  5
31B
100
AcDbEntity
  8
ASSEMBLY_OUTLINES_TOP
100
AcDbPolyline
 90
        4
 70
         1
 10
94.97
 20
129.42
 10
94.97
 20
162.42
 10
103.67
 20
162.42
 10
103.67
 20
129.42
  0
LWPOLYLINE
  5
31C
100
AcDbEntity
  8
ASSEMBLY_OUTLINES_TOP
100
AcDbPolyline
 90
        4
 70
         1
 10
94.97
 20
142.85
 10
94.97
 20
149.35
 10
95.55
 20
149.35
 10
95.55
 20
142.85
  0
LWPOLYLINE
  5
31D
100
AcDbEntity
  8
ASSEMBLY_OUTLINES_TOP
100
AcDbPolyline
 90
        4
 70
         1
 43
0.1
 10
8.3
 20
105.15
 10
8.3
 20
106.45
 10
11.2
 20
106.45
 10
11.2
 20
105.15
  0
LWPOLYLINE
  5
31E
100
AcDbEntity
  8
ASSEMBLY_OUTLINES_TOP
100
AcDbPolyline
 90
        4
 70
         1
 43
0.1
 10
49.4
 20
146.05
 10
49.4
 20
149.35
 10
51.2
 20
149.35
 10
51.2
 20
146.05
  0
LWPOLYLINE
  5
31F
100
AcDbEntity
  8
ASSEMBLY_OUTLINES_TOP
100
AcDbPolyline
 90
        4
 70
         1
 43
0.1
 10
31.35
 20
155.95
 10
31.35
 20
157.55
 10
34.55
 20
157.55
 10
34.55
 20
155.95
  0
LWPOLYLINE
  5
320
100
AcDbEntity
  8
ASSEMBLY_OUTLINES_TOP
100
AcDbPolyline
 90
        4
 70
         1
 43
0.1
 10
34.15
 20
98.5
 10
34.15
 20
101.8
 10
35.95
 20
101.8
 10
35.95
 20
98.5
  0
LWPOLYLINE
  5
321
100
AcDbEntity
  8
ASSEMBLY_OUTLINES_TOP
100
AcDbPolyline
 90
        4
 70
         1
 43
0.1
 10
5.45
 20
99.9
 10
5.45
 20
102.8
 10
6.75
 20
102.8
 10
6.75
 20
99.9
  0
LWPOLYLINE
  5
322
100
AcDbEntity
  8
ASSEMBLY_OUTLINES_TOP
100
AcDbPolyline
 90
        4
 70
         1
 43
0.1
 10
38.85
 20
113.2
 10
38.85
 20
116.2
 10
41.85
 20
116.2
 10
41.85
 20
113.2
  0
LWPOLYLINE
  5
323
100
AcDbEntity
  8
ASSEMBLY_OUTLINES_TOP
100
AcDbPolyline
 90
        2
 70
         0
 43
0.1
 10
41.85
 20
113.3
 10
41.75
 20
113.2
  0
LWPOLYLINE
  5
324
100
AcDbEntity
  8
ASSEMBLY_OUTLINES_TOP
100
AcDbPolyline
 90
        2
 70
         0
 43
0.1
 10
41.85
 20
113.4
 10
41.65
 20
113.2
  0
LWPOLYLINE
  5
325
100
AcDbEntity
  8
ASSEMBLY_OUTLINES_TOP
100
AcDbPolyline
 90
        2
 70
         0
 43
0.1
 10
41.85
 20
113.5
 10
41.55
 20
113.2
  0
LWPOLYLINE
  5
326
100
AcDbEntity
  8
ASSEMBLY_OUTLINES_TOP
100
AcDbPolyline
 90
        2
 70
         0
 43
0.1
 10
41.85
 20
113.6
 10
41.45
 20
113.2
  0
LWPOLYLINE
  5
327
100
AcDbEntity
  8
ASSEMBLY_OUTLINES_TOP
100
AcDbPolyline
 90
        2
 70
         0
 43
0.1
 10
41.85
 20
113.7
 10
41.35
 20
113.2
  0
LWPOLYLINE
  5
328
100
AcDbEntity
  8
ASSEMBLY_OUTLINES_TOP
100
AcDbPolyline
 90
        2
 70
         0
 43
0.1
 10
41.85
 20
113.8
 10
41.25
 20
113.2
  0
LWPOLYLINE
  5
329
100
AcDbEntity
  8
ASSEMBLY_OUTLINES_TOP
100
AcDbPolyline
 90
        4
 70
         1
 43
0.1
 10
89.95
 20
121.3
 10
89.95
 20
122.6
 10
92.85
 20
122.6
 10
92.85
 20
121.3
  0
LWPOLYLINE
  5
32A
100
AcDbEntity
  8
ASSEMBLY_OUTLINES_TOP
100
AcDbPolyline
 90
        4
 70
         1
 43
0.1
 10
77.95
 20
87.2
 10
77.95
 20
88.5
 10
80.85
 20
88.5
 10
80.85
 20
87.2
  0
LWPOLYLINE
  5
32B
100
AcDbEntity
  8
ASSEMBLY_OUTLINES_TOP
100
AcDbPolyline
 90
        4
 70
         1
 43
0.1
 10
72.65
 20
100.25
 10
72.65
 20
102.05
 10
75.95
 20
102.05
 10
75.95
 20
100.25
  0
LWPOLYLINE
  5
32C
100
AcDbEntity
  8
ASSEMBLY_OUTLINES_TOP
100
AcDbPolyline
 90
        4
 70
         1
 43
0.1
 10
11.35
 20
134.45
 10
11.35
 20
138.45
 10
21.35
 20
138.45
 10
21.35
 20
134.45
  0
LWPOLYLINE
  5
32D
100
AcDbEntity
  8
ASSEMBLY_OUTLINES_TOP
100
AcDbPolyline
 90
        2
 70
         1
 43
0.1
 10
19.85
 20
137.45
 42
-1.0
 10
20.85
 20
137.45
 42
-1.0
  0
LWPOLYLINE
  5
32E
100
AcDbEntity
  8
ASSEMBLY_OUTLINES_TOP
100
AcDbPolyline
 90
        4
 70
         1
 43
0.1
 10
66.9
 20
159.7
 10
66.9
 20
161.0
 10
69.8
 20
161.0
 10
69.8
 20
159.7
  0
LWPOLYLINE
  5
32F
100
AcDbEntity
  8
ASSEMBLY_OUTLINES_TOP
100
AcDbPolyline
 90
        4
 70
         1
 10
94.97
 20
95.92
 10
94.97
 20
128.92
 10
103.67
 20
128.92
 10
103.67
 20
95.92
  0
LWPOLYLINE
  5
330
100
AcDbEntity
  8
ASSEMBLY_OUTLINES_TOP
100
AcDbPolyline
 90
        4
 70
         1
 10
103.09
 20
108.99
 10
103.09
 20
115.49
 10
103.67
 20
115.49
 10
103.67
 20
108.99
  0
LWPOLYLINE
  5
331
100
AcDbEntity
  8
ASSEMBLY_OUTLINES_TOP
100
AcDbPolyline
 90
        4
 70
         1
 43
0.1
 10
60.0
 20
108.9
 10
60.0
 20
111.7
 10
61.3
 20
111.7
 10
61.3
 20
108.9
  0
LWPOLYLINE
  5
332
100
AcDbEntity
  8
ASSEMBLY_OUTLINES_TOP
100
AcDbPolyline
 90
        4
 70
         1
 43
0.1
 10
72.05
 20
106.6
 10
72.05
 20
107.9
 10
74.95
 20
107.9
 10
74.95
 20
106.6
  0
LWPOLYLINE
  5
333
100
AcDbEntity
  8
ASSEMBLY_OUTLINES_TOP
100
AcDbPolyline
 90
        4
 70
         1
 43
0.1
 10
58.2
 20
159.65
 10
58.2
 20
160.95
 10
61.1
 20
160.95
 10
61.1
 20
159.65
  0
LWPOLYLINE
  5
334
100
AcDbEntity
  8
ASSEMBLY_OUTLINES_TOP
100
AcDbPolyline
 90
        4
 70
         1
 43
0.1
 10
88.1
 20
153.65
 10
88.1
 20
156.45
 10
89.4
 20
156.45
 10
89.4
 20
153.65
  0
LWPOLYLINE
  5
335
100
AcDbEntity
  8
ASSEMBLY_OUTLINES_TOP
100
AcDbPolyline
 90
        4
 70
         1
 43
0.1
 10
39.9
 20
146.05
 10
39.9
 20
159.35
 10
47.4
 20
159.35
 10
47.4
 20
146.05
  0
LWPOLYLINE
  5
336
100
AcDbEntity
  8
ASSEMBLY_OUTLINES_TOP
100
AcDbPolyline
 90
        2
 70
         0
 43
0.1
 10
47.25
 20
146.1
 10
47.35
 20
146.2
  0
LWPOLYLINE
  5
337
100
AcDbEntity
  8
ASSEMBLY_OUTLINES_TOP
100
AcDbPolyline
 90
        2
 70
         0
 43
0.1
 10
47.15
 20
146.1
 10
47.35
 20
146.3
  0
LWPOLYLINE
  5
338
100
AcDbEntity
  8
ASSEMBLY_OUTLINES_TOP
100
AcDbPolyline
 90
        2
 70
         0
 43
0.1
 10
47.05
 20
146.1
 10
47.35
 20
146.4
  0
LWPOLYLINE
  5
339
100
AcDbEntity
  8
ASSEMBLY_OUTLINES_TOP
100
AcDbPolyline
 90
        2
 70
         0
 43
0.1
 10
46.95
 20
146.1
 10
47.35
 20
146.5
  0
LWPOLYLINE
  5
33A
100
AcDbEntity
  8
ASSEMBLY_OUTLINES_TOP
100
AcDbPolyline
 90
        2
 70
         0
 43
0.1
 10
46.85
 20
146.1
 10
47.35
 20
146.6
  0
LWPOLYLINE
  5
33B
100
AcDbEntity
  8
ASSEMBLY_OUTLINES_TOP
100
AcDbPolyline
 90
        2
 70
         0
 43
0.1
 10
46.75
 20
146.1
 10
47.35
 20
146.7
  0
LWPOLYLINE
  5
33C
100
AcDbEntity
  8
ASSEMBLY_OUTLINES_TOP
100
AcDbPolyline
 90
        2
 70
         0
 43
0.1
 10
46.65
 20
146.1
 10
47.35
 20
146.8
  0
LWPOLYLINE
  5
33D
100
AcDbEntity
  8
ASSEMBLY_OUTLINES_TOP
100
AcDbPolyline
 90
        2
 70
         0
 43
0.1
 10
46.55
 20
146.1
 10
47.35
 20
146.9
  0
LWPOLYLINE
  5
33E
100
AcDbEntity
  8
ASSEMBLY_OUTLINES_TOP
100
AcDbPolyline
 90
        2
 70
         0
 43
0.1
 10
46.45
 20
146.1
 10
47.35
 20
147.0
  0
LWPOLYLINE
  5
33F
100
AcDbEntity
  8
ASSEMBLY_OUTLINES_TOP
100
AcDbPolyline
 90
        2
 70
         0
 43
0.1
 10
46.35
 20
146.1
 10
47.35
 20
147.1
  0
LWPOLYLINE
  5
340
100
AcDbEntity
  8
ASSEMBLY_OUTLINES_TOP
100
AcDbPolyline
 90
        4
 70
         1
 43
0.1
 10
52.85
 20
137.95
 10
52.85
 20
141.15
 10
54.45
 20
141.15
 10
54.45
 20
137.95
  0
LWPOLYLINE
  5
341
100
AcDbEntity
  8
ASSEMBLY_OUTLINES_TOP
100
AcDbPolyline
 90
        4
 70
         1
 43
0.1
 10
49.65
 20
122.95
 10
49.65
 20
124.75
 10
52.95
 20
124.75
 10
52.95
 20
122.95
  0
LWPOLYLINE
  5
342
100
AcDbEntity
  8
ASSEMBLY_OUTLINES_TOP
100
AcDbPolyline
 90
        4
 70
         1
 43
0.1
 10
85.95
 20
159.65
 10
85.95
 20
160.95
 10
88.85
 20
160.95
 10
88.85
 20
159.65
  0
LWPOLYLINE
  5
343
100
AcDbEntity
  8
ASSEMBLY_OUTLINES_TOP
100
AcDbPolyline
 90
        4
 70
         1
 43
0.1
 10
43.0
 20
90.15
 10
43.0
 20
93.05
 10
44.3
 20
93.05
 10
44.3
 20
90.15
  0
LWPOLYLINE
  5
344
100
AcDbEntity
  8
ASSEMBLY_OUTLINES_TOP
100
AcDbPolyline
 90
        4
 70
         1
 43
0.1
 10
78.95
 20
144.55
 10
78.95
 20
145.85
 10
81.75
 20
145.85
 10
81.75
 20
144.55
  0
LWPOLYLINE
  5
345
100
AcDbEntity
  8
ASSEMBLY_OUTLINES_TOP
100
AcDbPolyline
 90
        4
 70
         1
 43
0.1
 10
30.35
 20
96.85
 10
30.35
 20
98.15
 10
33.25
 20
98.15
 10
33.25
 20
96.85
  0
LWPOLYLINE
  5
346
100
AcDbEntity
  8
ASSEMBLY_OUTLINES_TOP
100
AcDbPolyline
 90
        4
 70
         1
 10
-9.01
 20
148.38
 10
-9.01
 20
150.92
 10
-1.51
 20
150.92
 10
-1.51
 20
148.38
  0
LWPOLYLINE
  5
347
100
AcDbEntity
  8
ASSEMBLY_OUTLINES_TOP
100
AcDbPolyline
 90
        4
 70
         1
 43
0.1
 10
23.95
 20
114.3
 10
23.95
 20
117.2
 10
25.25
 20
117.2
 10
25.25
 20
114.3
  0
LWPOLYLINE
  5
348
100
AcDbEntity
  8
ASSEMBLY_OUTLINES_TOP
100
AcDbPolyline
 90
        4
 70
         1
 43
0.1
 10
8.4
 20
145.55
 10
8.4
 20
148.35
 10
9.7
 20
148.35
 10
9.7
 20
145.55
  0
LWPOLYLINE
  5
349
100
AcDbEntity
  8
ASSEMBLY_OUTLINES_TOP
100
AcDbPolyline
 90
        4
 70
         1
 43
0.1
 10
2.6
 20
111.75
 10
2.6
 20
114.65
 10
3.9
 20
114.65
 10
3.9
 20
111.75
  0
LWPOLYLINE
  5
34A
100
AcDbEntity
  8
ASSEMBLY_OUTLINES_TOP
100
AcDbPolyline
 90
        4
 70
         1
 10
69.28
 20
90.83
 10
69.28
 20
93.37
 10
71.82
 20
93.37
 10
71.82
 20
90.83
  0
LWPOLYLINE
  5
34B
100
AcDbEntity
  8
ASSEMBLY_OUTLINES_TOP
100
AcDbPolyline
 90
        4
 70
         1
 43
0.1
 10
5.5
 20
111.2
 10
5.5
 20
114.1
 10
6.8
 20
114.1
 10
6.8
 20
111.2
  0
LWPOLYLINE
  5
34C
100
AcDbEntity
  8
ASSEMBLY_OUTLINES_TOP
100
AcDbPolyline
 90
        4
 70
         1
 43
0.1
 10
48.8
 20
91.95
 10
48.8
 20
93.35
 10
51.8
 20
93.35
 10
51.8
 20
91.95
  0
LWPOLYLINE
  5
34D
100
AcDbEntity
  8
ASSEMBLY_OUTLINES_TOP
100
AcDbPolyline
 90
        2
 70
         0
 43
0.1
 10
51.7
 20
93.35
 10
51.8
 20
93.25
  0
LWPOLYLINE
  5
34E
100
AcDbEntity
  8
ASSEMBLY_OUTLINES_TOP
100
AcDbPolyline
 90
        2
 70
         0
 43
0.1
 10
51.6
 20
93.35
 10
51.8
 20
93.15
  0
LWPOLYLINE
  5
34F
100
AcDbEntity
  8
ASSEMBLY_OUTLINES_TOP
100
AcDbPolyline
 90
        2
 70
         0
 43
0.1
 10
51.5
 20
93.35
 10
51.8
 20
93.05
  0
LWPOLYLINE
  5
350
100
AcDbEntity
  8
ASSEMBLY_OUTLINES_TOP
100
AcDbPolyline
 90
        2
 70
         0
 43
0.1
 10
51.4
 20
93.35
 10
51.8
 20
92.95
  0
LWPOLYLINE
  5
351
100
AcDbEntity
  8
ASSEMBLY_OUTLINES_TOP
100
AcDbPolyline
 90
        2
 70
         0
 43
0.1
 10
51.3
 20
93.35
 10
51.8
 20
92.85
  0
LWPOLYLINE
  5
352
100
AcDbEntity
  8
ASSEMBLY_OUTLINES_TOP
100
AcDbPolyline
 90
        2
 70
         0
 43
0.1
 10
51.2
 20
93.35
 10
51.8
 20
92.75
  0
LWPOLYLINE
  5
353
100
AcDbEntity
  8
ASSEMBLY_OUTLINES_TOP
100
AcDbPolyline
 90
        4
 70
         1
 43
0.1
 10
8.3
 20
109.25
 10
8.3
 20
110.55
 10
11.2
 20
110.55
 10
11.2
 20
109.25
  0
LWPOLYLINE
  5
354
100
AcDbEntity
  8
ASSEMBLY_OUTLINES_TOP
100
AcDbPolyline
 90
        4
 70
         1
 43
0.1
 10
84.775
 20
106.925
 10
84.775
 20
109.975
 10
86.525
 20
109.975
 10
86.525
 20
106.925
  0
LWPOLYLINE
  5
355
100
AcDbEntity
  8
ASSEMBLY_OUTLINES_TOP
100
AcDbPolyline
 90
        2
 70
         0
 43
0.1
 10
86.525
 20
107.025
 10
86.425
 20
106.925
  0
LWPOLYLINE
  5
356
100
AcDbEntity
  8
ASSEMBLY_OUTLINES_TOP
100
AcDbPolyline
 90
        2
 70
         0
 43
0.1
 10
86.525
 20
107.125
 10
86.325
 20
106.925
  0
LWPOLYLINE
  5
357
100
AcDbEntity
  8
ASSEMBLY_OUTLINES_TOP
100
AcDbPolyline
 90
        2
 70
         0
 43
0.1
 10
86.525
 20
107.225
 10
86.225
 20
106.925
  0
LWPOLYLINE
  5
358
100
AcDbEntity
  8
ASSEMBLY_OUTLINES_TOP
100
AcDbPolyline
 90
        2
 70
         0
 43
0.1
 10
86.525
 20
107.325
 10
86.125
 20
106.925
  0
LWPOLYLINE
  5
359
100
AcDbEntity
  8
ASSEMBLY_OUTLINES_TOP
100
AcDbPolyline
 90
        2
 70
         0
 43
0.1
 10
86.525
 20
107.425
 10
86.025
 20
106.925
  0
LWPOLYLINE
  5
35A
100
AcDbEntity
  8
ASSEMBLY_OUTLINES_TOP
100
AcDbPolyline
 90
        2
 70
         0
 43
0.1
 10
86.525
 20
107.525
 10
85.925
 20
106.925
  0
LWPOLYLINE
  5
35B
100
AcDbEntity
  8
ASSEMBLY_OUTLINES_TOP
100
AcDbPolyline
 90
        4
 70
         1
 43
0.1
 10
27.05
 20
115.9
 10
27.05
 20
117.2
 10
29.95
 20
117.2
 10
29.95
 20
115.9
  0
LWPOLYLINE
  5
35C
100
AcDbEntity
  8
ASSEMBLY_OUTLINES_TOP
100
AcDbPolyline
 90
        4
 70
         1
 43
0.1
 10
47.9
 20
153.55
 10
47.9
 20
156.35
 10
49.2
 20
156.35
 10
49.2
 20
153.55
  0
LWPOLYLINE
  5
35D
100
AcDbEntity
  8
ASSEMBLY_OUTLINES_TOP
100
AcDbPolyline
 90
        8
 70
         1
 43
0.1
 10
9.0
 20
93.8
 10
12.3
 20
93.8
 42
0.4142135624
 10
13.3
 20
94.8
 10
13.3
 20
98.0
 42
0.4142135624
 10
12.3
 20
99.0
 10
9.0
 20
99.0
 42
0.4142135624
 10
8.0
 20
98.0
 10
8.0
 20
94.8
 42
0.4142135624
  0
LWPOLYLINE
  5
35E
100
AcDbEntity
  8
ASSEMBLY_OUTLINES_TOP
100
AcDbPolyline
 90
        4
 70
         1
 43
0.1
 10
45.2
 20
159.65
 10
45.2
 20
160.95
 10
48.1
 20
160.95
 10
48.1
 20
159.65
  0
LWPOLYLINE
  5
35F
100
AcDbEntity
  8
ASSEMBLY_OUTLINES_TOP
100
AcDbPolyline
 90
        4
 70
         1
 43
0.1
 10
62.05
 20
103.95
 10
62.05
 20
106.75
 10
63.35
 20
106.75
 10
63.35
 20
103.95
  0
LWPOLYLINE
  5
360
100
AcDbEntity
  8
ASSEMBLY_OUTLINES_TOP
100
AcDbPolyline
 90
        4
 70
         1
 43
0.1
 10
88.1
 20
156.55
 10
88.1
 20
159.35
 10
89.4
 20
159.35
 10
89.4
 20
156.55
  0
LWPOLYLINE
  5
361
100
AcDbEntity
  8
ASSEMBLY_OUTLINES_TOP
100
AcDbPolyline
 90
        4
 70
         1
 43
0.1
 10
30.35
 20
95.4
 10
30.35
 20
96.7
 10
33.25
 20
96.7
 10
33.25
 20
95.4
  0
LWPOLYLINE
  5
362
100
AcDbEntity
  8
ASSEMBLY_OUTLINES_TOP
100
AcDbPolyline
 90
        4
 70
         1
 43
0.1
 10
59.75
 20
137.35
 10
59.75
 20
138.65
 10
62.65
 20
138.65
 10
62.65
 20
137.35
  0
TEXT
  5
364
100
AcDbEntity
  8
ASSEMBLY_REF_DES_TOP
100
AcDbText
 10
4.430525
 20
150.2721
 30
0.0
 40
0.85
  1
C36
 50
270.0
  7
GOST_TYPE_B
 72
         1
 11
4.85
 21
149.4
 31
0.0
100
AcDbText
 73
         2
  0
TEXT
  5
365
100
AcDbEntity
  8
ASSEMBLY_REF_DES_TOP
100
AcDbText
 10
13.89665
 20
81.69
 30
0.0
 40
0.85
  1
X19
  7
GOST_TYPE_B
 72
         2
 11
15.64
 21
81.69
 31
0.0
100
AcDbText
 73
         1
  0
TEXT
  5
366
100
AcDbEntity
  8
ASSEMBLY_REF_DES_TOP
100
AcDbText
 10
96.130525
 20
91.72115
 30
0.0
 40
0.85
  1
R123
 50
270.0
  7
GOST_TYPE_B
 72
         1
 11
96.55
 21
90.6
 31
0.0
100
AcDbText
 73
         2
  0
TEXT
  5
367
100
AcDbEntity
  8
ASSEMBLY_REF_DES_TOP
100
AcDbText
 10
-6.586109
 20
162.736959
 30
0.0
 40
0.85
  1
X4
  7
GOST_TYPE_B
 72
         2
 11
-5.175109
 21
162.736959
 31
0.0
100
AcDbText
 73
         1
  0
TEXT
  5
368
100
AcDbEntity
  8
ASSEMBLY_REF_DES_TOP
100
AcDbText
 10
8.580525
 20
140.9221
 30
0.0
 40
0.85
  1
C67
 50
270.0
  7
GOST_TYPE_B
 72
         1
 11
9.0
 21
140.05
 31
0.0
100
AcDbText
 73
         2
  0
TEXT
  5
369
100
AcDbEntity
  8
ASSEMBLY_REF_DES_TOP
100
AcDbText
 10
94.07705
 20
84.85455
 30
0.0
 40
0.7
  1
R132
  7
GOST_TYPE_B
 72
         1
 11
95.0
 21
85.2
 31
0.0
100
AcDbText
 73
         2
  0
TEXT
  5
36A
100
AcDbEntity
  8
ASSEMBLY_REF_DES_TOP
100
AcDbText
 10
31.886675
 20
110.230525
 30
0.0
 40
0.85
  1
R67
  7
GOST_TYPE_B
 72
         1
 11
32.8
 21
110.65
 31
0.0
100
AcDbText
 73
         2
  0
TEXT
  5
36B
100
AcDbEntity
  8
ASSEMBLY_REF_DES_TOP
100
AcDbText
 10
71.430525
 20
110.3962
 30
0.0
 40
0.85
  1
C116
 50
270.0
  7
GOST_TYPE_B
 72
         1
 11
71.85
 21
109.4
 31
0.0
100
AcDbText
 73
         2
  0
TEXT
  5
36C
100
AcDbEntity
  8
ASSEMBLY_REF_DES_TOP
100
AcDbText
 10
66.880525
 20
139.91375
 30
0.0
 40
0.85
  1
C74
 50
270.0
  7
GOST_TYPE_B
 72
         1
 11
67.3
 21
139.0
 31
0.0
100
AcDbText
 73
         2
  0
TEXT
  5
36D
100
AcDbEntity
  8
ASSEMBLY_REF_DES_TOP
100
AcDbText
 10
51.580525
 20
148.4054
 30
0.0
 40
0.85
  1
C48
 50
270.0
  7
GOST_TYPE_B
 72
         1
 11
52.0
 21
147.45
 31
0.0
100
AcDbText
 73
         2
  0
TEXT
  5
36E
100
AcDbEntity
  8
ASSEMBLY_REF_DES_TOP
100
AcDbText
 10
-1.10435
 20
94.15455
 30
0.0
 40
0.7
  1
R101
  7
GOST_TYPE_B
 72
         1
 11
-0.25
 21
94.5
 31
0.0
100
AcDbText
 73
         2
  0
TEXT
  5
36F
100
AcDbEntity
  8
ASSEMBLY_REF_DES_TOP
100
AcDbText
 10
89.780525
 20
148.41375
 30
0.0
 40
0.85
  1
R23
 50
270.0
  7
GOST_TYPE_B
 72
         1
 11
90.2
 21
147.5
 31
0.0
100
AcDbText
 73
         2
  0
TEXT
  5
370
100
AcDbEntity
  8
ASSEMBLY_REF_DES_TOP
100
AcDbText
 10
46.886675
 20
144.780525
 30
0.0
 40
0.85
  1
C58
  7
GOST_TYPE_B
 72
         1
 11
47.8
 21
145.2
 31
0.0
100
AcDbText
 73
         2
  0
TEXT
  5
371
100
AcDbEntity
  8
ASSEMBLY_REF_DES_TOP
100
AcDbText
 10
49.830525
 20
157.68045
 30
0.0
 40
0.85
  1
C14
 50
270.0
  7
GOST_TYPE_B
 72
         1
 11
50.25
 21
156.85
 31
0.0
100
AcDbText
 73
         2
  0
TEXT
  5
372
100
AcDbEntity
  8
ASSEMBLY_REF_DES_TOP
100
AcDbText
 10
79.70455
 20
102.0233
 30
0.0
 40
0.7
  1
C143
 50
270.0
  7
GOST_TYPE_B
 72
         1
 11
80.05
 21
101.1
 31
0.0
100
AcDbText
 73
         2
  0
TEXT
  5
373
100
AcDbEntity
  8
ASSEMBLY_REF_DES_TOP
100
AcDbText
 10
0.230525
 20
108.31375
 30
0.0
 40
0.85
  1
R76
 50
270.0
  7
GOST_TYPE_B
 72
         1
 11
0.65
 21
107.4
 31
0.0
100
AcDbText
 73
         2
  0
TEXT
  5
374
100
AcDbEntity
  8
ASSEMBLY_REF_DES_TOP
100
AcDbText
 10
11.380525
 20
158.38045
 30
0.0
 40
0.85
  1
R17
 50
270.0
  7
GOST_TYPE_B
 72
         1
 11
11.8
 21
157.55
 31
0.0
100
AcDbText
 73
         2
  0
TEXT
  5
375
100
AcDbEntity
  8
ASSEMBLY_REF_DES_TOP
100
AcDbText
 10
77.136675
 20
124.280525
 30
0.0
 40
0.85
  1
C89
  7
GOST_TYPE_B
 72
         1
 11
78.05
 21
124.7
 31
0.0
100
AcDbText
 73
         2
  0
TEXT
  5
376
100
AcDbEntity
  8
ASSEMBLY_REF_DES_TOP
100
AcDbText
 10
-0.863325
 20
147.930525
 30
0.0
 40
0.85
  1
C43
  7
GOST_TYPE_B
 72
         1
 11
0.05
 21
148.35
 31
0.0
100
AcDbText
 73
         2
  0
TEXT
  5
377
100
AcDbEntity
  8
ASSEMBLY_REF_DES_TOP
100
AcDbText
 10
93.130525
 20
152.06375
 30
0.0
 40
0.85
  1
R22
 50
270.0
  7
GOST_TYPE_B
 72
         1
 11
93.55
 21
151.15
 31
0.0
100
AcDbText
 73
         2
  0
TEXT
  5
378
100
AcDbEntity
  8
ASSEMBLY_REF_DES_TOP
100
AcDbText
 10
42.65455
 20
135.6525
 30
0.0
 40
0.7
  1
R32
 50
270.0
  7
GOST_TYPE_B
 72
         1
 11
43.0
 21
134.9
 31
0.0
100
AcDbText
 73
         2
  0
TEXT
  5
379
100
AcDbEntity
  8
ASSEMBLY_REF_DES_TOP
100
AcDbText
 10
83.9279
 20
121.780524
 30
0.0
 40
0.85
  1
C93
  7
GOST_TYPE_B
 72
         1
 11
84.8
 21
122.199999
 31
0.0
100
AcDbText
 73
         2
  0
TEXT
  5
37A
100
AcDbEntity
  8
ASSEMBLY_REF_DES_TOP
100
AcDbText
 10
-6.685159
 20
81.302709
 30
0.0
 40
0.85
  1
X18
  7
GOST_TYPE_B
 72
         2
 11
-4.859359
 21
81.302709
 31
0.0
100
AcDbText
 73
         1
  0
TEXT
  5
37B
100
AcDbEntity
  8
ASSEMBLY_REF_DES_TOP
100
AcDbText
 10
7.930525
 20
153.96375
 30
0.0
 40
0.85
  1
R20
 50
270.0
  7
GOST_TYPE_B
 72
         1
 11
8.35
 21
153.05
 31
0.0
100
AcDbText
 73
         2
  0
TEXT
  5
37C
100
AcDbEntity
  8
ASSEMBLY_REF_DES_TOP
100
AcDbText
 10
35.14545
 20
110.230525
 30
0.0
 40
0.85
  1
R68
  7
GOST_TYPE_B
 72
         1
 11
36.1
 21
110.65
 31
0.0
100
AcDbText
 73
         2
  0
TEXT
  5
37D
100
AcDbEntity
  8
ASSEMBLY_REF_DES_TOP
100
AcDbText
 10
37.139025
 20
166.405525
 30
0.0
 40
0.85
  1
X1
  7
GOST_TYPE_B
 72
         1
 11
37.72
 21
166.825
 31
0.0
100
AcDbText
 73
         2
  0
TEXT
  5
37E
100
AcDbEntity
  8
ASSEMBLY_REF_DES_TOP
100
AcDbText
 10
69.780525
 20
95.93785
 30
0.0
 40
0.85
  1
R113
 50
270.0
  7
GOST_TYPE_B
 72
         1
 11
70.2
 21
94.9
 31
0.0
100
AcDbText
 73
         2
  0
TEXT
  5
37F
100
AcDbEntity
  8
ASSEMBLY_REF_DES_TOP
100
AcDbText
 10
39.079275
 20
111.780525
 30
0.0
 40
0.85
  1
C108
  7
GOST_TYPE_B
 72
         1
 11
40.2
 21
112.2
 31
0.0
100
AcDbText
 73
         2
  0
TEXT
  5
380
100
AcDbEntity
  8
ASSEMBLY_REF_DES_TOP
100
AcDbText
 10
31.786675
 20
108.730525
 30
0.0
 40
0.85
  1
R72
  7
GOST_TYPE_B
 72
         1
 11
32.7
 21
109.15
 31
0.0
100
AcDbText
 73
         2
  0
TEXT
  5
381
100
AcDbEntity
  8
ASSEMBLY_REF_DES_TOP
100
AcDbText
 10
-0.069475
 20
115.28045
 30
0.0
 40
0.85
  1
R51
 50
270.0
  7
GOST_TYPE_B
 72
         1
 11
0.35
 21
114.45
 31
0.0
100
AcDbText
 73
         2
  0
TEXT
  5
382
100
AcDbEntity
  8
ASSEMBLY_REF_DES_TOP
100
AcDbText
 10
91.730525
 20
152.01375
 30
0.0
 40
0.85
  1
C42
 50
270.0
  7
GOST_TYPE_B
 72
         1
 11
92.15
 21
151.1
 31
0.0
100
AcDbText
 73
         2
  0
TEXT
  5
383
100
AcDbEntity
  8
ASSEMBLY_REF_DES_TOP
100
AcDbText
 10
89.386676
 20
128.730525
 30
0.0
 40
0.85
  1
C85
  7
GOST_TYPE_B
 72
         1
 11
90.300001
 21
129.15
 31
0.0
100
AcDbText
 73
         2
  0
TEXT
  5
384
100
AcDbEntity
  8
ASSEMBLY_REF_DES_TOP
100
AcDbText
 10
75.380525
 20
155.91375
 30
0.0
 40
0.85
  1
C24
 50
270.0
  7
GOST_TYPE_B
 72
         1
 11
75.8
 21
155.0
 31
0.0
100
AcDbText
 73
         2
  0
TEXT
  5
385
100
AcDbEntity
  8
ASSEMBLY_REF_DES_TOP
100
AcDbText
 10
8.786675
 20
110.780525
 30
0.0
 40
0.85
  1
R65
  7
GOST_TYPE_B
 72
         1
 11
9.7
 21
111.2
 31
0.0
100
AcDbText
 73
         2
  0
TEXT
  5
386
100
AcDbEntity
  8
ASSEMBLY_REF_DES_TOP
100
AcDbText
 10
75.380525
 20
158.57305
 30
0.0
 40
0.85
  1
C8
 50
270.0
  7
GOST_TYPE_B
 72
         1
 11
75.8
 21
157.95
 31
0.0
100
AcDbText
 73
         2
  0
TEXT
  5
387
100
AcDbEntity
  8
ASSEMBLY_REF_DES_TOP
100
AcDbText
 10
43.904657
 20
105.663793
 30
0.0
 40
0.7
  1
DD7
  7
GOST_TYPE_B
 72
         1
 11
44.690757
 21
106.009243
 31
0.0
100
AcDbText
 73
         2
  0
TEXT
  5
388
100
AcDbEntity
  8
ASSEMBLY_REF_DES_TOP
100
AcDbText
 10
87.812575
 20
116.230525
 30
0.0
 40
0.85
  1
DA8
  7
GOST_TYPE_B
 72
         1
 11
88.85
 21
116.65
 31
0.0
100
AcDbText
 73
         2
  0
TEXT
  5
389
100
AcDbEntity
  8
ASSEMBLY_REF_DES_TOP
100
AcDbText
 10
75.380525
 20
152.3721
 30
0.0
 40
0.85
  1
C33
 50
270.0
  7
GOST_TYPE_B
 72
         1
 11
75.8
 21
151.5
 31
0.0
100
AcDbText
 73
         2
  0
TEXT
  5
38A
100
AcDbEntity
  8
ASSEMBLY_REF_DES_TOP
100
AcDbText
 10
35.280525
 20
115.66375
 30
0.0
 40
0.85
  1
R53
 50
270.0
  7
GOST_TYPE_B
 72
         1
 11
35.7
 21
114.75
 31
0.0
100
AcDbText
 73
         2
  0
TEXT
  5
38B
100
AcDbEntity
  8
ASSEMBLY_REF_DES_TOP
100
AcDbText
 10
80.310675
 20
162.230525
 30
0.0
 40
0.85
  1
R1
  7
GOST_TYPE_B
 72
         1
 11
80.85
 21
162.65
 31
0.0
100
AcDbText
 73
         2
  0
TEXT
  5
38C
100
AcDbEntity
  8
ASSEMBLY_REF_DES_TOP
100
AcDbText
 10
61.180525
 20
156.0721
 30
0.0
 40
0.85
  1
C22
 50
270.0
  7
GOST_TYPE_B
 72
         1
 11
61.6
 21
155.2
 31
0.0
100
AcDbText
 73
         2
  0
TEXT
  5
38D
100
AcDbEntity
  8
ASSEMBLY_REF_DES_TOP
100
AcDbText
 10
14.4279
 20
142.480525
 30
0.0
 40
0.85
  1
C65
  7
GOST_TYPE_B
 72
         1
 11
15.3
 21
142.9
 31
0.0
100
AcDbText
 73
         2
  0
TEXT
  5
38E
100
AcDbEntity
  8
ASSEMBLY_REF_DES_TOP
100
AcDbText
 10
68.8205
 20
106.080525
 30
0.0
 40
0.85
  1
C123
  7
GOST_TYPE_B
 72
         1
 11
69.9
 21
106.5
 31
0.0
100
AcDbText
 73
         2
  0
TEXT
  5
38F
100
AcDbEntity
  8
ASSEMBLY_REF_DES_TOP
100
AcDbText
 10
51.35455
 20
103.1368
 30
0.0
 40
0.7
  1
R87
 50
270.0
  7
GOST_TYPE_B
 72
         1
 11
51.7
 21
102.35
 31
0.0
100
AcDbText
 73
         2
  0
TEXT
  5
390
100
AcDbEntity
  8
ASSEMBLY_REF_DES_TOP
100
AcDbText
 10
78.165
 20
90.60325
 30
0.0
 40
0.5
  1
C160
  7
GOST_TYPE_B
 72
         1
 11
78.8
 21
90.85
 31
0.0
100
AcDbText
 73
         2
  0
TEXT
  5
391
100
AcDbEntity
  8
ASSEMBLY_REF_DES_TOP
100
AcDbText
 10
111.9705
 20
102.580525
 30
0.0
 40
0.85
  1
C137
  7
GOST_TYPE_B
 72
         1
 11
113.05
 21
103.0
 31
0.0
100
AcDbText
 73
         2
  0
TEXT
  5
392
100
AcDbEntity
  8
ASSEMBLY_REF_DES_TOP
100
AcDbText
 10
8.74545
 20
103.980525
 30
0.0
 40
0.85
  1
R82
  7
GOST_TYPE_B
 72
         1
 11
9.7
 21
104.4
 31
0.0
100
AcDbText
 73
         2
  0
TEXT
  5
393
100
AcDbEntity
  8
ASSEMBLY_REF_DES_TOP
100
AcDbText
 10
79.330525
 20
118.91375
 30
0.0
 40
0.85
  1
C98
 50
270.0
  7
GOST_TYPE_B
 72
         1
 11
79.75
 21
118.0
 31
0.0
100
AcDbText
 73
         2
  0
TEXT
  5
394
100
AcDbEntity
  8
ASSEMBLY_REF_DES_TOP
100
AcDbText
 10
6.48805
 20
134.2
 30
0.0
 40
0.85
  1
J4
  7
GOST_TYPE_B
 72
         2
 11
7.65
 21
134.2
 31
0.0
100
AcDbText
 73
         1
  0
TEXT
  5
395
100
AcDbEntity
  8
ASSEMBLY_REF_DES_TOP
100
AcDbText
 10
89.14545
 20
111.830525
 30
0.0
 40
0.85
  1
R64
  7
GOST_TYPE_B
 72
         1
 11
90.1
 21
112.25
 31
0.0
100
AcDbText
 73
         2
  0
TEXT
  5
396
100
AcDbEntity
  8
ASSEMBLY_REF_DES_TOP
100
AcDbText
 10
89.69785
 20
108.00455
 30
0.0
 40
0.7
  1
R75
  7
GOST_TYPE_B
 72
         1
 11
90.45
 21
108.35
 31
0.0
100
AcDbText
 73
         2
  0
TEXT
  5
397
100
AcDbEntity
  8
ASSEMBLY_REF_DES_TOP
100
AcDbText
 10
43.027375
 20
159.880525
 30
0.0
 40
0.85
  1
R6
  7
GOST_TYPE_B
 72
         1
 11
43.65
 21
160.3
 31
0.0
100
AcDbText
 73
         2
  0
TEXT
  5
398
100
AcDbEntity
  8
ASSEMBLY_REF_DES_TOP
100
AcDbText
 10
30.795875
 20
94.130525
 30
0.0
 40
0.85
  1
R111
  7
GOST_TYPE_B
 72
         1
 11
31.75
 21
94.55
 31
0.0
100
AcDbText
 73
         2
  0
TEXT
  5
399
100
AcDbEntity
  8
ASSEMBLY_REF_DES_TOP
100
AcDbText
 10
30.380525
 20
148.26375
 30
0.0
 40
0.85
  1
R25
 50
270.0
  7
GOST_TYPE_B
 72
         1
 11
30.8
 21
147.35
 31
0.0
100
AcDbText
 73
         2
  0
TEXT
  5
39A
100
AcDbEntity
  8
ASSEMBLY_REF_DES_TOP
100
AcDbText
 10
62.580525
 20
96.87115
 30
0.0
 40
0.85
  1
R109
 50
270.0
  7
GOST_TYPE_B
 72
         1
 11
63.0
 21
95.75
 31
0.0
100
AcDbText
 73
         2
  0
TEXT
  5
39B
100
AcDbEntity
  8
ASSEMBLY_REF_DES_TOP
100
AcDbText
 10
93.97705
 20
86.20455
 30
0.0
 40
0.7
  1
R130
  7
GOST_TYPE_B
 72
         1
 11
94.9
 21
86.55
 31
0.0
100
AcDbText
 73
         2
  0
TEXT
  5
39C
100
AcDbEntity
  8
ASSEMBLY_REF_DES_TOP
100
AcDbText
 10
30.89565
 20
91.30455
 30
0.0
 40
0.7
  1
R115
  7
GOST_TYPE_B
 72
         1
 11
31.75
 21
91.65
 31
0.0
100
AcDbText
 73
         2
  0
TEXT
  5
39D
100
AcDbEntity
  8
ASSEMBLY_REF_DES_TOP
100
AcDbText
 10
75.8779
 20
118.080525
 30
0.0
 40
0.85
  1
C97
  7
GOST_TYPE_B
 72
         1
 11
76.75
 21
118.5
 31
0.0
100
AcDbText
 73
         2
  0
TEXT
  5
39E
100
AcDbEntity
  8
ASSEMBLY_REF_DES_TOP
100
AcDbText
 10
45.044975
 20
130.930525
 30
0.0
 40
0.85
  1
C81
  7
GOST_TYPE_B
 72
         1
 11
45.875
 21
131.35
 31
0.0
100
AcDbText
 73
         2
  0
TEXT
  5
39F
100
AcDbEntity
  8
ASSEMBLY_REF_DES_TOP
100
AcDbText
 10
65.130525
 20
106.4295
 30
0.0
 40
0.85
  1
C130
 50
270.0
  7
GOST_TYPE_B
 72
         1
 11
65.55
 21
105.35
 31
0.0
100
AcDbText
 73
         2
  0
TEXT
  5
3A0
100
AcDbEntity
  8
ASSEMBLY_REF_DES_TOP
100
AcDbText
 10
36.44545
 20
107.330525
 30
0.0
 40
0.85
  1
R74
  7
GOST_TYPE_B
 72
         1
 11
37.4
 21
107.75
 31
0.0
100
AcDbText
 73
         2
  0
TEXT
  5
3A1
100
AcDbEntity
  8
ASSEMBLY_REF_DES_TOP
100
AcDbText
 10
83.986675
 20
131.580525
 30
0.0
 40
0.85
  1
C80
  7
GOST_TYPE_B
 72
         1
 11
84.9
 21
132.0
 31
0.0
100
AcDbText
 73
         2
  0
TEXT
  5
3A2
100
AcDbEntity
  8
ASSEMBLY_REF_DES_TOP
100
AcDbText
 10
111.88805
 20
99.680525
 30
0.0
 40
0.85
  1
C144
  7
GOST_TYPE_B
 72
         1
 11
113.05
 21
100.1
 31
0.0
100
AcDbText
 73
         2
  0
TEXT
  5
3A3
100
AcDbEntity
  8
ASSEMBLY_REF_DES_TOP
100
AcDbText
 10
81.1065
 20
78.535
 30
0.0
 40
1.0
  1
J9
 50
270.0
  7
GOST_TYPE_B
 72
         1
 11
81.6
 21
77.9
 31
0.0
100
AcDbText
 73
         2
  0
TEXT
  5
3A4
100
AcDbEntity
  8
ASSEMBLY_REF_DES_TOP
100
AcDbText
 10
76.7279
 20
122.480525
 30
0.0
 40
0.85
  1
C92
  7
GOST_TYPE_B
 72
         1
 11
77.6
 21
122.9
 31
0.0
100
AcDbText
 73
         2
  0
TEXT
  5
3A5
100
AcDbEntity
  8
ASSEMBLY_REF_DES_TOP
100
AcDbText
 10
50.330525
 20
114.7295
 30
0.0
 40
0.85
  1
C103
 50
270.0
  7
GOST_TYPE_B
 72
         1
 11
50.75
 21
113.65
 31
0.0
100
AcDbText
 73
         2
  0
TEXT
  5
3A6
100
AcDbEntity
  8
ASSEMBLY_REF_DES_TOP
100
AcDbText
 10
73.5639
 20
99.15455
 30
0.0
 40
0.7
  1
R94
  7
GOST_TYPE_B
 72
         1
 11
74.35
 21
99.5
 31
0.0
100
AcDbText
 73
         2
  0
TEXT
  5
3A7
100
AcDbEntity
  8
ASSEMBLY_REF_DES_TOP
100
AcDbText
 10
60.880525
 20
106.4295
 30
0.0
 40
0.85
  1
C127
 50
270.0
  7
GOST_TYPE_B
 72
         1
 11
61.3
 21
105.35
 31
0.0
100
AcDbText
 73
         2
  0
TEXT
  5
3A8
100
AcDbEntity
  8
ASSEMBLY_REF_DES_TOP
100
AcDbText
 10
54.162575
 20
92.280525
 30
0.0
 40
0.85
  1
VT4
  7
GOST_TYPE_B
 72
         1
 11
55.2
 21
92.7
 31
0.0
100
AcDbText
 73
         2
  0
TEXT
  5
3A9
100
AcDbEntity
  8
ASSEMBLY_REF_DES_TOP
100
AcDbText
 10
5.380525
 20
117.0554
 30
0.0
 40
0.85
  1
R47
 50
270.0
  7
GOST_TYPE_B
 72
         1
 11
5.8
 21
116.1
 31
0.0
100
AcDbText
 73
         2
  0
TEXT
  5
3AA
100
AcDbEntity
  8
ASSEMBLY_REF_DES_TOP
100
AcDbText
 10
61.986675
 20
109.730525
 30
0.0
 40
0.85
  1
R69
  7
GOST_TYPE_B
 72
         1
 11
62.9
 21
110.15
 31
0.0
100
AcDbText
 73
         2
  0
TEXT
  5
3AB
100
AcDbEntity
  8
ASSEMBLY_REF_DES_TOP
100
AcDbText
 10
68.9038
 20
104.730525
 30
0.0
 40
0.85
  1
C131
  7
GOST_TYPE_B
 72
         1
 11
69.9
 21
105.15
 31
0.0
100
AcDbText
 73
         2
  0
TEXT
  5
3AC
100
AcDbEntity
  8
ASSEMBLY_REF_DES_TOP
100
AcDbText
 10
-0.119475
 20
154.8388
 30
0.0
 40
0.85
  1
C16
 50
270.0
  7
GOST_TYPE_B
 72
         1
 11
0.3
 21
154.05
 31
0.0
100
AcDbText
 73
         2
  0
TEXT
  5
3AD
100
AcDbEntity
  8
ASSEMBLY_REF_DES_TOP
100
AcDbText
 10
3.46025
 20
106.530525
 30
0.0
 40
0.85
  1
J7
  7
GOST_TYPE_B
 72
         1
 11
4.0
 21
106.95
 31
0.0
100
AcDbText
 73
         2
  0
TEXT
  5
3AE
100
AcDbEntity
  8
ASSEMBLY_REF_DES_TOP
100
AcDbText
 10
92.280525
 20
104.59705
 30
0.0
 40
0.85
  1
R84
 50
270.0
  7
GOST_TYPE_B
 72
         1
 11
92.7
 21
103.6
 31
0.0
100
AcDbText
 73
         2
  0
TEXT
  5
3AF
100
AcDbEntity
  8
ASSEMBLY_REF_DES_TOP
100
AcDbText
 10
38.480525
 20
148.36375
 30
0.0
 40
0.85
  1
C45
 50
270.0
  7
GOST_TYPE_B
 72
         1
 11
38.9
 21
147.45
 31
0.0
100
AcDbText
 73
         2
  0
TEXT
  5
3B0
100
AcDbEntity
  8
ASSEMBLY_REF_DES_TOP
100
AcDbText
 10
32.3686
 20
158.280525
 30
0.0
 40
0.85
  1
C2
  7
GOST_TYPE_B
 72
         1
 11
32.95
 21
158.7
 31
0.0
100
AcDbText
 73
         2
  0
TEXT
  5
3B1
100
AcDbEntity
  8
ASSEMBLY_REF_DES_TOP
100
AcDbText
 10
84.718598
 20
127.430525
 30
0.0
 40
0.85
  1
L2
  7
GOST_TYPE_B
 72
         1
 11
85.299998
 21
127.85
 31
0.0
100
AcDbText
 73
         2
  0
TEXT
  5
3B2
100
AcDbEntity
  8
ASSEMBLY_REF_DES_TOP
100
AcDbText
 10
13.780525
 20
96.62115
 30
0.0
 40
0.85
  1
R103
 50
270.0
  7
GOST_TYPE_B
 72
         1
 11
14.2
 21
95.5
 31
0.0
100
AcDbText
 73
         2
  0
TEXT
  5
3B3
100
AcDbEntity
  8
ASSEMBLY_REF_DES_TOP
100
AcDbText
 10
91.930525
 20
91.72115
 30
0.0
 40
0.85
  1
R120
 50
270.0
  7
GOST_TYPE_B
 72
         1
 11
92.35
 21
90.6
 31
0.0
100
AcDbText
 73
         2
  0
TEXT
  5
3B4
100
AcDbEntity
  8
ASSEMBLY_REF_DES_TOP
100
AcDbText
 10
80.62875
 20
159.880525
 30
0.0
 40
0.85
  1
R14
  7
GOST_TYPE_B
 72
         1
 11
81.5
 21
160.3
 31
0.0
100
AcDbText
 73
         2
  0
TEXT
  5
3B5
100
AcDbEntity
  8
ASSEMBLY_REF_DES_TOP
100
AcDbText
 10
70.928325
 20
80.930525
 30
0.0
 40
0.85
  1
X21
  7
GOST_TYPE_B
 72
         1
 11
71.8
 21
81.35
 31
0.0
100
AcDbText
 73
         2
  0
TEXT
  5
3B6
100
AcDbEntity
  8
ASSEMBLY_REF_DES_TOP
100
AcDbText
 10
65.580525
 20
93.546625
 30
0.0
 40
0.85
  1
VT6
 50
270.0
  7
GOST_TYPE_B
 72
         1
 11
66.0
 21
92.55
 31
0.0
100
AcDbText
 73
         2
  0
TEXT
  5
3B7
100
AcDbEntity
  8
ASSEMBLY_REF_DES_TOP
100
AcDbText
 10
3.194941
 20
142.231034
 30
0.0
 40
0.85
  1
DD5
  7
GOST_TYPE_B
 72
         1
 11
4.149491
 21
142.650509
 31
0.0
100
AcDbText
 73
         2
  0
TEXT
  5
3B8
100
AcDbEntity
  8
ASSEMBLY_REF_DES_TOP
100
AcDbText
 10
44.4686
 20
113.380525
 30
0.0
 40
0.85
  1
L5
  7
GOST_TYPE_B
 72
         1
 11
45.05
 21
113.8
 31
0.0
100
AcDbText
 73
         2
  0
TEXT
  5
3B9
100
AcDbEntity
  8
ASSEMBLY_REF_DES_TOP
100
AcDbText
 10
-1.21195
 20
88.730525
 30
0.0
 40
0.85
  1
R124
  7
GOST_TYPE_B
 72
         1
 11
-0.05
 21
89.15
 31
0.0
100
AcDbText
 73
         2
  0
TEXT
  5
3BA
100
AcDbEntity
  8
ASSEMBLY_REF_DES_TOP
100
AcDbText
 10
37.245025
 20
82.680525
 30
0.0
 40
0.85
  1
X20
  7
GOST_TYPE_B
 72
         1
 11
38.2
 21
83.1
 31
0.0
100
AcDbText
 73
         2
  0
TEXT
  5
3BB
100
AcDbEntity
  8
ASSEMBLY_REF_DES_TOP
100
AcDbText
 10
61.180525
 20
151.5221
 30
0.0
 40
0.85
  1
C39
 50
270.0
  7
GOST_TYPE_B
 72
         1
 11
61.6
 21
150.65
 31
0.0
100
AcDbText
 73
         2
  0
TEXT
  5
3BC
100
AcDbEntity
  8
ASSEMBLY_REF_DES_TOP
100
AcDbText
 10
76.4779
 20
120.930525
 30
0.0
 40
0.85
  1
C95
  7
GOST_TYPE_B
 72
         1
 11
77.35
 21
121.35
 31
0.0
100
AcDbText
 73
         2
  0
TEXT
  5
3BD
100
AcDbEntity
  8
ASSEMBLY_REF_DES_TOP
100
AcDbText
 10
38.611
 20
103.10455
 30
0.0
 40
0.7
  1
C126
  7
GOST_TYPE_B
 72
         1
 11
39.5
 21
103.45
 31
0.0
100
AcDbText
 73
         2
  0
TEXT
  5
3BE
100
AcDbEntity
  8
ASSEMBLY_REF_DES_TOP
100
AcDbText
 10
3.769975
 20
96.580525
 30
0.0
 40
0.85
  1
HL1
  7
GOST_TYPE_B
 72
         1
 11
4.6
 21
97.0
 31
0.0
100
AcDbText
 73
         2
  0
TEXT
  5
3BF
100
AcDbEntity
  8
ASSEMBLY_REF_DES_TOP
100
AcDbText
 10
4.380525
 20
113.5554
 30
0.0
 40
0.85
  1
R58
 50
270.0
  7
GOST_TYPE_B
 72
         1
 11
4.8
 21
112.6
 31
0.0
100
AcDbText
 73
         2
  0
TEXT
  5
3C0
100
AcDbEntity
  8
ASSEMBLY_REF_DES_TOP
100
AcDbText
 10
107.329275
 20
103.280525
 30
0.0
 40
0.85
  1
C134
  7
GOST_TYPE_B
 72
         1
 11
108.45
 21
103.7
 31
0.0
100
AcDbText
 73
         2
  0
TEXT
  5
3C1
100
AcDbEntity
  8
ASSEMBLY_REF_DES_TOP
100
AcDbText
 10
65.080525
 20
111.6462
 30
0.0
 40
0.85
  1
C113
 50
270.0
  7
GOST_TYPE_B
 72
         1
 11
65.5
 21
110.65
 31
0.0
100
AcDbText
 73
         2
  0
TEXT
  5
3C2
100
AcDbEntity
  8
ASSEMBLY_REF_DES_TOP
100
AcDbText
 10
48.380525
 20
114.7295
 30
0.0
 40
0.85
  1
C102
 50
270.0
  7
GOST_TYPE_B
 72
         1
 11
48.8
 21
113.65
 31
0.0
100
AcDbText
 73
         2
  0
TEXT
  5
3C3
100
AcDbEntity
  8
ASSEMBLY_REF_DES_TOP
100
AcDbText
 10
49.50455
 20
106.789
 30
0.0
 40
0.7
  1
C122
 50
270.0
  7
GOST_TYPE_B
 72
         1
 11
49.85
 21
105.9
 31
0.0
100
AcDbText
 73
         2
  0
TEXT
  5
3C4
100
AcDbEntity
  8
ASSEMBLY_REF_DES_TOP
100
AcDbText
 10
71.87145
 20
165.47
 30
0.0
 40
0.85
  1
X2
  7
GOST_TYPE_B
 72
         2
 11
73.2
 21
165.47
 31
0.0
100
AcDbText
 73
         1
  0
TEXT
  5
3C5
100
AcDbEntity
  8
ASSEMBLY_REF_DES_TOP
100
AcDbText
 10
49.04565
 20
94.80455
 30
0.0
 40
0.7
  1
R112
  7
GOST_TYPE_B
 72
         1
 11
49.9
 21
95.15
 31
0.0
100
AcDbText
 73
         2
  0
TEXT
  5
3C6
100
AcDbEntity
  8
ASSEMBLY_REF_DES_TOP
100
AcDbText
 10
56.027375
 20
159.880525
 30
0.0
 40
0.85
  1
R9
  7
GOST_TYPE_B
 72
         1
 11
56.65
 21
160.3
 31
0.0
100
AcDbText
 73
         2
  0
TEXT
  5
3C7
100
AcDbEntity
  8
ASSEMBLY_REF_DES_TOP
100
AcDbText
 10
48.130525
 20
158.52305
 30
0.0
 40
0.85
  1
C4
 50
270.0
  7
GOST_TYPE_B
 72
         1
 11
48.55
 21
157.9
 31
0.0
100
AcDbText
 73
         2
  0
TEXT
  5
3C8
100
AcDbEntity
  8
ASSEMBLY_REF_DES_TOP
100
AcDbText
 10
75.380525
 20
148.6388
 30
0.0
 40
0.85
  1
C51
 50
270.0
  7
GOST_TYPE_B
 72
         1
 11
75.8
 21
147.85
 31
0.0
100
AcDbText
 73
         2
  0
TEXT
  5
3C9
100
AcDbEntity
  8
ASSEMBLY_REF_DES_TOP
100
AcDbText
 10
38.0139
 20
132.30455
 30
0.0
 40
0.7
  1
R34
  7
GOST_TYPE_B
 72
         1
 11
38.8
 21
132.65
 31
0.0
100
AcDbText
 73
         2
  0
TEXT
  5
3CA
100
AcDbEntity
  8
ASSEMBLY_REF_DES_TOP
100
AcDbText
 10
87.9779
 20
118.230525
 30
0.0
 40
0.85
  1
C99
  7
GOST_TYPE_B
 72
         1
 11
88.85
 21
118.65
 31
0.0
100
AcDbText
 73
         2
  0
TEXT
  5
3CB
100
AcDbEntity
  8
ASSEMBLY_REF_DES_TOP
100
AcDbText
 10
76.00455
 20
92.639
 30
0.0
 40
0.7
  1
C155
 50
270.0
  7
GOST_TYPE_B
 72
         1
 11
76.35
 21
91.75
 31
0.0
100
AcDbText
 73
         2
  0
TEXT
  5
3CC
100
AcDbEntity
  8
ASSEMBLY_REF_DES_TOP
100
AcDbText
 10
65.580525
 20
96.713325
 30
0.0
 40
0.85
  1
VT1
 50
270.0
  7
GOST_TYPE_B
 72
         1
 11
66.0
 21
95.8
 31
0.0
100
AcDbText
 73
         2
  0
TEXT
  5
3CD
100
AcDbEntity
  8
ASSEMBLY_REF_DES_TOP
100
AcDbText
 10
75.686675
 20
113.080525
 30
0.0
 40
0.85
  1
R55
  7
GOST_TYPE_B
 72
         1
 11
76.6
 21
113.5
 31
0.0
100
AcDbText
 73
         2
  0
TEXT
  5
3CE
100
AcDbEntity
  8
ASSEMBLY_REF_DES_TOP
100
AcDbText
 10
72.880525
 20
110.3962
 30
0.0
 40
0.85
  1
C117
 50
270.0
  7
GOST_TYPE_B
 72
         1
 11
73.3
 21
109.4
 31
0.0
100
AcDbText
 73
         2
  0
TEXT
  5
3CF
100
AcDbEntity
  8
ASSEMBLY_REF_DES_TOP
100
AcDbText
 10
89.253799
 20
125.980526
 30
0.0
 40
0.85
  1
DA7
  7
GOST_TYPE_B
 72
         1
 11
90.249999
 21
126.400001
 31
0.0
100
AcDbText
 73
         2
  0
TEXT
  5
3D0
100
AcDbEntity
  8
ASSEMBLY_REF_DES_TOP
100
AcDbText
 10
49.086675
 20
119.480525
 30
0.0
 40
0.85
  1
C94
  7
GOST_TYPE_B
 72
         1
 11
50.0
 21
119.9
 31
0.0
100
AcDbText
 73
         2
  0
TEXT
  5
3D1
100
AcDbEntity
  8
ASSEMBLY_REF_DES_TOP
100
AcDbText
 10
75.55455
 20
107.4233
 30
0.0
 40
0.7
  1
C124
 50
270.0
  7
GOST_TYPE_B
 72
         1
 11
75.9
 21
106.5
 31
0.0
100
AcDbText
 73
         2
  0
TEXT
  5
3D2
100
AcDbEntity
  8
ASSEMBLY_REF_DES_TOP
100
AcDbText
 10
76.4779
 20
119.630525
 30
0.0
 40
0.85
  1
C96
  7
GOST_TYPE_B
 72
         1
 11
77.35
 21
120.05
 31
0.0
100
AcDbText
 73
         2
  0
TEXT
  5
3D3
100
AcDbEntity
  8
ASSEMBLY_REF_DES_TOP
100
AcDbText
 10
37.6078
 20
136.607
 30
0.0
 40
1.2
  1
DA5
 50
270.0
  7
GOST_TYPE_B
 72
         1
 11
38.2
 21
135.2
 31
0.0
100
AcDbText
 73
         2
  0
TEXT
  5
3D5
100
AcDbEntity
  8
ASSEMBLY_REF_DES_TOP
100
AcDbText
 10
91.4
 20
98.15
 30
0.0
 40
1.0
  1
X13
  7
VERIBEST_GERBER_0
 72
         2
 11
94.2
 21
98.15
 31
0.0
100
AcDbText
 73
         1
  0
TEXT
  5
3D6
100
AcDbEntity
  8
ASSEMBLY_REF_DES_TOP
100
AcDbText
 10
52.98615
 20
159.880525
 30
0.0
 40
0.85
  1
R8
  7
GOST_TYPE_B
 72
         1
 11
53.65
 21
160.3
 31
0.0
100
AcDbText
 73
         2
  0
TEXT
  5
3D7
100
AcDbEntity
  8
ASSEMBLY_REF_DES_TOP
100
AcDbText
 10
77.130525
 20
152.71375
 30
0.0
 40
0.85
  1
C34
 50
270.0
  7
GOST_TYPE_B
 72
         1
 11
77.55
 21
151.8
 31
0.0
100
AcDbText
 73
         2
  0
TEXT
  5
3D8
100
AcDbEntity
  8
ASSEMBLY_REF_DES_TOP
100
AcDbText
 10
40.7788
 20
126.330525
 30
0.0
 40
0.85
  1
DA6
  7
GOST_TYPE_B
 72
         1
 11
41.775
 21
126.75
 31
0.0
100
AcDbText
 73
         2
  0
TEXT
  5
3D9
100
AcDbEntity
  8
ASSEMBLY_REF_DES_TOP
100
AcDbText
 10
33.280525
 20
113.81375
 30
0.0
 40
0.85
  1
R60
 50
270.0
  7
GOST_TYPE_B
 72
         1
 11
33.7
 21
112.9
 31
0.0
100
AcDbText
 73
         2
  0
TEXT
  5
3DA
100
AcDbEntity
  8
ASSEMBLY_REF_DES_TOP
100
AcDbText
 10
8.986675
 20
144.180525
 30
0.0
 40
0.85
  1
R26
  7
GOST_TYPE_B
 72
         1
 11
9.9
 21
144.6
 31
0.0
100
AcDbText
 73
         2
  0
TEXT
  5
3DB
100
AcDbEntity
  8
ASSEMBLY_REF_DES_TOP
100
AcDbText
 10
78.880525
 20
158.7388
 30
0.0
 40
0.85
  1
C10
 50
270.0
  7
GOST_TYPE_B
 72
         1
 11
79.3
 21
157.95
 31
0.0
100
AcDbText
 73
         2
  0
TEXT
  5
3DC
100
AcDbEntity
  8
ASSEMBLY_REF_DES_TOP
100
AcDbText
 10
38.066
 20
97.1565
 30
0.0
 40
1.0
  1
L6
  7
GOST_TYPE_B
 72
         1
 11
38.75
 21
97.65
 31
0.0
100
AcDbText
 73
         2
  0
TEXT
  5
3DD
100
AcDbEntity
  8
ASSEMBLY_REF_DES_TOP
100
AcDbText
 10
76.586675
 20
127.280525
 30
0.0
 40
0.85
  1
C83
  7
GOST_TYPE_B
 72
         1
 11
77.5
 21
127.7
 31
0.0
100
AcDbText
 73
         2
  0
TEXT
  5
3DE
100
AcDbEntity
  8
ASSEMBLY_REF_DES_TOP
100
AcDbText
 10
60.336675
 20
134.830525
 30
0.0
 40
0.85
  1
R33
  7
GOST_TYPE_B
 72
         1
 11
61.25
 21
135.25
 31
0.0
100
AcDbText
 73
         2
  0
TEXT
  5
3DF
100
AcDbEntity
  8
ASSEMBLY_REF_DES_TOP
100
AcDbText
 10
90.080525
 20
152.18045
 30
0.0
 40
0.85
  1
C41
 50
270.0
  7
GOST_TYPE_B
 72
         1
 11
90.5
 21
151.35
 31
0.0
100
AcDbText
 73
         2
  0
TEXT
  5
3E0
100
AcDbEntity
  8
ASSEMBLY_REF_DES_TOP
100
AcDbText
 10
21.880525
 20
139.1721
 30
0.0
 40
0.85
  1
C73
 50
270.0
  7
GOST_TYPE_B
 72
         1
 11
22.3
 21
138.3
 31
0.0
100
AcDbText
 73
         2
  0
TEXT
  5
3E1
100
AcDbEntity
  8
ASSEMBLY_REF_DES_TOP
100
AcDbText
 10
61.180525
 20
158.7314
 30
0.0
 40
0.85
  1
C6
 50
270.0
  7
GOST_TYPE_B
 72
         1
 11
61.6
 21
158.15
 31
0.0
100
AcDbText
 73
         2
  0
TEXT
  5
3E2
100
AcDbEntity
  8
ASSEMBLY_REF_DES_TOP
100
AcDbText
 10
38.480525
 20
151.86375
 30
0.0
 40
0.85
  1
C38
 50
270.0
  7
GOST_TYPE_B
 72
         1
 11
38.9
 21
150.95
 31
0.0
100
AcDbText
 73
         2
  0
TEXT
  5
3E3
100
AcDbEntity
  8
ASSEMBLY_REF_DES_TOP
100
AcDbText
 10
7.0612
 20
155.180525
 30
0.0
 40
0.85
  1
C12
  7
GOST_TYPE_B
 72
         1
 11
7.85
 21
155.6
 31
0.0
100
AcDbText
 73
         2
  0
TEXT
  5
3E4
100
AcDbEntity
  8
ASSEMBLY_REF_DES_TOP
100
AcDbText
 10
42.15455
 20
109.9704
 30
0.0
 40
0.7
  1
C119
 50
270.0
  7
GOST_TYPE_B
 72
         1
 11
42.5
 21
109.15
 31
0.0
100
AcDbText
 73
         2
  0
TEXT
  5
3E5
100
AcDbEntity
  8
ASSEMBLY_REF_DES_TOP
100
AcDbText
 10
48.180525
 20
152.3721
 30
0.0
 40
0.85
  1
C29
 50
270.0
  7
GOST_TYPE_B
 72
         1
 11
48.6
 21
151.5
 31
0.0
100
AcDbText
 73
         2
  0
TEXT
  5
3E6
100
AcDbEntity
  8
ASSEMBLY_REF_DES_TOP
100
AcDbText
 10
14.286675
 20
151.180525
 30
0.0
 40
0.85
  1
C28
  7
GOST_TYPE_B
 72
         1
 11
15.2
 21
151.6
 31
0.0
100
AcDbText
 73
         2
  0
TEXT
  5
3E7
100
AcDbEntity
  8
ASSEMBLY_REF_DES_TOP
100
AcDbText
 10
-0.719475
 20
142.31375
 30
0.0
 40
0.85
  1
C64
 50
270.0
  7
GOST_TYPE_B
 72
         1
 11
-0.3
 21
141.4
 31
0.0
100
AcDbText
 73
         2
  0
TEXT
  5
3E8
100
AcDbEntity
  8
ASSEMBLY_REF_DES_TOP
100
AcDbText
 10
37.861675
 20
129.130525
 30
0.0
 40
0.85
  1
R37
  7
GOST_TYPE_B
 72
         1
 11
38.775
 21
129.55
 31
0.0
100
AcDbText
 73
         2
  0
TEXT
  5
3E9
100
AcDbEntity
  8
ASSEMBLY_REF_DES_TOP
100
AcDbText
 10
9.680525
 20
153.93045
 30
0.0
 40
0.85
  1
R21
 50
270.0
  7
GOST_TYPE_B
 72
         1
 11
10.1
 21
153.1
 31
0.0
100
AcDbText
 73
         2
  0
TEXT
  5
3EA
100
AcDbEntity
  8
ASSEMBLY_REF_DES_TOP
100
AcDbText
 10
81.512575
 20
81.830525
 30
0.0
 40
0.85
  1
VT8
  7
GOST_TYPE_B
 72
         1
 11
82.55
 21
82.25
 31
0.0
100
AcDbText
 73
         2
  0
TEXT
  5
3EB
100
AcDbEntity
  8
ASSEMBLY_REF_DES_TOP
100
AcDbText
 10
1.330525
 20
115.36375
 30
0.0
 40
0.85
  1
R52
 50
270.0
  7
GOST_TYPE_B
 72
         1
 11
1.75
 21
114.45
 31
0.0
100
AcDbText
 73
         2
  0
TEXT
  5
3EC
100
AcDbEntity
  8
ASSEMBLY_REF_DES_TOP
100
AcDbText
 10
40.95325
 20
135.6875
 30
0.0
 40
0.5
  1
C78
 50
270.0
  7
GOST_TYPE_B
 72
         1
 11
41.2
 21
135.15
 31
0.0
100
AcDbText
 73
         2
  0
TEXT
  5
3ED
100
AcDbEntity
  8
ASSEMBLY_REF_DES_TOP
100
AcDbText
 10
80.12875
 20
120.930525
 30
0.0
 40
0.85
  1
R41
  7
GOST_TYPE_B
 72
         1
 11
81.0
 21
121.35
 31
0.0
100
AcDbText
 73
         2
  0
TEXT
  5
3EE
100
AcDbEntity
  8
ASSEMBLY_REF_DES_TOP
100
AcDbText
 10
66.8612
 20
144.780525
 30
0.0
 40
0.85
  1
C61
  7
GOST_TYPE_B
 72
         1
 11
67.65
 21
145.2
 31
0.0
100
AcDbText
 73
         2
  0
TEXT
  5
3EF
100
AcDbEntity
  8
ASSEMBLY_REF_DES_TOP
100
AcDbText
 10
8.869975
 20
108.030525
 30
0.0
 40
0.85
  1
R71
  7
GOST_TYPE_B
 72
         1
 11
9.7
 21
108.45
 31
0.0
100
AcDbText
 73
         2
  0
TEXT
  5
3F0
100
AcDbEntity
  8
ASSEMBLY_REF_DES_TOP
100
AcDbText
 10
75.130525
 20
134.9221
 30
0.0
 40
0.85
  1
C79
 50
270.0
  7
GOST_TYPE_B
 72
         1
 11
75.55
 21
134.05
 31
0.0
100
AcDbText
 73
         2
  0
TEXT
  5
3F1
100
AcDbEntity
  8
ASSEMBLY_REF_DES_TOP
100
AcDbText
 10
5.530525
 20
93.9795
 30
0.0
 40
0.85
  1
C153
 50
270.0
  7
GOST_TYPE_B
 72
         1
 11
5.95
 21
92.9
 31
0.0
100
AcDbText
 73
         2
  0
TEXT
  5
3F2
100
AcDbEntity
  8
ASSEMBLY_REF_DES_TOP
100
AcDbText
 10
49.880525
 20
152.6221
 30
0.0
 40
0.85
  1
C30
 50
270.0
  7
GOST_TYPE_B
 72
         1
 11
50.3
 21
151.75
 31
0.0
100
AcDbText
 73
         2
  0
TEXT
  5
3F3
100
AcDbEntity
  8
ASSEMBLY_REF_DES_TOP
100
AcDbText
 10
73.42705
 20
97.80455
 30
0.0
 40
0.7
  1
R100
  7
GOST_TYPE_B
 72
         1
 11
74.35
 21
98.15
 31
0.0
100
AcDbText
 73
         2
  0
TEXT
  5
3F4
100
AcDbEntity
  8
ASSEMBLY_REF_DES_TOP
100
AcDbText
 10
106.560675
 20
84.430525
 30
0.0
 40
0.85
  1
T1
  7
GOST_TYPE_B
 72
         1
 11
107.1
 21
84.85
 31
0.0
100
AcDbText
 73
         2
  0
TEXT
  5
3F5
100
AcDbEntity
  8
ASSEMBLY_REF_DES_TOP
100
AcDbText
 10
52.3796
 20
94.70455
 30
0.0
 40
0.7
  1
VT2
  7
GOST_TYPE_B
 72
         1
 11
53.2
 21
95.05
 31
0.0
100
AcDbText
 73
         2
  0
TEXT
  5
3F6
100
AcDbEntity
  8
ASSEMBLY_REF_DES_TOP
100
AcDbText
 10
38.611
 20
104.45455
 30
0.0
 40
0.7
  1
C125
  7
GOST_TYPE_B
 72
         1
 11
39.5
 21
104.8
 31
0.0
100
AcDbText
 73
         2
  0
TEXT
  5
3F7
100
AcDbEntity
  8
ASSEMBLY_REF_DES_TOP
100
AcDbText
 10
37.29545
 20
143.980525
 30
0.0
 40
0.85
  1
R28
  7
GOST_TYPE_B
 72
         1
 11
38.25
 21
144.4
 31
0.0
100
AcDbText
 73
         2
  0
TEXT
  5
3F8
100
AcDbEntity
  8
ASSEMBLY_REF_DES_TOP
100
AcDbText
 10
9.7705
 20
99.830525
 30
0.0
 40
0.85
  1
C139
  7
GOST_TYPE_B
 72
         1
 11
10.85
 21
100.25
 31
0.0
100
AcDbText
 73
         2
  0
TEXT
  5
3F9
100
AcDbEntity
  8
ASSEMBLY_REF_DES_TOP
100
AcDbText
 10
8.780525
 20
137.7221
 30
0.0
 40
0.85
  1
C76
 50
270.0
  7
GOST_TYPE_B
 72
         1
 11
9.2
 21
136.85
 31
0.0
100
AcDbText
 73
         2
  0
TEXT
  5
3FA
100
AcDbEntity
  8
ASSEMBLY_REF_DES_TOP
100
AcDbText
 10
10.530525
 20
161.82305
 30
0.0
 40
0.85
  1
R3
 50
270.0
  7
GOST_TYPE_B
 72
         1
 11
10.95
 21
161.2
 31
0.0
100
AcDbText
 73
         2
  0
TEXT
  5
3FB
100
AcDbEntity
  8
ASSEMBLY_REF_DES_TOP
100
AcDbText
 10
12.186675
 20
140.380525
 30
0.0
 40
0.85
  1
C68
  7
GOST_TYPE_B
 72
         1
 11
13.1
 21
140.8
 31
0.0
100
AcDbText
 73
         2
  0
TEXT
  5
3FC
100
AcDbEntity
  8
ASSEMBLY_REF_DES_TOP
100
AcDbText
 10
83.619975
 20
159.880525
 30
0.0
 40
0.85
  1
R15
  7
GOST_TYPE_B
 72
         1
 11
84.45
 21
160.3
 31
0.0
100
AcDbText
 73
         2
  0
TEXT
  5
3FD
100
AcDbEntity
  8
ASSEMBLY_REF_DES_TOP
100
AcDbText
 10
14.987891
 20
145.946434
 30
0.0
 40
0.85
  1
DA3
  7
GOST_TYPE_B
 72
         1
 11
15.984091
 21
146.365909
 31
0.0
100
AcDbText
 73
         2
  0
TEXT
  5
3FE
100
AcDbEntity
  8
ASSEMBLY_REF_DES_TOP
100
AcDbText
 10
80.14545
 20
122.380525
 30
0.0
 40
0.85
  1
R40
  7
GOST_TYPE_B
 72
         1
 11
81.1
 21
122.8
 31
0.0
100
AcDbText
 73
         2
  0
TEXT
  5
3FF
100
AcDbEntity
  8
ASSEMBLY_REF_DES_TOP
100
AcDbText
 10
84.15455
 20
95.1704
 30
0.0
 40
0.7
  1
C151
 50
270.0
  7
GOST_TYPE_B
 72
         1
 11
84.5
 21
94.35
 31
0.0
100
AcDbText
 73
         2
  0
TEXT
  5
400
100
AcDbEntity
  8
ASSEMBLY_REF_DES_TOP
100
AcDbText
 10
76.586675
 20
125.880525
 30
0.0
 40
0.85
  1
C86
  7
GOST_TYPE_B
 72
         1
 11
77.5
 21
126.3
 31
0.0
100
AcDbText
 73
         2
  0
TEXT
  5
401
100
AcDbEntity
  8
ASSEMBLY_REF_DES_TOP
100
AcDbText
 10
60.319975
 20
136.130525
 30
0.0
 40
0.85
  1
R31
  7
GOST_TYPE_B
 72
         1
 11
61.15
 21
136.55
 31
0.0
100
AcDbText
 73
         2
  0
TEXT
  5
402
100
AcDbEntity
  8
ASSEMBLY_REF_DES_TOP
100
AcDbText
 10
43.44075
 20
97.95325
 30
0.0
 40
0.5
  1
C145
  7
GOST_TYPE_B
 72
         1
 11
44.1
 21
98.2
 31
0.0
100
AcDbText
 73
         2
  0
TEXT
  5
403
100
AcDbEntity
  8
ASSEMBLY_REF_DES_TOP
100
AcDbText
 10
1.10455
 20
98.1233
 30
0.0
 40
0.7
  1
R102
 50
270.0
  7
GOST_TYPE_B
 72
         1
 11
1.45
 21
97.2
 31
0.0
100
AcDbText
 73
         2
  0
TEXT
  5
404
100
AcDbEntity
  8
ASSEMBLY_REF_DES_TOP
100
AcDbText
 10
1.0279
 20
136.380525
 30
0.0
 40
0.85
  1
C75
  7
GOST_TYPE_B
 72
         1
 11
1.9
 21
136.8
 31
0.0
100
AcDbText
 73
         2
  0
TEXT
  5
405
100
AcDbEntity
  8
ASSEMBLY_REF_DES_TOP
100
AcDbText
 10
78.630525
 20
115.3795
 30
0.0
 40
0.85
  1
C105
 50
270.0
  7
GOST_TYPE_B
 72
         1
 11
79.05
 21
114.3
 31
0.0
100
AcDbText
 73
         2
  0
TEXT
  5
406
100
AcDbEntity
  8
ASSEMBLY_REF_DES_TOP
100
AcDbText
 10
22.3779
 20
144.030525
 30
0.0
 40
0.85
  1
C57
  7
GOST_TYPE_B
 72
         1
 11
23.25
 21
144.45
 31
0.0
100
AcDbText
 73
         2
  0
TEXT
  5
407
100
AcDbEntity
  8
ASSEMBLY_REF_DES_TOP
100
AcDbText
 10
81.612575
 20
84.430525
 30
0.0
 40
0.85
  1
R131
  7
GOST_TYPE_B
 72
         1
 11
82.65
 21
84.85
 31
0.0
100
AcDbText
 73
         2
  0
TEXT
  5
408
100
AcDbEntity
  8
ASSEMBLY_REF_DES_TOP
100
AcDbText
 10
61.180525
 20
148.71375
 30
0.0
 40
0.85
  1
C49
 50
270.0
  7
GOST_TYPE_B
 72
         1
 11
61.6
 21
147.8
 31
0.0
100
AcDbText
 73
         2
  0
TEXT
  5
409
100
AcDbEntity
  8
ASSEMBLY_REF_DES_TOP
100
AcDbText
 10
78.30455
 20
102.0233
 30
0.0
 40
0.7
  1
C142
 50
270.0
  7
GOST_TYPE_B
 72
         1
 11
78.65
 21
101.1
 31
0.0
100
AcDbText
 73
         2
  0
TEXT
  5
40A
100
AcDbEntity
  8
ASSEMBLY_REF_DES_TOP
100
AcDbText
 10
53.9245
 20
82.4565
 30
0.0
 40
1.0
  1
X17
  7
GOST_TYPE_B
 72
         1
 11
54.95
 21
82.95
 31
0.0
100
AcDbText
 73
         2
  0
TEXT
  5
40B
100
AcDbEntity
  8
ASSEMBLY_REF_DES_TOP
100
AcDbText
 10
78.880525
 20
152.26375
 30
0.0
 40
0.85
  1
C40
 50
270.0
  7
GOST_TYPE_B
 72
         1
 11
79.3
 21
151.35
 31
0.0
100
AcDbText
 73
         2
  0
TEXT
  5
40C
100
AcDbEntity
  8
ASSEMBLY_REF_DES_TOP
100
AcDbText
 10
63.3019
 20
160.080525
 30
0.0
 40
0.85
  1
C1
  7
GOST_TYPE_B
 72
         1
 11
63.8
 21
160.5
 31
0.0
100
AcDbText
 73
         2
  0
TEXT
  5
40D
100
AcDbEntity
  8
ASSEMBLY_REF_DES_TOP
100
AcDbText
 10
35.4431
 20
102.65455
 30
0.0
 40
0.7
  1
R138
  7
GOST_TYPE_B
 72
         1
 11
36.4
 21
103.0
 31
0.0
100
AcDbText
 73
         2
  0
TEXT
  5
40E
100
AcDbEntity
  8
ASSEMBLY_REF_DES_TOP
100
AcDbText
 10
44.961675
 20
128.980525
 30
0.0
 40
0.85
  1
C82
  7
GOST_TYPE_B
 72
         1
 11
45.875
 21
129.4
 31
0.0
100
AcDbText
 73
         2
  0
TEXT
  5
40F
100
AcDbEntity
  8
ASSEMBLY_REF_DES_TOP
100
AcDbText
 10
38.480525
 20
155.6888
 30
0.0
 40
0.85
  1
C19
 50
270.0
  7
GOST_TYPE_B
 72
         1
 11
38.9
 21
154.9
 31
0.0
100
AcDbText
 73
         2
  0
TEXT
  5
410
100
AcDbEntity
  8
ASSEMBLY_REF_DES_TOP
100
AcDbText
 10
52.336675
 20
97.280525
 30
0.0
 40
0.85
  1
R99
  7
GOST_TYPE_B
 72
         1
 11
53.25
 21
97.7
 31
0.0
100
AcDbText
 73
         2
  0
TEXT
  5
411
100
AcDbEntity
  8
ASSEMBLY_REF_DES_TOP
100
AcDbText
 10
30.67135
 20
92.680525
 30
0.0
 40
0.85
  1
R114
  7
GOST_TYPE_B
 72
         1
 11
31.75
 21
93.1
 31
0.0
100
AcDbText
 73
         2
  0
TEXT
  5
412
100
AcDbEntity
  8
ASSEMBLY_REF_DES_TOP
100
AcDbText
 10
84.15455
 20
98.6733
 30
0.0
 40
0.7
  1
C147
 50
270.0
  7
GOST_TYPE_B
 72
         1
 11
84.5
 21
97.75
 31
0.0
100
AcDbText
 73
         2
  0
TEXT
  5
413
100
AcDbEntity
  8
ASSEMBLY_REF_DES_TOP
100
AcDbText
 10
3.080525
 20
102.06375
 30
0.0
 40
0.85
  1
R92
 50
270.0
  7
GOST_TYPE_B
 72
         1
 11
3.5
 21
101.15
 31
0.0
100
AcDbText
 73
         2
  0
TEXT
  5
415
100
AcDbEntity
  8
ASSEMBLY_REF_DES_TOP
100
AcDbText
 10
89.63305
 20
79.96075
 30
0.0
 40
0.7
  1
X22
 50
270.0
  7
GOST_D
 72
         1
 11
89.975
 21
79.175
 31
0.0
100
AcDbText
 73
         2
  0
TEXT
  5
416
100
AcDbEntity
  8
ASSEMBLY_REF_DES_TOP
100
AcDbText
 10
3.736675
 20
98.430525
 30
0.0
 40
0.85
  1
R96
  7
GOST_TYPE_B
 72
         1
 11
4.65
 21
98.85
 31
0.0
100
AcDbText
 73
         2
  0
TEXT
  5
417
100
AcDbEntity
  8
ASSEMBLY_REF_DES_TOP
100
AcDbText
 10
51.90455
 20
106.0368
 30
0.0
 40
0.7
  1
R83
 50
270.0
  7
GOST_TYPE_B
 72
         1
 11
52.25
 21
105.25
 31
0.0
100
AcDbText
 73
         2
  0
TEXT
  5
418
100
AcDbEntity
  8
ASSEMBLY_REF_DES_TOP
100
AcDbText
 10
67.930525
 20
111.4962
 30
0.0
 40
0.85
  1
C115
 50
270.0
  7
GOST_TYPE_B
 72
         1
 11
68.35
 21
110.5
 31
0.0
100
AcDbText
 73
         2
  0
TEXT
  5
419
100
AcDbEntity
  8
ASSEMBLY_REF_DES_TOP
100
AcDbText
 10
8.786675
 20
106.680525
 30
0.0
 40
0.85
  1
R77
  7
GOST_TYPE_B
 72
         1
 11
9.7
 21
107.1
 31
0.0
100
AcDbText
 73
         2
  0
TEXT
  5
41A
100
AcDbEntity
  8
ASSEMBLY_REF_DES_TOP
100
AcDbText
 10
51.580525
 20
152.2888
 30
0.0
 40
0.85
  1
C31
 50
270.0
  7
GOST_TYPE_B
 72
         1
 11
52.0
 21
151.5
 31
0.0
100
AcDbText
 73
         2
  0
TEXT
  5
41B
100
AcDbEntity
  8
ASSEMBLY_REF_DES_TOP
100
AcDbText
 10
66.380525
 20
111.68785
 30
0.0
 40
0.85
  1
C114
 50
270.0
  7
GOST_TYPE_B
 72
         1
 11
66.8
 21
110.65
 31
0.0
100
AcDbText
 73
         2
  0
TEXT
  5
41C
100
AcDbEntity
  8
ASSEMBLY_REF_DES_TOP
100
AcDbText
 10
63.19545
 20
122.880525
 30
0.0
 40
0.85
  1
DD6
  7
GOST_TYPE_B
 72
         1
 11
64.15
 21
123.3
 31
0.0
100
AcDbText
 73
         2
  0
TEXT
  5
41D
100
AcDbEntity
  8
ASSEMBLY_REF_DES_TOP
100
AcDbText
 10
83.9279
 20
123.730525
 30
0.0
 40
0.85
  1
C90
  7
GOST_TYPE_B
 72
         1
 11
84.8
 21
124.15
 31
0.0
100
AcDbText
 73
         2
  0
TEXT
  5
41E
100
AcDbEntity
  8
ASSEMBLY_REF_DES_TOP
100
AcDbText
 10
36.40455
 20
106.2525
 30
0.0
 40
0.7
  1
R79
 50
270.0
  7
GOST_TYPE_B
 72
         1
 11
36.75
 21
105.5
 31
0.0
100
AcDbText
 73
         2
  0
TEXT
  5
41F
100
AcDbEntity
  8
ASSEMBLY_REF_DES_TOP
100
AcDbText
 10
21.980525
 20
142.81375
 30
0.0
 40
0.85
  1
R29
 50
270.0
  7
GOST_TYPE_B
 72
         1
 11
22.4
 21
141.9
 31
0.0
100
AcDbText
 73
         2
  0
TEXT
  5
420
100
AcDbEntity
  8
ASSEMBLY_REF_DES_TOP
100
AcDbText
 10
46.47705
 20
98.30455
 30
0.0
 40
0.7
  1
C146
  7
GOST_TYPE_B
 72
         1
 11
47.4
 21
98.65
 31
0.0
100
AcDbText
 73
         2
  0
TEXT
  5
421
100
AcDbEntity
  8
ASSEMBLY_REF_DES_TOP
100
AcDbText
 10
74.0279
 20
139.430525
 30
0.0
 40
0.85
  1
C72
  7
GOST_TYPE_B
 72
         1
 11
74.9
 21
139.85
 31
0.0
100
AcDbText
 73
         2
  0
TEXT
  5
422
100
AcDbEntity
  8
ASSEMBLY_REF_DES_TOP
100
AcDbText
 10
88.4825
 20
106.40455
 30
0.0
 40
0.7
  1
R81
  7
GOST_TYPE_B
 72
         1
 11
89.2
 21
106.75
 31
0.0
100
AcDbText
 73
         2
  0
TEXT
  5
423
100
AcDbEntity
  8
ASSEMBLY_REF_DES_TOP
100
AcDbText
 10
87.59545
 20
121.580525
 30
0.0
 40
0.85
  1
R42
  7
GOST_TYPE_B
 72
         1
 11
88.55
 21
122.0
 31
0.0
100
AcDbText
 73
         2
  0
TEXT
  5
424
100
AcDbEntity
  8
ASSEMBLY_REF_DES_TOP
100
AcDbText
 10
33.03615
 20
160.130525
 30
0.0
 40
0.85
  1
R4
  7
GOST_TYPE_B
 72
         1
 11
33.7
 21
160.55
 31
0.0
100
AcDbText
 73
         2
  0
TEXT
  5
425
100
AcDbEntity
  8
ASSEMBLY_REF_DES_TOP
100
AcDbText
 10
88.380525
 20
148.36375
 30
0.0
 40
0.85
  1
C54
 50
270.0
  7
GOST_TYPE_B
 72
         1
 11
88.8
 21
147.45
 31
0.0
100
AcDbText
 73
         2
  0
TEXT
  5
426
100
AcDbEntity
  8
ASSEMBLY_REF_DES_TOP
100
AcDbText
 10
38.480525
 20
158.4314
 30
0.0
 40
0.85
  1
C3
 50
270.0
  7
GOST_TYPE_B
 72
         1
 11
38.9
 21
157.85
 31
0.0
100
AcDbText
 73
         2
  0
TEXT
  5
427
100
AcDbEntity
  8
ASSEMBLY_REF_DES_TOP
100
AcDbText
 10
15.5279
 20
140.380525
 30
0.0
 40
0.85
  1
C69
  7
GOST_TYPE_B
 72
         1
 11
16.4
 21
140.8
 31
0.0
100
AcDbText
 73
         2
  0
TEXT
  5
428
100
AcDbEntity
  8
ASSEMBLY_REF_DES_TOP
100
AcDbText
 10
71.862575
 20
95.780525
 30
0.0
 40
0.85
  1
R110
  7
GOST_TYPE_B
 72
         1
 11
72.9
 21
96.2
 31
0.0
100
AcDbText
 73
         2
  0
TEXT
  5
429
100
AcDbEntity
  8
ASSEMBLY_REF_DES_TOP
100
AcDbText
 10
14.921191
 20
154.596434
 30
0.0
 40
0.85
  1
DA1
  7
GOST_TYPE_B
 72
         1
 11
15.834091
 21
155.015909
 31
0.0
100
AcDbText
 73
         2
  0
TEXT
  5
42A
100
AcDbEntity
  8
ASSEMBLY_REF_DES_TOP
100
AcDbText
 10
9.030525
 20
161.82305
 30
0.0
 40
0.85
  1
R2
 50
270.0
  7
GOST_TYPE_B
 72
         1
 11
9.45
 21
161.2
 31
0.0
100
AcDbText
 73
         2
  0
TEXT
  5
42B
100
AcDbEntity
  8
ASSEMBLY_REF_DES_TOP
100
AcDbText
 10
65.880525
 20
152.2721
 30
0.0
 40
0.85
  1
C32
 50
270.0
  7
GOST_TYPE_B
 72
         1
 11
66.3
 21
151.4
 31
0.0
100
AcDbText
 73
         2
  0
TEXT
  5
42C
100
AcDbEntity
  8
ASSEMBLY_REF_DES_TOP
100
AcDbText
 10
57.479275
 20
95.180525
 30
0.0
 40
0.85
  1
R107
  7
GOST_TYPE_B
 72
         1
 11
58.6
 21
95.6
 31
0.0
100
AcDbText
 73
         2
  0
TEXT
  5
42D
100
AcDbEntity
  8
ASSEMBLY_REF_DES_TOP
100
AcDbText
 10
63.512575
 20
89.530525
 30
0.0
 40
0.85
  1
R119
  7
GOST_TYPE_B
 72
         1
 11
64.55
 21
89.95
 31
0.0
100
AcDbText
 73
         2
  0
TEXT
  5
42E
100
AcDbEntity
  8
ASSEMBLY_REF_DES_TOP
100
AcDbText
 10
69.912726
 20
152.297799
 30
0.0
 40
0.85
  1
DD3
  7
GOST_TYPE_B
 72
         1
 11
70.867276
 21
152.717274
 31
0.0
100
AcDbText
 73
         2
  0
TEXT
  5
42F
100
AcDbEntity
  8
ASSEMBLY_REF_DES_TOP
100
AcDbText
 10
33.051391
 20
152.531034
 30
0.0
 40
0.85
  1
L1
  7
GOST_TYPE_B
 72
         1
 11
33.549491
 21
152.950509
 31
0.0
100
AcDbText
 73
         2
  0
TEXT
  5
430
100
AcDbEntity
  8
ASSEMBLY_REF_DES_TOP
100
AcDbText
 10
62.169975
 20
111.230525
 30
0.0
 40
0.85
  1
R61
  7
GOST_TYPE_B
 72
         1
 11
63.0
 21
111.65
 31
0.0
100
AcDbText
 73
         2
  0
TEXT
  5
431
100
AcDbEntity
  8
ASSEMBLY_REF_DES_TOP
100
AcDbText
 10
97.680525
 20
93.8795
 30
0.0
 40
0.85
  1
C157
 50
270.0
  7
GOST_TYPE_B
 72
         1
 11
98.1
 21
92.8
 31
0.0
100
AcDbText
 73
         2
  0
TEXT
  5
432
100
AcDbEntity
  8
ASSEMBLY_REF_DES_TOP
100
AcDbText
 10
65.880525
 20
155.6221
 30
0.0
 40
0.85
  1
C23
 50
270.0
  7
GOST_TYPE_B
 72
         1
 11
66.3
 21
154.75
 31
0.0
100
AcDbText
 73
         2
  0
TEXT
  5
433
100
AcDbEntity
  8
ASSEMBLY_REF_DES_TOP
100
AcDbText
 10
82.3038
 20
110.980525
 30
0.0
 40
0.85
  1
C110
  7
GOST_TYPE_B
 72
         1
 11
83.3
 21
111.4
 31
0.0
100
AcDbText
 73
         2
  0
TEXT
  5
434
100
AcDbEntity
  8
ASSEMBLY_REF_DES_TOP
100
AcDbText
 10
13.270925
 20
119.180525
 30
0.0
 40
0.85
  1
Bat1
  7
GOST_TYPE_B
 72
         1
 11
14.35
 21
119.6
 31
0.0
100
AcDbText
 73
         2
  0
TEXT
  5
435
100
AcDbEntity
  8
ASSEMBLY_REF_DES_TOP
100
AcDbText
 10
22.279275
 20
89.280525
 30
0.0
 40
0.85
  1
C158
  7
GOST_TYPE_B
 72
         1
 11
23.4
 21
89.7
 31
0.0
100
AcDbText
 73
         2
  0
TEXT
  5
436
100
AcDbEntity
  8
ASSEMBLY_REF_DES_TOP
100
AcDbText
 10
35.186675
 20
108.830525
 30
0.0
 40
0.85
  1
R73
  7
GOST_TYPE_B
 72
         1
 11
36.1
 21
109.25
 31
0.0
100
AcDbText
 73
         2
  0
TEXT
  5
437
100
AcDbEntity
  8
ASSEMBLY_REF_DES_TOP
100
AcDbText
 10
89.186675
 20
110.380525
 30
0.0
 40
0.85
  1
R70
  7
GOST_TYPE_B
 72
         1
 11
90.1
 21
110.8
 31
0.0
100
AcDbText
 73
         2
  0
TEXT
  5
438
100
AcDbEntity
  8
ASSEMBLY_REF_DES_TOP
100
AcDbText
 10
65.880525
 20
148.6721
 30
0.0
 40
0.85
  1
C50
 50
270.0
  7
GOST_TYPE_B
 72
         1
 11
66.3
 21
147.8
 31
0.0
100
AcDbText
 73
         2
  0
TEXT
  5
439
100
AcDbEntity
  8
ASSEMBLY_REF_DES_TOP
100
AcDbText
 10
71.8705
 20
94.430525
 30
0.0
 40
0.85
  1
C150
  7
GOST_TYPE_B
 72
         1
 11
72.95
 21
94.85
 31
0.0
100
AcDbText
 73
         2
  0
TEXT
  5
43A
100
AcDbEntity
  8
ASSEMBLY_REF_DES_TOP
100
AcDbText
 10
-7.314784
 20
153.081034
 30
0.0
 40
0.85
  1
X6
  7
GOST_TYPE_B
 72
         1
 11
-6.650509
 21
153.500509
 31
0.0
100
AcDbText
 73
         2
  0
TEXT
  5
43B
100
AcDbEntity
  8
ASSEMBLY_REF_DES_TOP
100
AcDbText
 10
21.880525
 20
136.0721
 30
0.0
 40
0.85
  1
C77
 50
270.0
  7
GOST_TYPE_B
 72
         1
 11
22.3
 21
135.2
 31
0.0
100
AcDbText
 73
         2
  0
TEXT
  5
43C
100
AcDbEntity
  8
ASSEMBLY_REF_DES_TOP
100
AcDbText
 10
81.664
 20
90.60325
 30
0.0
 40
0.5
  1
C161
  7
GOST_TYPE_B
 72
         1
 11
82.25
 21
90.85
 31
0.0
100
AcDbText
 73
         2
  0
TEXT
  5
43D
100
AcDbEntity
  8
ASSEMBLY_REF_DES_TOP
100
AcDbText
 10
5.830525
 20
150.2721
 30
0.0
 40
0.85
  1
C37
 50
270.0
  7
GOST_TYPE_B
 72
         1
 11
6.25
 21
149.4
 31
0.0
100
AcDbText
 73
         2
  0
TEXT
  5
43E
100
AcDbEntity
  8
ASSEMBLY_REF_DES_TOP
100
AcDbText
 10
8.829191
 20
90.831034
 30
0.0
 40
0.85
  1
DA11
  7
GOST_TYPE_B
 72
         1
 11
9.949491
 21
91.250509
 31
0.0
100
AcDbText
 73
         2
  0
TEXT
  5
43F
100
AcDbEntity
  8
ASSEMBLY_REF_DES_TOP
100
AcDbText
 10
94.730525
 20
91.72115
 30
0.0
 40
0.85
  1
R122
 50
270.0
  7
GOST_TYPE_B
 72
         1
 11
95.15
 21
90.6
 31
0.0
100
AcDbText
 73
         2
  0
TEXT
  5
440
100
AcDbEntity
  8
ASSEMBLY_REF_DES_TOP
100
AcDbText
 10
18.943041
 20
152.131034
 30
0.0
 40
0.85
  1
J1
  7
GOST_TYPE_B
 72
         1
 11
19.399491
 21
152.550509
 31
0.0
100
AcDbText
 73
         2
  0
TEXT
  5
441
100
AcDbEntity
  8
ASSEMBLY_REF_DES_TOP
100
AcDbText
 10
82.2205
 20
112.930525
 30
0.0
 40
0.85
  1
C109
  7
GOST_TYPE_B
 72
         1
 11
83.3
 21
113.35
 31
0.0
100
AcDbText
 73
         2
  0
TEXT
  5
442
100
AcDbEntity
  8
ASSEMBLY_REF_DES_TOP
100
AcDbText
 10
22.3705
 20
111.880525
 30
0.0
 40
0.85
  1
C106
  7
GOST_TYPE_B
 72
         1
 11
23.45
 21
112.3
 31
0.0
100
AcDbText
 73
         2
  0
TEXT
  5
443
100
AcDbEntity
  8
ASSEMBLY_REF_DES_TOP
100
AcDbText
 10
41.09785
 20
132.30455
 30
0.0
 40
0.7
  1
R35
  7
GOST_TYPE_B
 72
         1
 11
41.85
 21
132.65
 31
0.0
100
AcDbText
 73
         2
  0
TEXT
  5
444
100
AcDbEntity
  8
ASSEMBLY_REF_DES_TOP
100
AcDbText
 10
31.580525
 20
113.9295
 30
0.0
 40
0.85
  1
C107
 50
270.0
  7
GOST_TYPE_B
 72
         1
 11
32.0
 21
112.85
 31
0.0
100
AcDbText
 73
         2
  0
TEXT
  5
445
100
AcDbEntity
  8
ASSEMBLY_REF_DES_TOP
100
AcDbText
 10
58.28805
 20
96.680525
 30
0.0
 40
0.85
  1
R108
  7
GOST_TYPE_B
 72
         1
 11
59.45
 21
97.1
 31
0.0
100
AcDbText
 73
         2
  0
TEXT
  5
446
100
AcDbEntity
  8
ASSEMBLY_REF_DES_TOP
100
AcDbText
 10
18.736675
 20
143.330525
 30
0.0
 40
0.85
  1
R27
  7
GOST_TYPE_B
 72
         1
 11
19.65
 21
143.75
 31
0.0
100
AcDbText
 73
         2
  0
TEXT
  5
447
100
AcDbEntity
  8
ASSEMBLY_REF_DES_TOP
100
AcDbText
 10
14.480525
 20
102.3554
 30
0.0
 40
0.85
  1
R86
 50
270.0
  7
GOST_TYPE_B
 72
         1
 11
14.9
 21
101.4
 31
0.0
100
AcDbText
 73
         2
  0
TEXT
  5
448
100
AcDbEntity
  8
ASSEMBLY_REF_DES_TOP
100
AcDbText
 10
18.7279
 20
140.380525
 30
0.0
 40
0.85
  1
C70
  7
GOST_TYPE_B
 72
         1
 11
19.6
 21
140.8
 31
0.0
100
AcDbText
 73
         2
  0
TEXT
  5
449
100
AcDbEntity
  8
ASSEMBLY_REF_DES_TOP
100
AcDbText
 10
18.830525
 20
157.8221
 30
0.0
 40
0.85
  1
R18
 50
270.0
  7
GOST_TYPE_B
 72
         1
 11
19.25
 21
156.95
 31
0.0
100
AcDbText
 73
         2
  0
TEXT
  5
44A
100
AcDbEntity
  8
ASSEMBLY_REF_DES_TOP
100
AcDbText
 10
62.480525
 20
93.78785
 30
0.0
 40
0.85
  1
R117
 50
270.0
  7
GOST_TYPE_B
 72
         1
 11
62.9
 21
92.75
 31
0.0
100
AcDbText
 73
         2
  0
TEXT
  5
44B
100
AcDbEntity
  8
ASSEMBLY_REF_DES_TOP
100
AcDbText
 10
91.180525
 20
148.3221
 30
0.0
 40
0.85
  1
C55
 50
270.0
  7
GOST_TYPE_B
 72
         1
 11
91.6
 21
147.45
 31
0.0
100
AcDbText
 73
         2
  0
TEXT
  5
44C
100
AcDbEntity
  8
ASSEMBLY_REF_DES_TOP
100
AcDbText
 10
114.680525
 20
100.36375
 30
0.0
 40
0.85
  1
R95
 50
270.0
  7
GOST_TYPE_B
 72
         1
 11
115.1
 21
99.45
 31
0.0
100
AcDbText
 73
         2
  0
TEXT
  5
44D
100
AcDbEntity
  8
ASSEMBLY_REF_DES_TOP
100
AcDbText
 10
15.930525
 20
97.3128
 30
0.0
 40
0.85
  1
R104
 50
270.0
  7
GOST_TYPE_B
 72
         1
 11
16.35
 21
96.15
 31
0.0
100
AcDbText
 73
         2
  0
TEXT
  5
44E
100
AcDbEntity
  8
ASSEMBLY_REF_DES_TOP
100
AcDbText
 10
83.177375
 20
116.580525
 30
0.0
 40
0.85
  1
L4
  7
GOST_TYPE_B
 72
         1
 11
83.8
 21
117.0
 31
0.0
100
AcDbText
 73
         2
  0
TEXT
  5
44F
100
AcDbEntity
  8
ASSEMBLY_REF_DES_TOP
100
AcDbText
 10
6.180525
 20
153.88045
 30
0.0
 40
0.85
  1
R19
 50
270.0
  7
GOST_TYPE_B
 72
         1
 11
6.6
 21
153.05
 31
0.0
100
AcDbText
 73
         2
  0
TEXT
  5
450
100
AcDbEntity
  8
ASSEMBLY_REF_DES_TOP
100
AcDbText
 10
12.180525
 20
92.62115
 30
0.0
 40
0.85
  1
C154
 50
270.0
  7
GOST_TYPE_B
 72
         1
 11
12.6
 21
91.5
 31
0.0
100
AcDbText
 73
         2
  0
TEXT
  5
451
100
AcDbEntity
  8
ASSEMBLY_REF_DES_TOP
100
AcDbText
 10
1.330525
 20
101.23045
 30
0.0
 40
0.85
  1
R91
 50
270.0
  7
GOST_TYPE_B
 72
         1
 11
1.75
 21
100.4
 31
0.0
100
AcDbText
 73
         2
  0
TEXT
  5
452
100
AcDbEntity
  8
ASSEMBLY_REF_DES_TOP
100
AcDbText
 10
52.1279
 20
144.780525
 30
0.0
 40
0.85
  1
C59
  7
GOST_TYPE_B
 72
         1
 11
53.0
 21
145.2
 31
0.0
100
AcDbText
 73
         2
  0
TEXT
  5
453
100
AcDbEntity
  8
ASSEMBLY_REF_DES_TOP
100
AcDbText
 10
48.5612
 20
120.980525
 30
0.0
 40
0.85
  1
C91
  7
GOST_TYPE_B
 72
         1
 11
49.35
 21
121.4
 31
0.0
100
AcDbText
 73
         2
  0
TEXT
  5
454
100
AcDbEntity
  8
ASSEMBLY_REF_DES_TOP
100
AcDbText
 10
11.530525
 20
148.1554
 30
0.0
 40
0.85
  1
R24
 50
270.0
  7
GOST_TYPE_B
 72
         1
 11
11.95
 21
147.2
 31
0.0
100
AcDbText
 73
         2
  0
TEXT
  5
455
100
AcDbEntity
  8
ASSEMBLY_REF_DES_TOP
100
AcDbText
 10
77.34545
 20
128.880525
 30
0.0
 40
0.85
  1
C84
  7
GOST_TYPE_B
 72
         1
 11
78.3
 21
129.3
 31
0.0
100
AcDbText
 73
         2
  0
TEXT
  5
456
100
AcDbEntity
  8
ASSEMBLY_REF_DES_TOP
100
AcDbText
 10
111.929275
 20
101.280525
 30
0.0
 40
0.85
  1
C138
  7
GOST_TYPE_B
 72
         1
 11
113.05
 21
101.7
 31
0.0
100
AcDbText
 73
         2
  0
TEXT
  5
457
100
AcDbEntity
  8
ASSEMBLY_REF_DES_TOP
100
AcDbText
 10
87.64545
 20
120.030525
 30
0.0
 40
0.85
  1
R45
  7
GOST_TYPE_B
 72
         1
 11
88.6
 21
120.45
 31
0.0
100
AcDbText
 73
         2
  0
TEXT
  5
458
100
AcDbEntity
  8
ASSEMBLY_REF_DES_TOP
100
AcDbText
 10
30.4705
 20
116.130525
 30
0.0
 40
0.85
  1
C100
  7
GOST_TYPE_B
 72
         1
 11
31.55
 21
116.55
 31
0.0
100
AcDbText
 73
         2
  0
TEXT
  5
459
100
AcDbEntity
  8
ASSEMBLY_REF_DES_TOP
100
AcDbText
 10
110.59545
 20
104.780525
 30
0.0
 40
0.85
  1
R85
  7
GOST_TYPE_B
 72
         1
 11
111.55
 21
105.2
 31
0.0
100
AcDbText
 73
         2
  0
TEXT
  5
45A
100
AcDbEntity
  8
ASSEMBLY_REF_DES_TOP
100
AcDbText
 10
61.9038
 20
107.780525
 30
0.0
 40
0.85
  1
C121
  7
GOST_TYPE_B
 72
         1
 11
62.9
 21
108.2
 31
0.0
100
AcDbText
 73
         2
  0
TEXT
  5
45B
100
AcDbEntity
  8
ASSEMBLY_REF_DES_TOP
100
AcDbText
 10
77.480525
 20
155.6721
 30
0.0
 40
0.85
  1
C25
 50
270.0
  7
GOST_TYPE_B
 72
         1
 11
77.9
 21
154.8
 31
0.0
100
AcDbText
 73
         2
  0
TEXT
  5
45C
100
AcDbEntity
  8
ASSEMBLY_REF_DES_TOP
100
AcDbText
 10
104.380525
 20
104.9295
 30
0.0
 40
0.85
  1
C132
 50
270.0
  7
GOST_TYPE_B
 72
         1
 11
104.8
 21
103.85
 31
0.0
100
AcDbText
 73
         2
  0
TEXT
  5
45D
100
AcDbEntity
  8
ASSEMBLY_REF_DES_TOP
100
AcDbText
 10
63.730525
 20
106.4295
 30
0.0
 40
0.85
  1
C129
 50
270.0
  7
GOST_TYPE_B
 72
         1
 11
64.15
 21
105.35
 31
0.0
100
AcDbText
 73
         2
  0
TEXT
  5
45E
100
AcDbEntity
  8
ASSEMBLY_REF_DES_TOP
100
AcDbText
 10
80.680525
 20
127.36375
 30
0.0
 40
0.85
  1
R39
 50
270.0
  7
GOST_TYPE_B
 72
         1
 11
81.1
 21
126.45
 31
0.0
100
AcDbText
 73
         2
  0
TEXT
  5
45F
100
AcDbEntity
  8
ASSEMBLY_REF_DES_TOP
100
AcDbText
 10
15.329275
 20
88.930525
 30
0.0
 40
0.85
  1
R125
  7
GOST_TYPE_B
 72
         1
 11
16.45
 21
89.35
 31
0.0
100
AcDbText
 73
         2
  0
TEXT
  5
460
100
AcDbEntity
  8
ASSEMBLY_REF_DES_TOP
100
AcDbText
 10
36.336675
 20
116.680525
 30
0.0
 40
0.85
  1
R50
  7
GOST_TYPE_B
 72
         1
 11
37.25
 21
117.1
 31
0.0
100
AcDbText
 73
         2
  0
TEXT
  5
461
100
AcDbEntity
  8
ASSEMBLY_REF_DES_TOP
100
AcDbText
 10
6.5705
 20
131.65
 30
0.0
 40
0.85
  1
J5
  7
GOST_TYPE_B
 72
         2
 11
7.65
 21
131.65
 31
0.0
100
AcDbText
 73
         1
  0
TEXT
  5
462
100
AcDbEntity
  8
ASSEMBLY_REF_DES_TOP
100
AcDbText
 10
2.804691
 20
162.645309
 30
0.0
 40
0.85
  1
X5
  7
GOST_TYPE_B
 72
         2
 11
4.133241
 21
162.645309
 31
0.0
100
AcDbText
 73
         1
  0
TEXT
  5
463
100
AcDbEntity
  8
ASSEMBLY_REF_DES_TOP
100
AcDbText
 10
57.4538
 20
92.280525
 30
0.0
 40
0.85
  1
VT5
  7
GOST_TYPE_B
 72
         1
 11
58.45
 21
92.7
 31
0.0
100
AcDbText
 73
         2
  0
TEXT
  5
464
100
AcDbEntity
  8
ASSEMBLY_REF_DES_TOP
100
AcDbText
 10
29.3445
 20
124.130525
 30
0.0
 40
0.85
  1
X8
  7
GOST_TYPE_B
 72
         1
 11
30.05
 21
124.55
 31
0.0
100
AcDbText
 73
         2
  0
TEXT
  5
465
100
AcDbEntity
  8
ASSEMBLY_REF_DES_TOP
100
AcDbText
 10
114.680525
 20
103.36375
 30
0.0
 40
0.85
  1
R90
 50
270.0
  7
GOST_TYPE_B
 72
         1
 11
115.1
 21
102.45
 31
0.0
100
AcDbText
 73
         2
  0
TEXT
  5
466
100
AcDbEntity
  8
ASSEMBLY_REF_DES_TOP
100
AcDbText
 10
82.871501
 20
152.297799
 30
0.0
 40
0.85
  1
DD4
  7
GOST_TYPE_B
 72
         1
 11
83.867276
 21
152.717274
 31
0.0
100
AcDbText
 73
         2
  0
TEXT
  5
467
100
AcDbEntity
  8
ASSEMBLY_REF_DES_TOP
100
AcDbText
 10
107.3705
 20
104.630525
 30
0.0
 40
0.85
  1
C133
  7
GOST_TYPE_B
 72
         1
 11
108.45
 21
105.05
 31
0.0
100
AcDbText
 73
         2
  0
TEXT
  5
468
100
AcDbEntity
  8
ASSEMBLY_REF_DES_TOP
100
AcDbText
 10
13.780525
 20
99.31375
 30
0.0
 40
0.85
  1
R97
 50
270.0
  7
GOST_TYPE_B
 72
         1
 11
14.2
 21
98.4
 31
0.0
100
AcDbText
 73
         2
  0
TEXT
  5
469
100
AcDbEntity
  8
ASSEMBLY_REF_DES_TOP
100
AcDbText
 10
111.88805
 20
98.330525
 30
0.0
 40
0.85
  1
C148
  7
GOST_TYPE_B
 72
         1
 11
113.05
 21
98.75
 31
0.0
100
AcDbText
 73
         2
  0
TEXT
  5
46A
100
AcDbEntity
  8
ASSEMBLY_REF_DES_TOP
100
AcDbText
 10
90.580525
 20
157.1388
 30
0.0
 40
0.85
  1
C15
 50
270.0
  7
GOST_TYPE_B
 72
         1
 11
91.0
 21
156.35
 31
0.0
100
AcDbText
 73
         2
  0
TEXT
  5
46B
100
AcDbEntity
  8
ASSEMBLY_REF_DES_TOP
100
AcDbText
 10
75.7538
 20
116.180525
 30
0.0
 40
0.85
  1
C101
  7
GOST_TYPE_B
 72
         1
 11
76.75
 21
116.6
 31
0.0
100
AcDbText
 73
         2
  0
TEXT
  5
46C
100
AcDbEntity
  8
ASSEMBLY_REF_DES_TOP
100
AcDbText
 10
89.086675
 20
113.180525
 30
0.0
 40
0.85
  1
R56
  7
GOST_TYPE_B
 72
         1
 11
90.0
 21
113.6
 31
0.0
100
AcDbText
 73
         2
  0
TEXT
  5
46D
100
AcDbEntity
  8
ASSEMBLY_REF_DES_TOP
100
AcDbText
 10
32.253291
 20
147.581034
 30
0.0
 40
0.85
  1
DA2
  7
GOST_TYPE_B
 72
         1
 11
33.249491
 21
148.000509
 31
0.0
100
AcDbText
 73
         2
  0
TEXT
  5
46E
100
AcDbEntity
  8
ASSEMBLY_REF_DES_TOP
100
AcDbText
 10
77.130525
 20
158.4314
 30
0.0
 40
0.85
  1
C9
 50
270.0
  7
GOST_TYPE_B
 72
         1
 11
77.55
 21
157.85
 31
0.0
100
AcDbText
 73
         2
  0
TEXT
  5
46F
100
AcDbEntity
  8
ASSEMBLY_REF_DES_TOP
100
AcDbText
 10
59.2779
 20
144.780525
 30
0.0
 40
0.85
  1
C60
  7
GOST_TYPE_B
 72
         1
 11
60.15
 21
145.2
 31
0.0
100
AcDbText
 73
         2
  0
TEXT
  5
470
100
AcDbEntity
  8
ASSEMBLY_REF_DES_TOP
100
AcDbText
 10
45.70455
 20
110.1518
 30
0.0
 40
0.7
  1
C111
 50
270.0
  7
GOST_TYPE_B
 72
         1
 11
46.05
 21
109.4
 31
0.0
100
AcDbText
 73
         2
  0
TEXT
  5
471
100
AcDbEntity
  8
ASSEMBLY_REF_DES_TOP
100
AcDbText
 10
9.7705
 20
102.080525
 30
0.0
 40
0.85
  1
C135
  7
GOST_TYPE_B
 72
         1
 11
10.85
 21
102.5
 31
0.0
100
AcDbText
 73
         2
  0
TEXT
  5
472
100
AcDbEntity
  8
ASSEMBLY_REF_DES_TOP
100
AcDbText
 10
55.75455
 20
97.1733
 30
0.0
 40
0.7
  1
R106
 50
270.0
  7
GOST_TYPE_B
 72
         1
 11
56.1
 21
96.25
 31
0.0
100
AcDbText
 73
         2
  0
TEXT
  5
473
100
AcDbEntity
  8
ASSEMBLY_REF_DES_TOP
100
AcDbText
 10
37.4279
 20
142.380525
 30
0.0
 40
0.85
  1
C66
  7
GOST_TYPE_B
 72
         1
 11
38.3
 21
142.8
 31
0.0
100
AcDbText
 73
         2
  0
TEXT
  5
474
100
AcDbEntity
  8
ASSEMBLY_REF_DES_TOP
100
AcDbText
 10
-1.486
 20
90.55325
 30
0.0
 40
0.5
  1
VD2
  7
GOST_TYPE_B
 72
         1
 11
-0.9
 21
90.8
 31
0.0
100
AcDbText
 73
         2
  0
TEXT
  5
475
100
AcDbEntity
  8
ASSEMBLY_REF_DES_TOP
100
AcDbText
 10
0.44545
 20
117.230525
 30
0.0
 40
0.85
  1
R46
  7
GOST_TYPE_B
 72
         1
 11
1.4
 21
117.65
 31
0.0
100
AcDbText
 73
         2
  0
TEXT
  5
476
100
AcDbEntity
  8
ASSEMBLY_REF_DES_TOP
100
AcDbText
 10
75.479275
 20
114.630525
 30
0.0
 40
0.85
  1
C104
  7
GOST_TYPE_B
 72
         1
 11
76.6
 21
115.05
 31
0.0
100
AcDbText
 73
         2
  0
TEXT
  5
477
100
AcDbEntity
  8
ASSEMBLY_REF_DES_TOP
100
AcDbText
 10
62.79969
 20
98.723852
 30
0.0
 40
0.85
  1
X12
  7
GOST_TYPE_B
 72
         2
 11
64.54304
 21
98.723852
 31
0.0
100
AcDbText
 73
         1
  0
TEXT
  5
478
100
AcDbEntity
  8
ASSEMBLY_REF_DES_TOP
100
AcDbText
 10
77.636675
 20
111.530525
 30
0.0
 40
0.85
  1
R62
  7
GOST_TYPE_B
 72
         1
 11
78.55
 21
111.95
 31
0.0
100
AcDbText
 73
         2
  0
TEXT
  5
479
100
AcDbEntity
  8
ASSEMBLY_REF_DES_TOP
100
AcDbText
 10
73.0779
 20
144.780525
 30
0.0
 40
0.85
  1
C62
  7
GOST_TYPE_B
 72
         1
 11
73.95
 21
145.2
 31
0.0
100
AcDbText
 73
         2
  0
TEXT
  5
47A
100
AcDbEntity
  8
ASSEMBLY_REF_DES_TOP
100
AcDbText
 10
77.8139
 20
103.00455
 30
0.0
 40
0.7
  1
R89
  7
GOST_TYPE_B
 72
         1
 11
78.6
 21
103.35
 31
0.0
100
AcDbText
 73
         2
  0
TEXT
  5
47B
100
AcDbEntity
  8
ASSEMBLY_REF_DES_TOP
100
AcDbText
 10
118.511625
 20
108.480525
 30
0.0
 40
0.85
  1
X11
  7
GOST_TYPE_B
 72
         1
 11
119.3
 21
108.9
 31
0.0
100
AcDbText
 73
         2
  0
TEXT
  5
47C
100
AcDbEntity
  8
ASSEMBLY_REF_DES_TOP
100
AcDbText
 10
87.230525
 20
112.46375
 30
0.0
 40
0.85
  1
R63
 50
270.0
  7
GOST_TYPE_B
 72
         1
 11
87.65
 21
111.55
 31
0.0
100
AcDbText
 73
         2
  0
TEXT
  5
47D
100
AcDbEntity
  8
ASSEMBLY_REF_DES_TOP
100
AcDbText
 10
55.562726
 20
152.297799
 30
0.0
 40
0.85
  1
DD2
  7
GOST_TYPE_B
 72
         1
 11
56.517276
 21
152.717274
 31
0.0
100
AcDbText
 73
         2
  0
TEXT
  5
47E
100
AcDbEntity
  8
ASSEMBLY_REF_DES_TOP
100
AcDbText
 10
125.35
 20
95.59335
 30
0.0
 40
0.85
  1
X16
 50
270.0
  7
GOST_TYPE_B
 72
         2
 11
125.35
 21
93.85
 31
0.0
100
AcDbText
 73
         1
  0
TEXT
  5
47F
100
AcDbEntity
  8
ASSEMBLY_REF_DES_TOP
100
AcDbText
 10
108.105725
 20
166.405525
 30
0.0
 40
0.85
  1
X3
  7
GOST_TYPE_B
 72
         1
 11
108.77
 21
166.825
 31
0.0
100
AcDbText
 73
         2
  0
TEXT
  5
480
100
AcDbEntity
  8
ASSEMBLY_REF_DES_TOP
100
AcDbText
 10
37.761675
 20
130.530525
 30
0.0
 40
0.85
  1
R36
  7
GOST_TYPE_B
 72
         1
 11
38.675
 21
130.95
 31
0.0
100
AcDbText
 73
         2
  0
TEXT
  5
481
100
AcDbEntity
  8
ASSEMBLY_REF_DES_TOP
100
AcDbText
 10
78.930525
 20
148.6721
 30
0.0
 40
0.85
  1
C53
 50
270.0
  7
GOST_TYPE_B
 72
         1
 11
79.35
 21
147.8
 31
0.0
100
AcDbText
 73
         2
  0
TEXT
  5
482
100
AcDbEntity
  8
ASSEMBLY_REF_DES_TOP
100
AcDbText
 10
63.529275
 20
86.730525
 30
0.0
 40
0.85
  1
R129
  7
GOST_TYPE_B
 72
         1
 11
64.65
 21
87.15
 31
0.0
100
AcDbText
 73
         2
  0
TEXT
  5
483
100
AcDbEntity
  8
ASSEMBLY_REF_DES_TOP
100
AcDbText
 10
3.230525
 20
154.8388
 30
0.0
 40
0.85
  1
C17
 50
270.0
  7
GOST_TYPE_B
 72
         1
 11
3.65
 21
154.05
 31
0.0
100
AcDbText
 73
         2
  0
TEXT
  5
484
100
AcDbEntity
  8
ASSEMBLY_REF_DES_TOP
100
AcDbText
 10
22.454225
 20
100.580525
 30
0.0
 40
0.85
  1
DD8
  7
GOST_TYPE_B
 72
         1
 11
23.45
 21
101.0
 31
0.0
100
AcDbText
 73
         2
  0
TEXT
  5
485
100
AcDbEntity
  8
ASSEMBLY_REF_DES_TOP
100
AcDbText
 10
49.45455
 20
102.739
 30
0.0
 40
0.7
  1
C136
 50
270.0
  7
GOST_TYPE_B
 72
         1
 11
49.8
 21
101.85
 31
0.0
100
AcDbText
 73
         2
  0
TEXT
  5
486
100
AcDbEntity
  8
ASSEMBLY_REF_DES_TOP
100
AcDbText
 10
63.529275
 20
88.180525
 30
0.0
 40
0.85
  1
R127
  7
GOST_TYPE_B
 72
         1
 11
64.65
 21
88.6
 31
0.0
100
AcDbText
 73
         2
  0
TEXT
  5
487
100
AcDbEntity
  8
ASSEMBLY_REF_DES_TOP
100
AcDbText
 10
40.711675
 20
123.830525
 30
0.0
 40
0.85
  1
C87
  7
GOST_TYPE_B
 72
         1
 11
41.625
 21
124.25
 31
0.0
100
AcDbText
 73
         2
  0
TEXT
  5
488
100
AcDbEntity
  8
ASSEMBLY_REF_DES_TOP
100
AcDbText
 10
51.530525
 20
158.5314
 30
0.0
 40
0.85
  1
C5
 50
270.0
  7
GOST_TYPE_B
 72
         1
 11
51.95
 21
157.95
 31
0.0
100
AcDbText
 73
         2
  0
TEXT
  5
489
100
AcDbEntity
  8
ASSEMBLY_REF_DES_TOP
100
AcDbText
 10
58.730525
 20
110.2795
 30
0.0
 40
0.85
  1
C120
 50
270.0
  7
GOST_TYPE_B
 72
         1
 11
59.15
 21
109.2
 31
0.0
100
AcDbText
 73
         2
  0
TEXT
  5
48A
100
AcDbEntity
  8
ASSEMBLY_REF_DES_TOP
100
AcDbText
 10
-5.994475
 20
121.984275
 30
0.0
 40
0.85
  1
X9
 50
270.0
  7
GOST_TYPE_B
 72
         1
 11
-5.575
 21
121.32
 31
0.0
100
AcDbText
 73
         2
  0
TEXT
  5
48B
100
AcDbEntity
  8
ASSEMBLY_REF_DES_TOP
100
AcDbText
 10
37.030525
 20
154.68045
 30
0.0
 40
0.85
  1
C18
 50
270.0
  7
GOST_TYPE_B
 72
         1
 11
37.45
 21
153.85
 31
0.0
100
AcDbText
 73
         2
  0
TEXT
  5
48C
100
AcDbEntity
  8
ASSEMBLY_REF_DES_TOP
100
AcDbText
 10
40.82045
 20
130.530525
 30
0.0
 40
0.85
  1
R38
  7
GOST_TYPE_B
 72
         1
 11
41.775
 21
130.95
 31
0.0
100
AcDbText
 73
         2
  0
TEXT
  5
48D
100
AcDbEntity
  8
ASSEMBLY_REF_DES_TOP
100
AcDbText
 10
3.46025
 20
109.080525
 30
0.0
 40
0.85
  1
J6
  7
GOST_TYPE_B
 72
         1
 11
4.0
 21
109.5
 31
0.0
100
AcDbText
 73
         2
  0
TEXT
  5
48E
100
AcDbEntity
  8
ASSEMBLY_REF_DES_TOP
100
AcDbText
 10
3.380525
 20
93.9795
 30
0.0
 40
0.85
  1
C152
 50
270.0
  7
GOST_TYPE_B
 72
         1
 11
3.8
 21
92.9
 31
0.0
100
AcDbText
 73
         2
  0
TEXT
  5
48F
100
AcDbEntity
  8
ASSEMBLY_REF_DES_TOP
100
AcDbText
 10
85.314
 20
84.60325
 30
0.0
 40
0.5
  1
VD3
  7
GOST_TYPE_B
 72
         1
 11
85.9
 21
84.85
 31
0.0
100
AcDbText
 73
         2
  0
TEXT
  5
490
100
AcDbEntity
  8
ASSEMBLY_REF_DES_TOP
100
AcDbText
 10
38.97135
 20
90.780525
 30
0.0
 40
0.85
  1
R118
  7
GOST_TYPE_B
 72
         1
 11
40.05
 21
91.2
 31
0.0
100
AcDbText
 73
         2
  0
TEXT
  5
491
100
AcDbEntity
  8
ASSEMBLY_REF_DES_TOP
100
AcDbText
 10
77.180525
 20
148.5721
 30
0.0
 40
0.85
  1
C52
 50
270.0
  7
GOST_TYPE_B
 72
         1
 11
77.6
 21
147.7
 31
0.0
100
AcDbText
 73
         2
  0
TEXT
  5
492
100
AcDbEntity
  8
ASSEMBLY_REF_DES_TOP
100
AcDbText
 10
3.419025
 20
103.980525
 30
0.0
 40
0.85
  1
J8
  7
GOST_TYPE_B
 72
         1
 11
4.0
 21
104.4
 31
0.0
100
AcDbText
 73
         2
  0
TEXT
  5
493
100
AcDbEntity
  8
ASSEMBLY_REF_DES_TOP
100
AcDbText
 10
113.579275
 20
96.030525
 30
0.0
 40
0.85
  1
C149
  7
GOST_TYPE_B
 72
         1
 11
114.7
 21
96.45
 31
0.0
100
AcDbText
 73
         2
  0
TEXT
  5
494
100
AcDbEntity
  8
ASSEMBLY_REF_DES_TOP
100
AcDbText
 10
35.430525
 20
149.0054
 30
0.0
 40
0.85
  1
C44
 50
270.0
  7
GOST_TYPE_B
 72
         1
 11
35.85
 21
148.05
 31
0.0
100
AcDbText
 73
         2
  0
TEXT
  5
495
100
AcDbEntity
  8
ASSEMBLY_REF_DES_TOP
100
AcDbText
 10
65.880525
 20
158.2814
 30
0.0
 40
0.85
  1
C7
 50
270.0
  7
GOST_TYPE_B
 72
         1
 11
66.3
 21
157.7
 31
0.0
100
AcDbText
 73
         2
  0
TEXT
  5
496
100
AcDbEntity
  8
ASSEMBLY_REF_DES_TOP
100
AcDbText
 10
48.180525
 20
148.36375
 30
0.0
 40
0.85
  1
C46
 50
270.0
  7
GOST_TYPE_B
 72
         1
 11
48.6
 21
147.45
 31
0.0
100
AcDbText
 73
         2
  0
TEXT
  5
497
100
AcDbEntity
  8
ASSEMBLY_REF_DES_TOP
100
AcDbText
 10
78.880525
 20
155.8721
 30
0.0
 40
0.85
  1
C26
 50
270.0
  7
GOST_TYPE_B
 72
         1
 11
79.3
 21
155.0
 31
0.0
100
AcDbText
 73
         2
  0
TEXT
  5
498
100
AcDbEntity
  8
ASSEMBLY_REF_DES_TOP
100
AcDbText
 10
40.70455
 20
109.4547
 30
0.0
 40
0.7
  1
C118
 50
270.0
  7
GOST_TYPE_B
 72
         1
 11
41.05
 21
108.6
 31
0.0
100
AcDbText
 73
         2
  0
TEXT
  5
499
100
AcDbEntity
  8
ASSEMBLY_REF_DES_TOP
100
AcDbText
 10
35.6205
 20
90.280525
 30
0.0
 40
0.85
  1
C159
  7
GOST_TYPE_B
 72
         1
 11
36.7
 21
90.7
 31
0.0
100
AcDbText
 73
         2
  0
TEXT
  5
49A
100
AcDbEntity
  8
ASSEMBLY_REF_DES_TOP
100
AcDbText
 10
23.45085
 20
150.412068
 30
0.0
 40
0.85
  1
SW1
  7
GOST_TYPE_B
 72
         2
 11
25.44325
 21
150.412068
 31
0.0
100
AcDbText
 73
         1
  0
TEXT
  5
49B
100
AcDbEntity
  8
ASSEMBLY_REF_DES_TOP
100
AcDbText
 10
18.759741
 20
147.071034
 30
0.0
 40
0.85
  1
J3
  7
GOST_TYPE_B
 72
         1
 11
19.299491
 21
147.490509
 31
0.0
100
AcDbText
 73
         2
  0
TEXT
  5
49C
100
AcDbEntity
  8
ASSEMBLY_REF_DES_TOP
100
AcDbText
 10
51.530525
 20
155.6388
 30
0.0
 40
0.85
  1
C21
 50
270.0
  7
GOST_TYPE_B
 72
         1
 11
51.95
 21
154.85
 31
0.0
100
AcDbText
 73
         2
  0
TEXT
  5
49D
100
AcDbEntity
  8
ASSEMBLY_REF_DES_TOP
100
AcDbText
 10
70.469975
 20
159.930525
 30
0.0
 40
0.85
  1
R12
  7
GOST_TYPE_B
 72
         1
 11
71.3
 21
160.35
 31
0.0
100
AcDbText
 73
         2
  0
TEXT
  5
49E
100
AcDbEntity
  8
ASSEMBLY_REF_DES_TOP
100
AcDbText
 10
90.39545
 20
122.830525
 30
0.0
 40
0.85
  1
R43
  7
GOST_TYPE_B
 72
         1
 11
91.35
 21
123.25
 31
0.0
100
AcDbText
 73
         2
  0
TEXT
  5
49F
100
AcDbEntity
  8
ASSEMBLY_REF_DES_TOP
100
AcDbText
 10
86.2
 20
90.04335
 30
0.0
 40
0.85
  1
X15
 50
270.0
  7
GOST_TYPE_B
 72
         2
 11
86.2
 21
88.3
 31
0.0
100
AcDbText
 73
         1
  0
TEXT
  5
4A0
100
AcDbEntity
  8
ASSEMBLY_REF_DES_TOP
100
AcDbText
 10
82.380525
 20
88.496625
 30
0.0
 40
0.85
  1
VT7
 50
270.0
  7
GOST_TYPE_B
 72
         1
 11
82.8
 21
87.5
 31
0.0
100
AcDbText
 73
         2
  0
TEXT
  5
4A1
100
AcDbEntity
  8
ASSEMBLY_REF_DES_TOP
100
AcDbText
 10
40.027375
 20
159.880525
 30
0.0
 40
0.85
  1
R5
  7
GOST_TYPE_B
 72
         1
 11
40.65
 21
160.3
 31
0.0
100
AcDbText
 73
         2
  0
TEXT
  5
4A2
100
AcDbEntity
  8
ASSEMBLY_REF_DES_TOP
100
AcDbText
 10
93.330525
 20
91.63785
 30
0.0
 40
0.85
  1
R121
 50
270.0
  7
GOST_TYPE_B
 72
         1
 11
93.75
 21
90.6
 31
0.0
100
AcDbText
 73
         2
  0
TEXT
  5
4A3
100
AcDbEntity
  8
ASSEMBLY_REF_DES_TOP
100
AcDbText
 10
88.380525
 20
152.2721
 30
0.0
 40
0.85
  1
C35
 50
270.0
  7
GOST_TYPE_B
 72
         1
 11
88.8
 21
151.4
 31
0.0
100
AcDbText
 73
         2
  0
TEXT
  5
4A4
100
AcDbEntity
  8
ASSEMBLY_REF_DES_TOP
100
AcDbText
 10
46.0436
 20
125.330525
 30
0.0
 40
0.85
  1
L3
  7
GOST_TYPE_B
 72
         1
 11
46.625
 21
125.75
 31
0.0
100
AcDbText
 73
         2
  0
TEXT
  5
4A5
100
AcDbEntity
  8
ASSEMBLY_REF_DES_TOP
100
AcDbText
 10
89.880525
 20
105.263325
 30
0.0
 40
0.85
  1
VD1
 50
270.0
  7
GOST_TYPE_B
 72
         1
 11
90.3
 21
104.35
 31
0.0
100
AcDbText
 73
         2
  0
TEXT
  5
4A6
100
AcDbEntity
  8
ASSEMBLY_REF_DES_TOP
100
AcDbText
 10
18.429275
 20
88.930525
 30
0.0
 40
0.85
  1
R126
  7
GOST_TYPE_B
 72
         1
 11
19.55
 21
89.35
 31
0.0
100
AcDbText
 73
         2
  0
TEXT
  5
4A7
100
AcDbEntity
  8
ASSEMBLY_REF_DES_TOP
100
AcDbText
 10
36.680525
 20
115.7054
 30
0.0
 40
0.85
  1
R54
 50
270.0
  7
GOST_TYPE_B
 72
         1
 11
37.1
 21
114.75
 31
0.0
100
AcDbText
 73
         2
  0
TEXT
  5
4A8
100
AcDbEntity
  8
ASSEMBLY_REF_DES_TOP
100
AcDbText
 10
79.077
 20
95.2565
 30
0.0
 40
1.0
  1
DD9
  7
GOST_TYPE_B
 72
         1
 11
80.2
 21
95.75
 31
0.0
100
AcDbText
 73
         2
  0
TEXT
  5
4A9
100
AcDbEntity
  8
ASSEMBLY_REF_DES_TOP
100
AcDbText
 10
52.75455
 20
103.1711
 30
0.0
 40
0.7
  1
R88
 50
270.0
  7
GOST_TYPE_B
 72
         1
 11
53.1
 21
102.35
 31
0.0
100
AcDbText
 73
         2
  0
TEXT
  5
4AA
100
AcDbEntity
  8
ASSEMBLY_REF_DES_TOP
100
AcDbText
 10
88.30455
 20
93.639
 30
0.0
 40
0.7
  1
C156
 50
270.0
  7
GOST_TYPE_B
 72
         1
 11
88.65
 21
92.75
 31
0.0
100
AcDbText
 73
         2
  0
TEXT
  5
4AB
100
AcDbEntity
  8
ASSEMBLY_REF_DES_TOP
100
AcDbText
 10
73.419975
 20
159.930525
 30
0.0
 40
0.85
  1
R13
  7
GOST_TYPE_B
 72
         1
 11
74.25
 21
160.35
 31
0.0
100
AcDbText
 73
         2
  0
TEXT
  5
4AC
100
AcDbEntity
  8
ASSEMBLY_REF_DES_TOP
100
AcDbText
 10
98.554691
 20
145.295309
 30
0.0
 40
0.85
  1
X7
  7
GOST_TYPE_B
 72
         2
 11
99.883241
 21
145.295309
 31
0.0
100
AcDbText
 73
         1
  0
TEXT
  5
4AD
100
AcDbEntity
  8
ASSEMBLY_REF_DES_TOP
100
AcDbText
 10
8.74545
 20
105.330525
 30
0.0
 40
0.85
  1
R78
  7
GOST_TYPE_B
 72
         1
 11
9.7
 21
105.75
 31
0.0
100
AcDbText
 73
         2
  0
TEXT
  5
4AE
100
AcDbEntity
  8
ASSEMBLY_REF_DES_TOP
100
AcDbText
 10
49.880525
 20
148.61375
 30
0.0
 40
0.85
  1
C47
 50
270.0
  7
GOST_TYPE_B
 72
         1
 11
50.3
 21
147.7
 31
0.0
100
AcDbText
 73
         2
  0
TEXT
  5
4AF
100
AcDbEntity
  8
ASSEMBLY_REF_DES_TOP
100
AcDbText
 10
32.1612
 20
156.330525
 30
0.0
 40
0.85
  1
C13
  7
GOST_TYPE_B
 72
         1
 11
32.95
 21
156.75
 31
0.0
100
AcDbText
 73
         2
  0
TEXT
  5
4B0
100
AcDbEntity
  8
ASSEMBLY_REF_DES_TOP
100
AcDbText
 10
34.80325
 20
100.8095
 30
0.0
 40
0.5
  1
C140
 50
270.0
  7
GOST_TYPE_B
 72
         1
 11
35.05
 21
100.15
 31
0.0
100
AcDbText
 73
         2
  0
TEXT
  5
4B1
100
AcDbEntity
  8
ASSEMBLY_REF_DES_TOP
100
AcDbText
 10
5.80455
 20
102.0525
 30
0.0
 40
0.7
  1
R93
 50
270.0
  7
GOST_TYPE_B
 72
         1
 11
6.15
 21
101.3
 31
0.0
100
AcDbText
 73
         2
  0
TEXT
  5
4B2
100
AcDbEntity
  8
ASSEMBLY_REF_DES_TOP
100
AcDbText
 10
39.3038
 20
113.680525
 30
0.0
 40
0.85
  1
DA9
  7
GOST_TYPE_B
 72
         1
 11
40.3
 21
114.1
 31
0.0
100
AcDbText
 73
         2
  0
TEXT
  5
4B3
100
AcDbEntity
  8
ASSEMBLY_REF_DES_TOP
100
AcDbText
 10
90.454225
 20
121.580525
 30
0.0
 40
0.85
  1
R44
  7
GOST_TYPE_B
 72
         1
 11
91.45
 21
122.0
 31
0.0
100
AcDbText
 73
         2
  0
TEXT
  5
4B4
100
AcDbEntity
  8
ASSEMBLY_REF_DES_TOP
100
AcDbText
 10
78.28805
 20
87.480525
 30
0.0
 40
0.85
  1
R128
  7
GOST_TYPE_B
 72
         1
 11
79.45
 21
87.9
 31
0.0
100
AcDbText
 73
         2
  0
TEXT
  5
4B5
100
AcDbEntity
  8
ASSEMBLY_REF_DES_TOP
100
AcDbText
 10
73.68975
 20
100.90325
 30
0.0
 40
0.5
  1
C141
  7
GOST_TYPE_B
 72
         1
 11
74.3
 21
101.15
 31
0.0
100
AcDbText
 73
         2
  0
TEXT
  5
4B6
100
AcDbEntity
  8
ASSEMBLY_REF_DES_TOP
100
AcDbText
 10
15.312575
 20
136.030525
 30
0.0
 40
0.85
  1
DA4
  7
GOST_TYPE_B
 72
         1
 11
16.35
 21
136.45
 31
0.0
100
AcDbText
 73
         2
  0
TEXT
  5
4B7
100
AcDbEntity
  8
ASSEMBLY_REF_DES_TOP
100
AcDbText
 10
67.603275
 20
159.930525
 30
0.0
 40
0.85
  1
R11
  7
GOST_TYPE_B
 72
         1
 11
68.35
 21
160.35
 31
0.0
100
AcDbText
 73
         2
  0
TEXT
  5
4B8
100
AcDbEntity
  8
ASSEMBLY_REF_DES_TOP
100
AcDbText
 10
98.537291
 20
110.842709
 30
0.0
 40
0.85
  1
X10
  7
GOST_TYPE_B
 72
         2
 11
100.280641
 21
110.842709
 31
0.0
100
AcDbText
 73
         1
  0
TEXT
  5
4B9
100
AcDbEntity
  8
ASSEMBLY_REF_DES_TOP
100
AcDbText
 10
60.230525
 20
111.2962
 30
0.0
 40
0.85
  1
C112
 50
270.0
  7
GOST_TYPE_B
 72
         1
 11
60.65
 21
110.3
 31
0.0
100
AcDbText
 73
         2
  0
TEXT
  5
4BA
100
AcDbEntity
  8
ASSEMBLY_REF_DES_TOP
100
AcDbText
 10
72.54545
 20
106.830525
 30
0.0
 40
0.85
  1
R80
  7
GOST_TYPE_B
 72
         1
 11
73.5
 21
107.25
 31
0.0
100
AcDbText
 73
         2
  0
TEXT
  5
4BB
100
AcDbEntity
  8
ASSEMBLY_REF_DES_TOP
100
AcDbText
 10
58.819975
 20
159.880525
 30
0.0
 40
0.85
  1
R10
  7
GOST_TYPE_B
 72
         1
 11
59.65
 21
160.3
 31
0.0
100
AcDbText
 73
         2
  0
TEXT
  5
4BC
100
AcDbEntity
  8
ASSEMBLY_REF_DES_TOP
100
AcDbText
 10
88.330525
 20
155.9221
 30
0.0
 40
0.85
  1
C27
 50
270.0
  7
GOST_TYPE_B
 72
         1
 11
88.75
 21
155.05
 31
0.0
100
AcDbText
 73
         2
  0
TEXT
  5
4BD
100
AcDbEntity
  8
ASSEMBLY_REF_DES_TOP
100
AcDbText
 10
42.546026
 20
152.297799
 30
0.0
 40
0.85
  1
DD1
  7
GOST_TYPE_B
 72
         1
 11
43.417276
 21
152.717274
 31
0.0
100
AcDbText
 73
         2
  0
TEXT
  5
4BE
100
AcDbEntity
  8
ASSEMBLY_REF_DES_TOP
100
AcDbText
 10
53.230525
 20
140.3388
 30
0.0
 40
0.85
  1
C71
 50
270.0
  7
GOST_TYPE_B
 72
         1
 11
53.65
 21
139.55
 31
0.0
100
AcDbText
 73
         2
  0
TEXT
  5
4BF
100
AcDbEntity
  8
ASSEMBLY_REF_DES_TOP
100
AcDbText
 10
50.34545
 20
123.430525
 30
0.0
 40
0.85
  1
C88
  7
GOST_TYPE_B
 72
         1
 11
51.3
 21
123.85
 31
0.0
100
AcDbText
 73
         2
  0
TEXT
  5
4C0
100
AcDbEntity
  8
ASSEMBLY_REF_DES_TOP
100
AcDbText
 10
86.569975
 20
159.880525
 30
0.0
 40
0.85
  1
R16
  7
GOST_TYPE_B
 72
         1
 11
87.4
 21
160.3
 31
0.0
100
AcDbText
 73
         2
  0
TEXT
  5
4C1
100
AcDbEntity
  8
ASSEMBLY_REF_DES_TOP
100
AcDbText
 10
43.230525
 20
92.63785
 30
0.0
 40
0.85
  1
R116
 50
270.0
  7
GOST_TYPE_B
 72
         1
 11
43.65
 21
91.6
 31
0.0
100
AcDbText
 73
         2
  0
TEXT
  5
4C2
100
AcDbEntity
  8
ASSEMBLY_REF_DES_TOP
100
AcDbText
 10
79.4779
 20
144.780525
 30
0.0
 40
0.85
  1
C63
  7
GOST_TYPE_B
 72
         1
 11
80.35
 21
145.2
 31
0.0
100
AcDbText
 73
         2
  0
TEXT
  5
4C3
100
AcDbEntity
  8
ASSEMBLY_REF_DES_TOP
100
AcDbText
 10
30.84545
 20
97.080525
 30
0.0
 40
0.85
  1
R98
  7
GOST_TYPE_B
 72
         1
 11
31.8
 21
97.5
 31
0.0
100
AcDbText
 73
         2
  0
TEXT
  5
4C4
100
AcDbEntity
  8
ASSEMBLY_REF_DES_TOP
100
AcDbText
 10
-6.5295
 20
149.25
 30
0.0
 40
0.85
  1
J2
  7
GOST_TYPE_B
 72
         2
 11
-5.45
 21
149.25
 31
0.0
100
AcDbText
 73
         1
  0
TEXT
  5
4C5
100
AcDbEntity
  8
ASSEMBLY_REF_DES_TOP
100
AcDbText
 10
24.180525
 20
116.74705
 30
0.0
 40
0.85
  1
R48
 50
270.0
  7
GOST_TYPE_B
 72
         1
 11
24.6
 21
115.75
 31
0.0
100
AcDbText
 73
         2
  0
TEXT
  5
4C6
100
AcDbEntity
  8
ASSEMBLY_REF_DES_TOP
100
AcDbText
 10
8.630525
 20
147.8221
 30
0.0
 40
0.85
  1
C56
 50
270.0
  7
GOST_TYPE_B
 72
         1
 11
9.05
 21
146.95
 31
0.0
100
AcDbText
 73
         2
  0
TEXT
  5
4C7
100
AcDbEntity
  8
ASSEMBLY_REF_DES_TOP
100
AcDbText
 10
2.780525
 20
114.16375
 30
0.0
 40
0.85
  1
R57
 50
270.0
  7
GOST_TYPE_B
 72
         1
 11
3.2
 21
113.25
 31
0.0
100
AcDbText
 73
         2
  0
TEXT
  5
4C8
100
AcDbEntity
  8
ASSEMBLY_REF_DES_TOP
100
AcDbText
 10
71.8242
 20
91.6
 30
0.0
 40
0.85
  1
X14
  7
GOST_TYPE_B
 72
         2
 11
73.65
 21
91.6
 31
0.0
100
AcDbText
 73
         1
  0
TEXT
  5
4C9
100
AcDbEntity
  8
ASSEMBLY_REF_DES_TOP
100
AcDbText
 10
5.780525
 20
113.51375
 30
0.0
 40
0.85
  1
R59
 50
270.0
  7
GOST_TYPE_B
 72
         1
 11
6.2
 21
112.6
 31
0.0
100
AcDbText
 73
         2
  0
TEXT
  5
4CA
100
AcDbEntity
  8
ASSEMBLY_REF_DES_TOP
100
AcDbText
 10
49.4796
 20
92.30455
 30
0.0
 40
0.7
  1
VT3
  7
GOST_TYPE_B
 72
         1
 11
50.3
 21
92.65
 31
0.0
100
AcDbText
 73
         2
  0
TEXT
  5
4CB
100
AcDbEntity
  8
ASSEMBLY_REF_DES_TOP
100
AcDbText
 10
8.786675
 20
109.430525
 30
0.0
 40
0.85
  1
R66
  7
GOST_TYPE_B
 72
         1
 11
9.7
 21
109.85
 31
0.0
100
AcDbText
 73
         2
  0
TEXT
  5
4CC
100
AcDbEntity
  8
ASSEMBLY_REF_DES_TOP
100
AcDbText
 10
85.0578
 20
110.1498
 30
0.0
 40
1.2
  1
DA10
 50
270.0
  7
GOST_TYPE_B
 72
         1
 11
85.65
 21
108.45
 31
0.0
100
AcDbText
 73
         2
  0
TEXT
  5
4CD
100
AcDbEntity
  8
ASSEMBLY_REF_DES_TOP
100
AcDbText
 10
27.54545
 20
116.130525
 30
0.0
 40
0.85
  1
R49
  7
GOST_TYPE_B
 72
         1
 11
28.5
 21
116.55
 31
0.0
100
AcDbText
 73
         2
  0
TEXT
  5
4CE
100
AcDbEntity
  8
ASSEMBLY_REF_DES_TOP
100
AcDbText
 10
48.130525
 20
155.8221
 30
0.0
 40
0.85
  1
C20
 50
270.0
  7
GOST_TYPE_B
 72
         1
 11
48.55
 21
154.95
 31
0.0
100
AcDbText
 73
         2
  0
TEXT
  5
4CF
100
AcDbEntity
  8
ASSEMBLY_REF_DES_TOP
100
AcDbText
 10
10.068091
 20
95.981034
 30
0.0
 40
0.85
  1
L7
  7
GOST_TYPE_B
 72
         1
 11
10.649491
 21
96.400509
 31
0.0
100
AcDbText
 73
         2
  0
TEXT
  5
4D0
100
AcDbEntity
  8
ASSEMBLY_REF_DES_TOP
100
AcDbText
 10
46.027375
 20
159.880525
 30
0.0
 40
0.85
  1
R7
  7
GOST_TYPE_B
 72
         1
 11
46.65
 21
160.3
 31
0.0
100
AcDbText
 73
         2
  0
TEXT
  5
4D1
100
AcDbEntity
  8
ASSEMBLY_REF_DES_TOP
100
AcDbText
 10
62.280525
 20
106.47115
 30
0.0
 40
0.85
  1
C128
 50
270.0
  7
GOST_TYPE_B
 72
         1
 11
62.7
 21
105.35
 31
0.0
100
AcDbText
 73
         2
  0
TEXT
  5
4D2
100
AcDbEntity
  8
ASSEMBLY_REF_DES_TOP
100
AcDbText
 10
88.330525
 20
158.6555
 30
0.0
 40
0.85
  1
C11
 50
270.0
  7
GOST_TYPE_B
 72
         1
 11
88.75
 21
157.95
 31
0.0
100
AcDbText
 73
         2
  0
TEXT
  5
4D3
100
AcDbEntity
  8
ASSEMBLY_REF_DES_TOP
100
AcDbText
 10
30.679275
 20
95.630525
 30
0.0
 40
0.85
  1
R105
  7
GOST_TYPE_B
 72
         1
 11
31.8
 21
96.05
 31
0.0
100
AcDbText
 73
         2
  0
TEXT
  5
4D4
100
AcDbEntity
  8
ASSEMBLY_REF_DES_TOP
100
AcDbText
 10
60.336675
 20
137.630525
 30
0.0
 40
0.85
  1
R30
  7
GOST_TYPE_B
 72
         1
 11
61.25
 21
138.05
 31
0.0
100
AcDbText
 73
         2
  0
LWPOLYLINE
  5
4D5
100
AcDbEntity
  8
BOARD_OUTLINE
100
AcDbPolyline
 90
        4
 70
         1
 43
0.1
 10
-9.8
 20
75.35
 10
-9.8
 20
171.35
 10
134.2
 20
171.35
 10
134.2
 20
75.35
  0
CIRCLE
  5
4D6
100
AcDbEntity
  8
MOUNTING_HOLES_LAYER_TOP
100
AcDbCircle
 10
108.0
 20
98.2
 30
0.0
 40
2.4
  0
HATCH
  5
4D7
100
AcDbEntity
  8
MOUNTING_HOLES_LAYER_TOP
100
AcDbHatch
 10
0.0
 20
0.0
 30
0.0
210
0.0
220
0.0
230
1.0
  2
SOLID
 70
         1
 71
         1
 91
        1
 92
        1
 93
        1
 72
         2
 10
108.0
 20
98.200000000000003
 40
2.3999999999999999
 50
0.0
 51
360.0
 73
         1
 97
        1
330
4D6
 75
         0
 76
         1
 98
        1
 10
0.0
 20
0.0
  0
CIRCLE
  5
4D8
100
AcDbEntity
  8
MOUNTING_HOLES_LAYER_TOP
100
AcDbCircle
 10
9.9
 20
167.85
 30
0.0
 40
2.4
  0
HATCH
  5
4D9
100
AcDbEntity
  8
MOUNTING_HOLES_LAYER_TOP
100
AcDbHatch
 10
0.0
 20
0.0
 30
0.0
210
0.0
220
0.0
230
1.0
  2
SOLID
 70
         1
 71
         1
 91
        1
 92
        1
 93
        1
 72
         2
 10
9.9000000000000004
 20
167.84999999999999
 40
2.3999999999999999
 50
0.0
 51
360.0
 73
         1
 97
        1
330
4D8
 75
         0
 76
         1
 98
        1
 10
0.0
 20
0.0
  0
CIRCLE
  5
4DA
100
AcDbEntity
  8
MOUNTING_HOLES_LAYER_TOP
100
AcDbCircle
 10
80.65
 20
167.85
 30
0.0
 40
2.4
  0
HATCH
  5
4DB
100
AcDbEntity
  8
MOUNTING_HOLES_LAYER_TOP
100
AcDbHatch
 10
0.0
 20
0.0
 30
0.0
210
0.0
220
0.0
230
1.0
  2
SOLID
 70
         1
 71
         1
 91
        1
 92
        1
 93
        1
 72
         2
 10
80.650000000000006
 20
167.84999999999999
 40
2.3999999999999999
 50
0.0
 51
360.0
 73
         1
 97
        1
330
4DA
 75
         0
 76
         1
 98
        1
 10
0.0
 20
0.0
  0
CIRCLE
  5
4DC
100
AcDbEntity
  8
MOUNTING_HOLES_LAYER_TOP
100
AcDbCircle
 10
-6.3
 20
92.85
 30
0.0
 40
2.4
  0
HATCH
  5
4DD
100
AcDbEntity
  8
MOUNTING_HOLES_LAYER_TOP
100
AcDbHatch
 10
0.0
 20
0.0
 30
0.0
210
0.0
220
0.0
230
1.0
  2
SOLID
 70
         1
 71
         1
 91
        1
 92
        1
 93
        1
 72
         2
 10
-6.2999999999999998
 20
92.849999999999994
 40
2.3999999999999999
 50
0.0
 51
360.0
 73
         1
 97
        1
330
4DC
 75
         0
 76
         1
 98
        1
 10
0.0
 20
0.0
  0
CIRCLE
  5
4DE
100
AcDbEntity
  8
MOUNTING_HOLES_LAYER_TOP
100
AcDbCircle
 10
130.7
 20
153.8
 30
0.0
 40
2.4
  0
HATCH
  5
4DF
100
AcDbEntity
  8
MOUNTING_HOLES_LAYER_TOP
100
AcDbHatch
 10
0.0
 20
0.0
 30
0.0
210
0.0
220
0.0
230
1.0
  2
SOLID
 70
         1
 71
         1
 91
        1
 92
        1
 93
        1
 72
         2
 10
130.69999999999999
 20
153.80000000000001
 40
2.3999999999999999
 50
0.0
 51
360.0
 73
         1
 97
        1
330
4DE
 75
         0
 76
         1
 98
        1
 10
0.0
 20
0.0
  0
CIRCLE
  5
4E0
100
AcDbEntity
  8
MOUNTING_HOLES_LAYER_TOP
100
AcDbCircle
 10
131.1
 20
159.2
 30
0.0
 40
1.35
  0
HATCH
  5
4E1
100
AcDbEntity
  8
MOUNTING_HOLES_LAYER_TOP
100
AcDbHatch
 10
0.0
 20
0.0
 30
0.0
210
0.0
220
0.0
230
1.0
  2
SOLID
 70
         1
 71
         1
 91
        1
 92
        1
 93
        1
 72
         2
 10
131.09999999999999
 20
159.19999999999999
 40
1.3500000000000001
 50
0.0
 51
360.0
 73
         1
 97
        1
330
4E0
 75
         0
 76
         1
 98
        1
 10
0.0
 20
0.0
  0
CIRCLE
  5
4E2
100
AcDbEntity
  8
MOUNTING_HOLES_LAYER_TOP
100
AcDbCircle
 10
131.1
 20
135.2
 30
0.0
 40
1.35
  0
HATCH
  5
4E3
100
AcDbEntity
  8
MOUNTING_HOLES_LAYER_TOP
100
AcDbHatch
 10
0.0
 20
0.0
 30
0.0
210
0.0
220
0.0
230
1.0
  2
SOLID
 70
         1
 71
         1
 91
        1
 92
        1
 93
        1
 72
         2
 10
131.09999999999999
 20
135.19999999999999
 40
1.3500000000000001
 50
0.0
 51
360.0
 73
         1
 97
        1
330
4E2
 75
         0
 76
         1
 98
        1
 10
0.0
 20
0.0
  0
CIRCLE
  5
4E4
100
AcDbEntity
  8
MOUNTING_HOLES_LAYER_TOP
100
AcDbCircle
 10
14.89
 20
166.85
 30
0.0
 40
0.9
  0
HATCH
  5
4E5
100
AcDbEntity
  8
MOUNTING_HOLES_LAYER_TOP
100
AcDbHatch
 10
0.0
 20
0.0
 30
0.0
210
0.0
220
0.0
230
1.0
  2
SOLID
 70
         1
 71
         1
 91
        1
 92
        1
 93
        1
 72
         2
 10
14.890000000000001
 20
166.84999999999999
 40
0.9
 50
0.0
 51
360.0
 73
         1
 97
        1
330
4E4
 75
         0
 76
         1
 98
        1
 10
0.0
 20
0.0
  0
CIRCLE
  5
4E6
100
AcDbEntity
  8
MOUNTING_HOLES_LAYER_TOP
100
AcDbCircle
 10
60.61
 20
166.85
 30
0.0
 40
0.9
  0
HATCH
  5
4E7
100
AcDbEntity
  8
MOUNTING_HOLES_LAYER_TOP
100
AcDbHatch
 10
0.0
 20
0.0
 30
0.0
210
0.0
220
0.0
230
1.0
  2
SOLID
 70
         1
 71
         1
 91
        1
 92
        1
 93
        1
 72
         2
 10
60.609999999999999
 20
166.84999999999999
 40
0.9
 50
0.0
 51
360.0
 73
         1
 97
        1
330
4E6
 75
         0
 76
         1
 98
        1
 10
0.0
 20
0.0
  0
CIRCLE
  5
4E8
100
AcDbEntity
  8
MOUNTING_HOLES_LAYER_TOP
100
AcDbCircle
 10
33.2
 20
85.35
 30
0.0
 40
0.75
  0
HATCH
  5
4E9
100
AcDbEntity
  8
MOUNTING_HOLES_LAYER_TOP
100
AcDbHatch
 10
0.0
 20
0.0
 30
0.0
210
0.0
220
0.0
230
1.0
  2
SOLID
 70
         1
 71
         1
 91
        1
 92
        1
 93
        1
 72
         2
 10
33.200000000000003
 20
85.349999999999994
 40
0.75
 50
0.0
 51
360.0
 73
         1
 97
        1
330
4E8
 75
         0
 76
         1
 98
        1
 10
0.0
 20
0.0
  0
CIRCLE
  5
4EA
100
AcDbEntity
  8
MOUNTING_HOLES_LAYER_TOP
100
AcDbCircle
 10
43.2
 20
85.35
 30
0.0
 40
0.75
  0
HATCH
  5
4EB
100
AcDbEntity
  8
MOUNTING_HOLES_LAYER_TOP
100
AcDbHatch
 10
0.0
 20
0.0
 30
0.0
210
0.0
220
0.0
230
1.0
  2
SOLID
 70
         1
 71
         1
 91
        1
 92
        1
 93
        1
 72
         2
 10
43.200000000000003
 20
85.349999999999994
 40
0.75
 50
0.0
 51
360.0
 73
         1
 97
        1
330
4EA
 75
         0
 76
         1
 98
        1
 10
0.0
 20
0.0
  0
CIRCLE
  5
4EC
100
AcDbEntity
  8
MOUNTING_HOLES_LAYER_TOP
100
AcDbCircle
 10
112.81
 20
84.75
 30
0.0
 40
1.625
  0
HATCH
  5
4ED
100
AcDbEntity
  8
MOUNTING_HOLES_LAYER_TOP
100
AcDbHatch
 10
0.0
 20
0.0
 30
0.0
210
0.0
220
0.0
230
1.0
  2
SOLID
 70
         1
 71
         1
 91
        1
 92
        1
 93
        1
 72
         2
 10
112.81
 20
84.75
 40
1.625
 50
0.0
 51
360.0
 73
         1
 97
        1
330
4EC
 75
         0
 76
         1
 98
        1
 10
0.0
 20
0.0
  0
CIRCLE
  5
4EE
100
AcDbEntity
  8
MOUNTING_HOLES_LAYER_TOP
100
AcDbCircle
 10
101.39
 20
84.75
 30
0.0
 40
1.625
  0
HATCH
  5
4EF
100
AcDbEntity
  8
MOUNTING_HOLES_LAYER_TOP
100
AcDbHatch
 10
0.0
 20
0.0
 30
0.0
210
0.0
220
0.0
230
1.0
  2
SOLID
 70
         1
 71
         1
 91
        1
 92
        1
 93
        1
 72
         2
 10
101.39
 20
84.75
 40
1.625
 50
0.0
 51
360.0
 73
         1
 97
        1
330
4EE
 75
         0
 76
         1
 98
        1
 10
0.0
 20
0.0
  0
CIRCLE
  5
4F0
100
AcDbEntity
  8
MOUNTING_HOLES_LAYER_TOP
100
AcDbCircle
 10
14.35
 20
115.35
 30
0.0
 40
0.75
  0
HATCH
  5
4F1
100
AcDbEntity
  8
MOUNTING_HOLES_LAYER_TOP
100
AcDbHatch
 10
0.0
 20
0.0
 30
0.0
210
0.0
220
0.0
230
1.0
  2
SOLID
 70
         1
 71
         1
 91
        1
 92
        1
 93
        1
 72
         2
 10
14.35
 20
115.34999999999999
 40
0.75
 50
0.0
 51
360.0
 73
         1
 97
        1
330
4F0
 75
         0
 76
         1
 98
        1
 10
0.0
 20
0.0
  0
CIRCLE
  5
4F2
100
AcDbEntity
  8
MOUNTING_HOLES_LAYER_TOP
100
AcDbCircle
 10
14.35
 20
122.85
 30
0.0
 40
0.75
  0
HATCH
  5
4F3
100
AcDbEntity
  8
MOUNTING_HOLES_LAYER_TOP
100
AcDbHatch
 10
0.0
 20
0.0
 30
0.0
210
0.0
220
0.0
230
1.0
  2
SOLID
 70
         1
 71
         1
 91
        1
 92
        1
 93
        1
 72
         2
 10
14.35
 20
122.84999999999999
 40
0.75
 50
0.0
 51
360.0
 73
         1
 97
        1
330
4F2
 75
         0
 76
         1
 98
        1
 10
0.0
 20
0.0
  0
CIRCLE
  5
4F4
100
AcDbEntity
  8
MOUNTING_HOLES_LAYER_TOP
100
AcDbCircle
 10
35.05
 20
122.3
 30
0.0
 40
0.75
  0
HATCH
  5
4F5
100
AcDbEntity
  8
MOUNTING_HOLES_LAYER_TOP
100
AcDbHatch
 10
0.0
 20
0.0
 30
0.0
210
0.0
220
0.0
230
1.0
  2
SOLID
 70
         1
 71
         1
 91
        1
 92
        1
 93
        1
 72
         2
 10
35.049999999999997
 20
122.3
 40
0.75
 50
0.0
 51
360.0
 73
         1
 97
        1
330
4F4
 75
         0
 76
         1
 98
        1
 10
0.0
 20
0.0
  0
CIRCLE
  5
4F6
100
AcDbEntity
  8
MOUNTING_HOLES_LAYER_TOP
100
AcDbCircle
 10
25.05
 20
122.3
 30
0.0
 40
0.75
  0
HATCH
  5
4F7
100
AcDbEntity
  8
MOUNTING_HOLES_LAYER_TOP
100
AcDbHatch
 10
0.0
 20
0.0
 30
0.0
210
0.0
220
0.0
230
1.0
  2
SOLID
 70
         1
 71
         1
 91
        1
 92
        1
 93
        1
 72
         2
 10
25.050000000000001
 20
122.3
 40
0.75
 50
0.0
 51
360.0
 73
         1
 97
        1
330
4F6
 75
         0
 76
         1
 98
        1
 10
0.0
 20
0.0
  0
CIRCLE
  5
4F8
100
AcDbEntity
  8
MOUNTING_HOLES_LAYER_TOP
100
AcDbCircle
 10
70.48
 20
99.9
 30
0.0
 40
0.75
  0
HATCH
  5
4F9
100
AcDbEntity
  8
MOUNTING_HOLES_LAYER_TOP
100
AcDbHatch
 10
0.0
 20
0.0
 30
0.0
210
0.0
220
0.0
230
1.0
  2
SOLID
 70
         1
 71
         1
 91
        1
 92
        1
 93
        1
 72
         2
 10
70.480000000000004
 20
99.900000000000006
 40
0.75
 50
0.0
 51
360.0
 73
         1
 97
        1
330
4F8
 75
         0
 76
         1
 98
        1
 10
0.0
 20
0.0
  0
CIRCLE
  5
4FA
100
AcDbEntity
  8
MOUNTING_HOLES_LAYER_TOP
100
AcDbCircle
 10
57.52
 20
99.9
 30
0.0
 40
0.75
  0
HATCH
  5
4FB
100
AcDbEntity
  8
MOUNTING_HOLES_LAYER_TOP
100
AcDbHatch
 10
0.0
 20
0.0
 30
0.0
210
0.0
220
0.0
230
1.0
  2
SOLID
 70
         1
 71
         1
 91
        1
 92
        1
 93
        1
 72
         2
 10
57.520000000000003
 20
99.900000000000006
 40
0.75
 50
0.0
 51
360.0
 73
         1
 97
        1
330
4FA
 75
         0
 76
         1
 98
        1
 10
0.0
 20
0.0
  0
CIRCLE
  5
4FC
100
AcDbEntity
  8
MOUNTING_HOLES_LAYER_TOP
100
AcDbCircle
 10
131.6
 20
111.2
 30
0.0
 40
0.55
  0
HATCH
  5
4FD
100
AcDbEntity
  8
MOUNTING_HOLES_LAYER_TOP
100
AcDbHatch
 10
0.0
 20
0.0
 30
0.0
210
0.0
220
0.0
230
1.0
  2
SOLID
 70
         1
 71
         1
 91
        1
 92
        1
 93
        1
 72
         2
 10
131.59999999999999
 20
111.2
 40
0.55
 50
0.0
 51
360.0
 73
         1
 97
        1
330
4FC
 75
         0
 76
         1
 98
        1
 10
0.0
 20
0.0
  0
CIRCLE
  5
4FE
100
AcDbEntity
  8
MOUNTING_HOLES_LAYER_TOP
100
AcDbCircle
 10
106.6
 20
111.2
 30
0.0
 40
0.8
  0
HATCH
  5
4FF
100
AcDbEntity
  8
MOUNTING_HOLES_LAYER_TOP
100
AcDbHatch
 10
0.0
 20
0.0
 30
0.0
210
0.0
220
0.0
230
1.0
  2
SOLID
 70
         1
 71
         1
 91
        1
 92
        1
 93
        1
 72
         2
 10
106.59999999999999
 20
111.2
 40
0.8
 50
0.0
 51
360.0
 73
         1
 97
        1
330
4FE
 75
         0
 76
         1
 98
        1
 10
0.0
 20
0.0
  0
CIRCLE
  5
500
100
AcDbEntity
  8
MOUNTING_HOLES_LAYER_TOP
100
AcDbCircle
 10
85.89
 20
166.85
 30
0.0
 40
0.9
  0
HATCH
  5
501
100
AcDbEntity
  8
MOUNTING_HOLES_LAYER_TOP
100
AcDbHatch
 10
0.0
 20
0.0
 30
0.0
210
0.0
220
0.0
230
1.0
  2
SOLID
 70
         1
 71
         1
 91
        1
 92
        1
 93
        1
 72
         2
 10
85.890000000000001
 20
166.84999999999999
 40
0.9
 50
0.0
 51
360.0
 73
         1
 97
        1
330
500
 75
         0
 76
         1
 98
        1
 10
0.0
 20
0.0
  0
CIRCLE
  5
502
100
AcDbEntity
  8
MOUNTING_HOLES_LAYER_TOP
100
AcDbCircle
 10
131.61
 20
166.85
 30
0.0
 40
0.9
  0
HATCH
  5
503
100
AcDbEntity
  8
MOUNTING_HOLES_LAYER_TOP
100
AcDbHatch
 10
0.0
 20
0.0
 30
0.0
210
0.0
220
0.0
230
1.0
  2
SOLID
 70
         1
 71
         1
 91
        1
 92
        1
 93
        1
 72
         2
 10
131.61000000000001
 20
166.84999999999999
 40
0.9
 50
0.0
 51
360.0
 73
         1
 97
        1
330
502
 75
         0
 76
         1
 98
        1
 10
0.0
 20
0.0
  0
CIRCLE
  5
504
100
AcDbEntity
  8
MOUNTING_HOLES_LAYER_TOP
100
AcDbCircle
 10
-5.15
 20
98.49
 30
0.0
 40
0.9
  0
HATCH
  5
505
100
AcDbEntity
  8
MOUNTING_HOLES_LAYER_TOP
100
AcDbHatch
 10
0.0
 20
0.0
 30
0.0
210
0.0
220
0.0
230
1.0
  2
SOLID
 70
         1
 71
         1
 91
        1
 92
        1
 93
        1
 72
         2
 10
-5.1500000000000004
 20
98.489999999999995
 40
0.9
 50
0.0
 51
360.0
 73
         1
 97
        1
330
504
 75
         0
 76
         1
 98
        1
 10
0.0
 20
0.0
  0
CIRCLE
  5
506
100
AcDbEntity
  8
MOUNTING_HOLES_LAYER_TOP
100
AcDbCircle
 10
-5.15
 20
144.21
 30
0.0
 40
0.9
  0
HATCH
  5
507
100
AcDbEntity
  8
MOUNTING_HOLES_LAYER_TOP
100
AcDbHatch
 10
0.0
 20
0.0
 30
0.0
210
0.0
220
0.0
230
1.0
  2
SOLID
 70
         1
 71
         1
 91
        1
 92
        1
 93
        1
 72
         2
 10
-5.1500000000000004
 20
144.21000000000001
 40
0.9
 50
0.0
 51
360.0
 73
         1
 97
        1
330
506
 75
         0
 76
         1
 98
        1
 10
0.0
 20
0.0
  0
CIRCLE
  5
508
100
AcDbEntity
  8
PART_HOLES_LAYER_TOP
100
AcDbCircle
 10
11.295
 20
84.0
 30
0.0
 40
0.6
  0
HATCH
  5
509
100
AcDbEntity
  8
PART_HOLES_LAYER_TOP
100
AcDbHatch
 10
0.0
 20
0.0
 30
0.0
210
0.0
220
0.0
230
1.0
  2
SOLID
 70
         1
 71
         1
 91
        1
 92
        1
 93
        1
 72
         2
 10
11.295
 20
84.0
 40
0.6
 50
0.0
 51
360.0
 73
         1
 97
        1
330
508
 75
         0
 76
         1
 98
        1
 10
0.0
 20
0.0
  0
CIRCLE
  5
50A
100
AcDbEntity
  8
PART_HOLES_LAYER_TOP
100
AcDbCircle
 10
14.065
 20
84.0
 30
0.0
 40
0.6
  0
HATCH
  5
50B
100
AcDbEntity
  8
PART_HOLES_LAYER_TOP
100
AcDbHatch
 10
0.0
 20
0.0
 30
0.0
210
0.0
220
0.0
230
1.0
  2
SOLID
 70
         1
 71
         1
 91
        1
 92
        1
 93
        1
 72
         2
 10
14.065
 20
84.0
 40
0.6
 50
0.0
 51
360.0
 73
         1
 97
        1
330
50A
 75
         0
 76
         1
 98
        1
 10
0.0
 20
0.0
  0
CIRCLE
  5
50C
100
AcDbEntity
  8
PART_HOLES_LAYER_TOP
100
AcDbCircle
 10
16.835
 20
84.0
 30
0.0
 40
0.6
  0
HATCH
  5
50D
100
AcDbEntity
  8
PART_HOLES_LAYER_TOP
100
AcDbHatch
 10
0.0
 20
0.0
 30
0.0
210
0.0
220
0.0
230
1.0
  2
SOLID
 70
         1
 71
         1
 91
        1
 92
        1
 93
        1
 72
         2
 10
16.835000000000001
 20
84.0
 40
0.6
 50
0.0
 51
360.0
 73
         1
 97
        1
330
50C
 75
         0
 76
         1
 98
        1
 10
0.0
 20
0.0
  0
CIRCLE
  5
50E
100
AcDbEntity
  8
PART_HOLES_LAYER_TOP
100
AcDbCircle
 10
19.605
 20
84.0
 30
0.0
 40
0.6
  0
HATCH
  5
50F
100
AcDbEntity
  8
PART_HOLES_LAYER_TOP
100
AcDbHatch
 10
0.0
 20
0.0
 30
0.0
210
0.0
220
0.0
230
1.0
  2
SOLID
 70
         1
 71
         1
 91
        1
 92
        1
 93
        1
 72
         2
 10
19.605
 20
84.0
 40
0.6
 50
0.0
 51
360.0
 73
         1
 97
        1
330
50E
 75
         0
 76
         1
 98
        1
 10
0.0
 20
0.0
  0
CIRCLE
  5
510
100
AcDbEntity
  8
PART_HOLES_LAYER_TOP
100
AcDbCircle
 10
27.95
 20
85.42
 30
0.0
 40
1.5
  0
HATCH
  5
511
100
AcDbEntity
  8
PART_HOLES_LAYER_TOP
100
AcDbHatch
 10
0.0
 20
0.0
 30
0.0
210
0.0
220
0.0
230
1.0
  2
SOLID
 70
         1
 71
         1
 91
        1
 92
        1
 93
        1
 72
         2
 10
27.949999999999999
 20
85.420000000000002
 40
1.5
 50
0.0
 51
360.0
 73
         1
 97
        1
330
510
 75
         0
 76
         1
 98
        1
 10
0.0
 20
0.0
  0
CIRCLE
  5
512
100
AcDbEntity
  8
PART_HOLES_LAYER_TOP
100
AcDbCircle
 10
2.95
 20
85.42
 30
0.0
 40
1.5
  0
HATCH
  5
513
100
AcDbEntity
  8
PART_HOLES_LAYER_TOP
100
AcDbHatch
 10
0.0
 20
0.0
 30
0.0
210
0.0
220
0.0
230
1.0
  2
SOLID
 70
         1
 71
         1
 91
        1
 92
        1
 93
        1
 72
         2
 10
2.9500000000000002
 20
85.420000000000002
 40
1.5
 50
0.0
 51
360.0
 73
         1
 97
        1
330
512
 75
         0
 76
         1
 98
        1
 10
0.0
 20
0.0
  0
CIRCLE
  5
514
100
AcDbEntity
  8
PART_HOLES_LAYER_TOP
100
AcDbCircle
 10
12.68
 20
86.84
 30
0.0
 40
0.6
  0
HATCH
  5
515
100
AcDbEntity
  8
PART_HOLES_LAYER_TOP
100
AcDbHatch
 10
0.0
 20
0.0
 30
0.0
210
0.0
220
0.0
230
1.0
  2
SOLID
 70
         1
 71
         1
 91
        1
 92
        1
 93
        1
 72
         2
 10
12.68
 20
86.840000000000003
 40
0.6
 50
0.0
 51
360.0
 73
         1
 97
        1
330
514
 75
         0
 76
         1
 98
        1
 10
0.0
 20
0.0
  0
CIRCLE
  5
516
100
AcDbEntity
  8
PART_HOLES_LAYER_TOP
100
AcDbCircle
 10
20.99
 20
86.84
 30
0.0
 40
0.6
  0
HATCH
  5
517
100
AcDbEntity
  8
PART_HOLES_LAYER_TOP
100
AcDbHatch
 10
0.0
 20
0.0
 30
0.0
210
0.0
220
0.0
230
1.0
  2
SOLID
 70
         1
 71
         1
 91
        1
 92
        1
 93
        1
 72
         2
 10
20.989999999999998
 20
86.840000000000003
 40
0.6
 50
0.0
 51
360.0
 73
         1
 97
        1
330
516
 75
         0
 76
         1
 98
        1
 10
0.0
 20
0.0
  0
CIRCLE
  5
518
100
AcDbEntity
  8
PART_HOLES_LAYER_TOP
100
AcDbCircle
 10
15.45
 20
86.84
 30
0.0
 40
0.6
  0
HATCH
  5
519
100
AcDbEntity
  8
PART_HOLES_LAYER_TOP
100
AcDbHatch
 10
0.0
 20
0.0
 30
0.0
210
0.0
220
0.0
230
1.0
  2
SOLID
 70
         1
 71
         1
 91
        1
 92
        1
 93
        1
 72
         2
 10
15.449999999999999
 20
86.840000000000003
 40
0.6
 50
0.0
 51
360.0
 73
         1
 97
        1
330
518
 75
         0
 76
         1
 98
        1
 10
0.0
 20
0.0
  0
CIRCLE
  5
51A
100
AcDbEntity
  8
PART_HOLES_LAYER_TOP
100
AcDbCircle
 10
9.91
 20
86.84
 30
0.0
 40
0.6
  0
HATCH
  5
51B
100
AcDbEntity
  8
PART_HOLES_LAYER_TOP
100
AcDbHatch
 10
0.0
 20
0.0
 30
0.0
210
0.0
220
0.0
230
1.0
  2
SOLID
 70
         1
 71
         1
 91
        1
 92
        1
 93
        1
 72
         2
 10
9.9100000000000001
 20
86.840000000000003
 40
0.6
 50
0.0
 51
360.0
 73
         1
 97
        1
330
51A
 75
         0
 76
         1
 98
        1
 10
0.0
 20
0.0
  0
CIRCLE
  5
51C
100
AcDbEntity
  8
PART_HOLES_LAYER_TOP
100
AcDbCircle
 10
18.22
 20
86.84
 30
0.0
 40
0.6
  0
HATCH
  5
51D
100
AcDbEntity
  8
PART_HOLES_LAYER_TOP
100
AcDbHatch
 10
0.0
 20
0.0
 30
0.0
210
0.0
220
0.0
230
1.0
  2
SOLID
 70
         1
 71
         1
 91
        1
 92
        1
 93
        1
 72
         2
 10
18.219999999999999
 20
86.840000000000003
 40
0.6
 50
0.0
 51
360.0
 73
         1
 97
        1
330
51C
 75
         0
 76
         1
 98
        1
 10
0.0
 20
0.0
  0
CIRCLE
  5
51E
100
AcDbEntity
  8
PART_HOLES_LAYER_TOP
100
AcDbCircle
 10
-5.25
 20
169.6
 30
0.0
 40
0.95
  0
HATCH
  5
51F
100
AcDbEntity
  8
PART_HOLES_LAYER_TOP
100
AcDbHatch
 10
0.0
 20
0.0
 30
0.0
210
0.0
220
0.0
230
1.0
  2
SOLID
 70
         1
 71
         1
 91
        1
 92
        1
 93
        1
 72
         2
 10
-5.25
 20
169.59999999999999
 40
0.95
 50
0.0
 51
360.0
 73
         1
 97
        1
330
51E
 75
         0
 76
         1
 98
        1
 10
0.0
 20
0.0
  0
CIRCLE
  5
520
100
AcDbEntity
  8
PART_HOLES_LAYER_TOP
100
AcDbCircle
 10
-3.15
 20
161.5
 30
0.0
 40
0.95
  0
HATCH
  5
521
100
AcDbEntity
  8
PART_HOLES_LAYER_TOP
100
AcDbHatch
 10
0.0
 20
0.0
 30
0.0
210
0.0
220
0.0
230
1.0
  2
SOLID
 70
         1
 71
         1
 91
        1
 92
        1
 93
        1
 72
         2
 10
-3.1499999999999999
 20
161.5
 40
0.95
 50
0.0
 51
360.0
 73
         1
 97
        1
330
520
 75
         0
 76
         1
 98
        1
 10
0.0
 20
0.0
  0
CIRCLE
  5
522
100
AcDbEntity
  8
PART_HOLES_LAYER_TOP
100
AcDbCircle
 10
-3.15
 20
167.1
 30
0.0
 40
0.95
  0
HATCH
  5
523
100
AcDbEntity
  8
PART_HOLES_LAYER_TOP
100
AcDbHatch
 10
0.0
 20
0.0
 30
0.0
210
0.0
220
0.0
230
1.0
  2
SOLID
 70
         1
 71
         1
 91
        1
 92
        1
 93
        1
 72
         2
 10
-3.1499999999999999
 20
167.09999999999999
 40
0.95
 50
0.0
 51
360.0
 73
         1
 97
        1
330
522
 75
         0
 76
         1
 98
        1
 10
0.0
 20
0.0
  0
CIRCLE
  5
524
100
AcDbEntity
  8
PART_HOLES_LAYER_TOP
100
AcDbCircle
 10
-0.8
 20
84.65
 30
0.0
 40
1.4
  0
HATCH
  5
525
100
AcDbEntity
  8
PART_HOLES_LAYER_TOP
100
AcDbHatch
 10
0.0
 20
0.0
 30
0.0
210
0.0
220
0.0
230
1.0
  2
SOLID
 70
         1
 71
         1
 91
        1
 92
        1
 93
        1
 72
         2
 10
-0.8
 20
84.650000000000006
 40
1.3999999999999999
 50
0.0
 51
360.0
 73
         1
 97
        1
330
524
 75
         0
 76
         1
 98
        1
 10
0.0
 20
0.0
  0
CIRCLE
  5
526
100
AcDbEntity
  8
PART_HOLES_LAYER_TOP
100
AcDbCircle
 10
-5.5
 20
81.650002
 30
0.0
 40
1.4
  0
HATCH
  5
527
100
AcDbEntity
  8
PART_HOLES_LAYER_TOP
100
AcDbHatch
 10
0.0
 20
0.0
 30
0.0
210
0.0
220
0.0
230
1.0
  2
SOLID
 70
         1
 71
         1
 91
        1
 92
        1
 93
        1
 72
         2
 10
-5.5
 20
81.650002000000001
 40
1.3999999999999999
 50
0.0
 51
360.0
 73
         1
 97
        1
330
526
 75
         0
 76
         1
 98
        1
 10
0.0
 20
0.0
  0
CIRCLE
  5
528
100
AcDbEntity
  8
PART_HOLES_LAYER_TOP
100
AcDbCircle
 10
-5.5
 20
87.850002
 30
0.0
 40
1.4
  0
HATCH
  5
529
100
AcDbEntity
  8
PART_HOLES_LAYER_TOP
100
AcDbHatch
 10
0.0
 20
0.0
 30
0.0
210
0.0
220
0.0
230
1.0
  2
SOLID
 70
         1
 71
         1
 91
        1
 92
        1
 93
        1
 72
         2
 10
-5.5
 20
87.850002000000003
 40
1.3999999999999999
 50
0.0
 51
360.0
 73
         1
 97
        1
330
528
 75
         0
 76
         1
 98
        1
 10
0.0
 20
0.0
  0
CIRCLE
  5
52A
100
AcDbEntity
  8
PART_HOLES_LAYER_TOP
100
AcDbCircle
 10
1.9
 20
134.7
 30
0.0
 40
0.45
  0
HATCH
  5
52B
100
AcDbEntity
  8
PART_HOLES_LAYER_TOP
100
AcDbHatch
 10
0.0
 20
0.0
 30
0.0
210
0.0
220
0.0
230
1.0
  2
SOLID
 70
         1
 71
         1
 91
        1
 92
        1
 93
        1
 72
         2
 10
1.8999999999999999
 20
134.69999999999999
 40
0.45
 50
0.0
 51
360.0
 73
         1
 97
        1
330
52A
 75
         0
 76
         1
 98
        1
 10
0.0
 20
0.0
  0
CIRCLE
  5
52C
100
AcDbEntity
  8
PART_HOLES_LAYER_TOP
100
AcDbCircle
 10
6.98
 20
134.7
 30
0.0
 40
0.45
  0
HATCH
  5
52D
100
AcDbEntity
  8
PART_HOLES_LAYER_TOP
100
AcDbHatch
 10
0.0
 20
0.0
 30
0.0
210
0.0
220
0.0
230
1.0
  2
SOLID
 70
         1
 71
         1
 91
        1
 92
        1
 93
        1
 72
         2
 10
6.9800000000000004
 20
134.69999999999999
 40
0.45
 50
0.0
 51
360.0
 73
         1
 97
        1
330
52C
 75
         0
 76
         1
 98
        1
 10
0.0
 20
0.0
  0
CIRCLE
  5
52E
100
AcDbEntity
  8
PART_HOLES_LAYER_TOP
100
AcDbCircle
 10
4.44
 20
134.7
 30
0.0
 40
0.45
  0
HATCH
  5
52F
100
AcDbEntity
  8
PART_HOLES_LAYER_TOP
100
AcDbHatch
 10
0.0
 20
0.0
 30
0.0
210
0.0
220
0.0
230
1.0
  2
SOLID
 70
         1
 71
         1
 91
        1
 92
        1
 93
        1
 72
         2
 10
4.4400000000000004
 20
134.69999999999999
 40
0.45
 50
0.0
 51
360.0
 73
         1
 97
        1
330
52E
 75
         0
 76
         1
 98
        1
 10
0.0
 20
0.0
  0
CIRCLE
  5
530
100
AcDbEntity
  8
PART_HOLES_LAYER_TOP
100
AcDbCircle
 10
81.65
 20
79.15
 30
0.0
 40
0.45
  0
HATCH
  5
531
100
AcDbEntity
  8
PART_HOLES_LAYER_TOP
100
AcDbHatch
 10
0.0
 20
0.0
 30
0.0
210
0.0
220
0.0
230
1.0
  2
SOLID
 70
         1
 71
         1
 91
        1
 92
        1
 93
        1
 72
         2
 10
81.650000000000006
 20
79.150000000000006
 40
0.45
 50
0.0
 51
360.0
 73
         1
 97
        1
330
530
 75
         0
 76
         1
 98
        1
 10
0.0
 20
0.0
  0
CIRCLE
  5
532
100
AcDbEntity
  8
PART_HOLES_LAYER_TOP
100
AcDbCircle
 10
81.65
 20
76.61
 30
0.0
 40
0.45
  0
HATCH
  5
533
100
AcDbEntity
  8
PART_HOLES_LAYER_TOP
100
AcDbHatch
 10
0.0
 20
0.0
 30
0.0
210
0.0
220
0.0
230
1.0
  2
SOLID
 70
         1
 71
         1
 91
        1
 92
        1
 93
        1
 72
         2
 10
81.650000000000006
 20
76.609999999999999
 40
0.45
 50
0.0
 51
360.0
 73
         1
 97
        1
330
532
 75
         0
 76
         1
 98
        1
 10
0.0
 20
0.0
  0
CIRCLE
  5
534
100
AcDbEntity
  8
PART_HOLES_LAYER_TOP
100
AcDbCircle
 10
2.75
 20
107.0
 30
0.0
 40
0.45
  0
HATCH
  5
535
100
AcDbEntity
  8
PART_HOLES_LAYER_TOP
100
AcDbHatch
 10
0.0
 20
0.0
 30
0.0
210
0.0
220
0.0
230
1.0
  2
SOLID
 70
         1
 71
         1
 91
        1
 92
        1
 93
        1
 72
         2
 10
2.75
 20
107.0
 40
0.45
 50
0.0
 51
360.0
 73
         1
 97
        1
330
534
 75
         0
 76
         1
 98
        1
 10
0.0
 20
0.0
  0
CIRCLE
  5
536
100
AcDbEntity
  8
PART_HOLES_LAYER_TOP
100
AcDbCircle
 10
5.29
 20
107.0
 30
0.0
 40
0.45
  0
HATCH
  5
537
100
AcDbEntity
  8
PART_HOLES_LAYER_TOP
100
AcDbHatch
 10
0.0
 20
0.0
 30
0.0
210
0.0
220
0.0
230
1.0
  2
SOLID
 70
         1
 71
         1
 91
        1
 92
        1
 93
        1
 72
         2
 10
5.29
 20
107.0
 40
0.45
 50
0.0
 51
360.0
 73
         1
 97
        1
330
536
 75
         0
 76
         1
 98
        1
 10
0.0
 20
0.0
  0
CIRCLE
  5
538
100
AcDbEntity
  8
PART_HOLES_LAYER_TOP
100
AcDbCircle
 10
79.3
 20
78.38
 30
0.0
 40
0.75
  0
HATCH
  5
539
100
AcDbEntity
  8
PART_HOLES_LAYER_TOP
100
AcDbHatch
 10
0.0
 20
0.0
 30
0.0
210
0.0
220
0.0
230
1.0
  2
SOLID
 70
         1
 71
         1
 91
        1
 92
        1
 93
        1
 72
         2
 10
79.299999999999997
 20
78.379999999999995
 40
0.75
 50
0.0
 51
360.0
 73
         1
 97
        1
330
538
 75
         0
 76
         1
 98
        1
 10
0.0
 20
0.0
  0
CIRCLE
  5
53A
100
AcDbEntity
  8
PART_HOLES_LAYER_TOP
100
AcDbCircle
 10
79.3
 20
84.34
 30
0.0
 40
1.25
  0
HATCH
  5
53B
100
AcDbEntity
  8
PART_HOLES_LAYER_TOP
100
AcDbHatch
 10
0.0
 20
0.0
 30
0.0
210
0.0
220
0.0
230
1.0
  2
SOLID
 70
         1
 71
         1
 91
        1
 92
        1
 93
        1
 72
         2
 10
79.299999999999997
 20
84.340000000000003
 40
1.25
 50
0.0
 51
360.0
 73
         1
 97
        1
330
53A
 75
         0
 76
         1
 98
        1
 10
0.0
 20
0.0
  0
CIRCLE
  5
53C
100
AcDbEntity
  8
PART_HOLES_LAYER_TOP
100
AcDbCircle
 10
64.8
 20
84.34
 30
0.0
 40
1.25
  0
HATCH
  5
53D
100
AcDbEntity
  8
PART_HOLES_LAYER_TOP
100
AcDbHatch
 10
0.0
 20
0.0
 30
0.0
210
0.0
220
0.0
230
1.0
  2
SOLID
 70
         1
 71
         1
 91
        1
 92
        1
 93
        1
 72
         2
 10
64.799999999999997
 20
84.340000000000003
 40
1.25
 50
0.0
 51
360.0
 73
         1
 97
        1
330
53C
 75
         0
 76
         1
 98
        1
 10
0.0
 20
0.0
  0
CIRCLE
  5
53E
100
AcDbEntity
  8
PART_HOLES_LAYER_TOP
100
AcDbCircle
 10
64.8
 20
78.38
 30
0.0
 40
0.75
  0
HATCH
  5
53F
100
AcDbEntity
  8
PART_HOLES_LAYER_TOP
100
AcDbHatch
 10
0.0
 20
0.0
 30
0.0
210
0.0
220
0.0
230
1.0
  2
SOLID
 70
         1
 71
         1
 91
        1
 92
        1
 93
        1
 72
         2
 10
64.799999999999997
 20
78.379999999999995
 40
0.75
 50
0.0
 51
360.0
 73
         1
 97
        1
330
53E
 75
         0
 76
         1
 98
        1
 10
0.0
 20
0.0
  0
CIRCLE
  5
540
100
AcDbEntity
  8
PART_HOLES_LAYER_TOP
100
AcDbCircle
 10
67.32
 20
163.97
 30
0.0
 40
1.4
  0
HATCH
  5
541
100
AcDbEntity
  8
PART_HOLES_LAYER_TOP
100
AcDbHatch
 10
0.0
 20
0.0
 30
0.0
210
0.0
220
0.0
230
1.0
  2
SOLID
 70
         1
 71
         1
 91
        1
 92
        1
 93
        1
 72
         2
 10
67.319999999999993
 20
163.97
 40
1.3999999999999999
 50
0.0
 51
360.0
 73
         1
 97
        1
330
540
 75
         0
 76
         1
 98
        1
 10
0.0
 20
0.0
  0
CIRCLE
  5
542
100
AcDbEntity
  8
PART_HOLES_LAYER_TOP
100
AcDbCircle
 10
72.4
 20
169.05
 30
0.0
 40
1.4
  0
HATCH
  5
543
100
AcDbEntity
  8
PART_HOLES_LAYER_TOP
100
AcDbHatch
 10
0.0
 20
0.0
 30
0.0
210
0.0
220
0.0
230
1.0
  2
SOLID
 70
         1
 71
         1
 91
        1
 92
        1
 93
        1
 72
         2
 10
72.400000000000006
 20
169.05000000000001
 40
1.3999999999999999
 50
0.0
 51
360.0
 73
         1
 97
        1
330
542
 75
         0
 76
         1
 98
        1
 10
0.0
 20
0.0
  0
CIRCLE
  5
544
100
AcDbEntity
  8
PART_HOLES_LAYER_TOP
100
AcDbCircle
 10
77.48
 20
163.97
 30
0.0
 40
1.4
  0
HATCH
  5
545
100
AcDbEntity
  8
PART_HOLES_LAYER_TOP
100
AcDbHatch
 10
0.0
 20
0.0
 30
0.0
210
0.0
220
0.0
230
1.0
  2
SOLID
 70
         1
 71
         1
 91
        1
 92
        1
 93
        1
 72
         2
 10
77.480000000000004
 20
163.97
 40
1.3999999999999999
 50
0.0
 51
360.0
 73
         1
 97
        1
330
544
 75
         0
 76
         1
 98
        1
 10
0.0
 20
0.0
  0
CIRCLE
  5
546
100
AcDbEntity
  8
PART_HOLES_LAYER_TOP
100
AcDbCircle
 10
72.4
 20
163.97
 30
0.0
 40
1.4
  0
HATCH
  5
547
100
AcDbEntity
  8
PART_HOLES_LAYER_TOP
100
AcDbHatch
 10
0.0
 20
0.0
 30
0.0
210
0.0
220
0.0
230
1.0
  2
SOLID
 70
         1
 71
         1
 91
        1
 92
        1
 93
        1
 72
         2
 10
72.400000000000006
 20
163.97
 40
1.3999999999999999
 50
0.0
 51
360.0
 73
         1
 97
        1
330
546
 75
         0
 76
         1
 98
        1
 10
0.0
 20
0.0
  0
CIRCLE
  5
548
100
AcDbEntity
  8
PART_HOLES_LAYER_TOP
100
AcDbCircle
 10
81.74
 20
100.95
 30
0.0
 40
0.45
  0
HATCH
  5
549
100
AcDbEntity
  8
PART_HOLES_LAYER_TOP
100
AcDbHatch
 10
0.0
 20
0.0
 30
0.0
210
0.0
220
0.0
230
1.0
  2
SOLID
 70
         1
 71
         1
 91
        1
 92
        1
 93
        1
 72
         2
 10
81.739999999999995
 20
100.95
 40
0.45
 50
0.0
 51
360.0
 73
         1
 97
        1
330
548
 75
         0
 76
         1
 98
        1
 10
0.0
 20
0.0
  0
CIRCLE
  5
54A
100
AcDbEntity
  8
PART_HOLES_LAYER_TOP
100
AcDbCircle
 10
76.86
 20
100.95
 30
0.0
 40
0.45
  0
HATCH
  5
54B
100
AcDbEntity
  8
PART_HOLES_LAYER_TOP
100
AcDbHatch
 10
0.0
 20
0.0
 30
0.0
210
0.0
220
0.0
230
1.0
  2
SOLID
 70
         1
 71
         1
 91
        1
 92
        1
 93
        1
 72
         2
 10
76.859999999999999
 20
100.95
 40
0.45
 50
0.0
 51
360.0
 73
         1
 97
        1
330
54A
 75
         0
 76
         1
 98
        1
 10
0.0
 20
0.0
  0
CIRCLE
  5
54C
100
AcDbEntity
  8
PART_HOLES_LAYER_TOP
100
AcDbCircle
 10
7.94
 20
150.15
 30
0.0
 40
0.45
  0
HATCH
  5
54D
100
AcDbEntity
  8
PART_HOLES_LAYER_TOP
100
AcDbHatch
 10
0.0
 20
0.0
 30
0.0
210
0.0
220
0.0
230
1.0
  2
SOLID
 70
         1
 71
         1
 91
        1
 92
        1
 93
        1
 72
         2
 10
7.9400000000000004
 20
150.15000000000001
 40
0.45
 50
0.0
 51
360.0
 73
         1
 97
        1
330
54C
 75
         0
 76
         1
 98
        1
 10
0.0
 20
0.0
  0
CIRCLE
  5
54E
100
AcDbEntity
  8
PART_HOLES_LAYER_TOP
100
AcDbCircle
 10
3.06
 20
150.15
 30
0.0
 40
0.45
  0
HATCH
  5
54F
100
AcDbEntity
  8
PART_HOLES_LAYER_TOP
100
AcDbHatch
 10
0.0
 20
0.0
 30
0.0
210
0.0
220
0.0
230
1.0
  2
SOLID
 70
         1
 71
         1
 91
        1
 92
        1
 93
        1
 72
         2
 10
3.0600000000000001
 20
150.15000000000001
 40
0.45
 50
0.0
 51
360.0
 73
         1
 97
        1
330
54E
 75
         0
 76
         1
 98
        1
 10
0.0
 20
0.0
  0
CIRCLE
  5
550
100
AcDbEntity
  8
PART_HOLES_LAYER_TOP
100
AcDbCircle
 10
92.75
 20
100.85
 30
0.0
 40
0.45
  0
HATCH
  5
551
100
AcDbEntity
  8
PART_HOLES_LAYER_TOP
100
AcDbHatch
 10
0.0
 20
0.0
 30
0.0
210
0.0
220
0.0
230
1.0
  2
SOLID
 70
         1
 71
         1
 91
        1
 92
        1
 93
        1
 72
         2
 10
92.75
 20
100.84999999999999
 40
0.45
 50
0.0
 51
360.0
 73
         1
 97
        1
330
550
 75
         0
 76
         1
 98
        1
 10
0.0
 20
0.0
  0
CIRCLE
  5
552
100
AcDbEntity
  8
PART_HOLES_LAYER_TOP
100
AcDbCircle
 10
101.39
 20
93.64
 30
0.0
 40
0.45
  0
HATCH
  5
553
100
AcDbEntity
  8
PART_HOLES_LAYER_TOP
100
AcDbHatch
 10
0.0
 20
0.0
 30
0.0
210
0.0
220
0.0
230
1.0
  2
SOLID
 70
         1
 71
         1
 91
        1
 92
        1
 93
        1
 72
         2
 10
101.39
 20
93.640000000000001
 40
0.45
 50
0.0
 51
360.0
 73
         1
 97
        1
330
552
 75
         0
 76
         1
 98
        1
 10
0.0
 20
0.0
  0
CIRCLE
  5
554
100
AcDbEntity
  8
PART_HOLES_LAYER_TOP
100
AcDbCircle
 10
113.72
 20
79.85
 30
0.0
 40
0.55
  0
HATCH
  5
555
100
AcDbEntity
  8
PART_HOLES_LAYER_TOP
100
AcDbHatch
 10
0.0
 20
0.0
 30
0.0
210
0.0
220
0.0
230
1.0
  2
SOLID
 70
         1
 71
         1
 91
        1
 92
        1
 93
        1
 72
         2
 10
113.72
 20
79.849999999999994
 40
0.55
 50
0.0
 51
360.0
 73
         1
 97
        1
330
554
 75
         0
 76
         1
 98
        1
 10
0.0
 20
0.0
  0
CIRCLE
  5
556
100
AcDbEntity
  8
PART_HOLES_LAYER_TOP
100
AcDbCircle
 10
100.48
 20
79.85
 30
0.0
 40
0.55
  0
HATCH
  5
557
100
AcDbEntity
  8
PART_HOLES_LAYER_TOP
100
AcDbHatch
 10
0.0
 20
0.0
 30
0.0
210
0.0
220
0.0
230
1.0
  2
SOLID
 70
         1
 71
         1
 91
        1
 92
        1
 93
        1
 72
         2
 10
100.48
 20
79.849999999999994
 40
0.55
 50
0.0
 51
360.0
 73
         1
 97
        1
330
556
 75
         0
 76
         1
 98
        1
 10
0.0
 20
0.0
  0
CIRCLE
  5
558
100
AcDbEntity
  8
PART_HOLES_LAYER_TOP
100
AcDbCircle
 10
99.36
 20
87.8
 30
0.0
 40
0.8
  0
HATCH
  5
559
100
AcDbEntity
  8
PART_HOLES_LAYER_TOP
100
AcDbHatch
 10
0.0
 20
0.0
 30
0.0
210
0.0
220
0.0
230
1.0
  2
SOLID
 70
         1
 71
         1
 91
        1
 92
        1
 93
        1
 72
         2
 10
99.359999999999999
 20
87.799999999999997
 40
0.8
 50
0.0
 51
360.0
 73
         1
 97
        1
330
558
 75
         0
 76
         1
 98
        1
 10
0.0
 20
0.0
  0
CIRCLE
  5
55A
100
AcDbEntity
  8
PART_HOLES_LAYER_TOP
100
AcDbCircle
 10
114.84
 20
87.8
 30
0.0
 40
0.8
  0
HATCH
  5
55B
100
AcDbEntity
  8
PART_HOLES_LAYER_TOP
100
AcDbHatch
 10
0.0
 20
0.0
 30
0.0
210
0.0
220
0.0
230
1.0
  2
SOLID
 70
         1
 71
         1
 91
        1
 92
        1
 93
        1
 72
         2
 10
114.84
 20
87.799999999999997
 40
0.8
 50
0.0
 51
360.0
 73
         1
 97
        1
330
55A
 75
         0
 76
         1
 98
        1
 10
0.0
 20
0.0
  0
CIRCLE
  5
55C
100
AcDbEntity
  8
PART_HOLES_LAYER_TOP
100
AcDbCircle
 10
112.81
 20
91.1
 30
0.0
 40
0.45
  0
HATCH
  5
55D
100
AcDbEntity
  8
PART_HOLES_LAYER_TOP
100
AcDbHatch
 10
0.0
 20
0.0
 30
0.0
210
0.0
220
0.0
230
1.0
  2
SOLID
 70
         1
 71
         1
 91
        1
 92
        1
 93
        1
 72
         2
 10
112.81
 20
91.099999999999994
 40
0.45
 50
0.0
 51
360.0
 73
         1
 97
        1
330
55C
 75
         0
 76
         1
 98
        1
 10
0.0
 20
0.0
  0
CIRCLE
  5
55E
100
AcDbEntity
  8
PART_HOLES_LAYER_TOP
100
AcDbCircle
 10
102.655
 20
91.1
 30
0.0
 40
0.45
  0
HATCH
  5
55F
100
AcDbEntity
  8
PART_HOLES_LAYER_TOP
100
AcDbHatch
 10
0.0
 20
0.0
 30
0.0
210
0.0
220
0.0
230
1.0
  2
SOLID
 70
         1
 71
         1
 91
        1
 92
        1
 93
        1
 72
         2
 10
102.655
 20
91.099999999999994
 40
0.45
 50
0.0
 51
360.0
 73
         1
 97
        1
330
55E
 75
         0
 76
         1
 98
        1
 10
0.0
 20
0.0
  0
CIRCLE
  5
560
100
AcDbEntity
  8
PART_HOLES_LAYER_TOP
100
AcDbCircle
 10
103.925
 20
93.64
 30
0.0
 40
0.45
  0
HATCH
  5
561
100
AcDbEntity
  8
PART_HOLES_LAYER_TOP
100
AcDbHatch
 10
0.0
 20
0.0
 30
0.0
210
0.0
220
0.0
230
1.0
  2
SOLID
 70
         1
 71
         1
 91
        1
 92
        1
 93
        1
 72
         2
 10
103.925
 20
93.640000000000001
 40
0.45
 50
0.0
 51
360.0
 73
         1
 97
        1
330
560
 75
         0
 76
         1
 98
        1
 10
0.0
 20
0.0
  0
CIRCLE
  5
562
100
AcDbEntity
  8
PART_HOLES_LAYER_TOP
100
AcDbCircle
 10
105.195
 20
91.1
 30
0.0
 40
0.45
  0
HATCH
  5
563
100
AcDbEntity
  8
PART_HOLES_LAYER_TOP
100
AcDbHatch
 10
0.0
 20
0.0
 30
0.0
210
0.0
220
0.0
230
1.0
  2
SOLID
 70
         1
 71
         1
 91
        1
 92
        1
 93
        1
 72
         2
 10
105.19499999999999
 20
91.099999999999994
 40
0.45
 50
0.0
 51
360.0
 73
         1
 97
        1
330
562
 75
         0
 76
         1
 98
        1
 10
0.0
 20
0.0
  0
CIRCLE
  5
564
100
AcDbEntity
  8
PART_HOLES_LAYER_TOP
100
AcDbCircle
 10
109.005
 20
93.64
 30
0.0
 40
0.45
  0
HATCH
  5
565
100
AcDbEntity
  8
PART_HOLES_LAYER_TOP
100
AcDbHatch
 10
0.0
 20
0.0
 30
0.0
210
0.0
220
0.0
230
1.0
  2
SOLID
 70
         1
 71
         1
 91
        1
 92
        1
 93
        1
 72
         2
 10
109.005
 20
93.640000000000001
 40
0.45
 50
0.0
 51
360.0
 73
         1
 97
        1
330
564
 75
         0
 76
         1
 98
        1
 10
0.0
 20
0.0
  0
CIRCLE
  5
566
100
AcDbEntity
  8
PART_HOLES_LAYER_TOP
100
AcDbCircle
 10
106.465
 20
93.64
 30
0.0
 40
0.45
  0
HATCH
  5
567
100
AcDbEntity
  8
PART_HOLES_LAYER_TOP
100
AcDbHatch
 10
0.0
 20
0.0
 30
0.0
210
0.0
220
0.0
230
1.0
  2
SOLID
 70
         1
 71
         1
 91
        1
 92
        1
 93
        1
 72
         2
 10
106.465
 20
93.640000000000001
 40
0.45
 50
0.0
 51
360.0
 73
         1
 97
        1
330
566
 75
         0
 76
         1
 98
        1
 10
0.0
 20
0.0
  0
CIRCLE
  5
568
100
AcDbEntity
  8
PART_HOLES_LAYER_TOP
100
AcDbCircle
 10
107.735
 20
91.1
 30
0.0
 40
0.45
  0
HATCH
  5
569
100
AcDbEntity
  8
PART_HOLES_LAYER_TOP
100
AcDbHatch
 10
0.0
 20
0.0
 30
0.0
210
0.0
220
0.0
230
1.0
  2
SOLID
 70
         1
 71
         1
 91
        1
 92
        1
 93
        1
 72
         2
 10
107.735
 20
91.099999999999994
 40
0.45
 50
0.0
 51
360.0
 73
         1
 97
        1
330
568
 75
         0
 76
         1
 98
        1
 10
0.0
 20
0.0
  0
CIRCLE
  5
56A
100
AcDbEntity
  8
PART_HOLES_LAYER_TOP
100
AcDbCircle
 10
110.275
 20
91.1
 30
0.0
 40
0.45
  0
HATCH
  5
56B
100
AcDbEntity
  8
PART_HOLES_LAYER_TOP
100
AcDbHatch
 10
0.0
 20
0.0
 30
0.0
210
0.0
220
0.0
230
1.0
  2
SOLID
 70
         1
 71
         1
 91
        1
 92
        1
 93
        1
 72
         2
 10
110.27500000000001
 20
91.099999999999994
 40
0.45
 50
0.0
 51
360.0
 73
         1
 97
        1
330
56A
 75
         0
 76
         1
 98
        1
 10
0.0
 20
0.0
  0
CIRCLE
  5
56C
100
AcDbEntity
  8
PART_HOLES_LAYER_TOP
100
AcDbCircle
 10
111.545
 20
93.64
 30
0.0
 40
0.45
  0
HATCH
  5
56D
100
AcDbEntity
  8
PART_HOLES_LAYER_TOP
100
AcDbHatch
 10
0.0
 20
0.0
 30
0.0
210
0.0
220
0.0
230
1.0
  2
SOLID
 70
         1
 71
         1
 91
        1
 92
        1
 93
        1
 72
         2
 10
111.545
 20
93.640000000000001
 40
0.45
 50
0.0
 51
360.0
 73
         1
 97
        1
330
56C
 75
         0
 76
         1
 98
        1
 10
0.0
 20
0.0
  0
CIRCLE
  5
56E
100
AcDbEntity
  8
PART_HOLES_LAYER_TOP
100
AcDbCircle
 10
103.02
 20
79.85
 30
0.0
 40
0.55
  0
HATCH
  5
56F
100
AcDbEntity
  8
PART_HOLES_LAYER_TOP
100
AcDbHatch
 10
0.0
 20
0.0
 30
0.0
210
0.0
220
0.0
230
1.0
  2
SOLID
 70
         1
 71
         1
 91
        1
 92
        1
 93
        1
 72
         2
 10
103.02
 20
79.849999999999994
 40
0.55
 50
0.0
 51
360.0
 73
         1
 97
        1
330
56E
 75
         0
 76
         1
 98
        1
 10
0.0
 20
0.0
  0
CIRCLE
  5
570
100
AcDbEntity
  8
PART_HOLES_LAYER_TOP
100
AcDbCircle
 10
111.18
 20
79.85
 30
0.0
 40
0.55
  0
HATCH
  5
571
100
AcDbEntity
  8
PART_HOLES_LAYER_TOP
100
AcDbHatch
 10
0.0
 20
0.0
 30
0.0
210
0.0
220
0.0
230
1.0
  2
SOLID
 70
         1
 71
         1
 91
        1
 92
        1
 93
        1
 72
         2
 10
111.18000000000001
 20
79.849999999999994
 40
0.55
 50
0.0
 51
360.0
 73
         1
 97
        1
330
570
 75
         0
 76
         1
 98
        1
 10
0.0
 20
0.0
  0
CIRCLE
  5
572
100
AcDbEntity
  8
PART_HOLES_LAYER_TOP
100
AcDbCircle
 10
70.16
 20
109.75
 30
0.0
 40
0.45
  0
HATCH
  5
573
100
AcDbEntity
  8
PART_HOLES_LAYER_TOP
100
AcDbHatch
 10
0.0
 20
0.0
 30
0.0
210
0.0
220
0.0
230
1.0
  2
SOLID
 70
         1
 71
         1
 91
        1
 92
        1
 93
        1
 72
         2
 10
70.159999999999997
 20
109.75
 40
0.45
 50
0.0
 51
360.0
 73
         1
 97
        1
330
572
 75
         0
 76
         1
 98
        1
 10
0.0
 20
0.0
  0
CIRCLE
  5
574
100
AcDbEntity
  8
PART_HOLES_LAYER_TOP
100
AcDbCircle
 10
75.04
 20
109.75
 30
0.0
 40
0.45
  0
HATCH
  5
575
100
AcDbEntity
  8
PART_HOLES_LAYER_TOP
100
AcDbHatch
 10
0.0
 20
0.0
 30
0.0
210
0.0
220
0.0
230
1.0
  2
SOLID
 70
         1
 71
         1
 91
        1
 92
        1
 93
        1
 72
         2
 10
75.040000000000006
 20
109.75
 40
0.45
 50
0.0
 51
360.0
 73
         1
 97
        1
330
574
 75
         0
 76
         1
 98
        1
 10
0.0
 20
0.0
  0
CIRCLE
  5
576
100
AcDbEntity
  8
PART_HOLES_LAYER_TOP
100
AcDbCircle
 10
51.35
 20
89.25
 30
0.0
 40
0.45
  0
HATCH
  5
577
100
AcDbEntity
  8
PART_HOLES_LAYER_TOP
100
AcDbHatch
 10
0.0
 20
0.0
 30
0.0
210
0.0
220
0.0
230
1.0
  2
SOLID
 70
         1
 71
         1
 91
        1
 92
        1
 93
        1
 72
         2
 10
51.350000000000001
 20
89.25
 40
0.45
 50
0.0
 51
360.0
 73
         1
 97
        1
330
576
 75
         0
 76
         1
 98
        1
 10
0.0
 20
0.0
  0
CIRCLE
  5
578
100
AcDbEntity
  8
PART_HOLES_LAYER_TOP
100
AcDbCircle
 10
58.35
 20
89.25
 30
0.0
 40
0.45
  0
HATCH
  5
579
100
AcDbEntity
  8
PART_HOLES_LAYER_TOP
100
AcDbHatch
 10
0.0
 20
0.0
 30
0.0
210
0.0
220
0.0
230
1.0
  2
SOLID
 70
         1
 71
         1
 91
        1
 92
        1
 93
        1
 72
         2
 10
58.350000000000001
 20
89.25
 40
0.45
 50
0.0
 51
360.0
 73
         1
 97
        1
330
578
 75
         0
 76
         1
 98
        1
 10
0.0
 20
0.0
  0
CIRCLE
  5
57A
100
AcDbEntity
  8
PART_HOLES_LAYER_TOP
100
AcDbCircle
 10
58.35
 20
86.63
 30
0.0
 40
0.45
  0
HATCH
  5
57B
100
AcDbEntity
  8
PART_HOLES_LAYER_TOP
100
AcDbHatch
 10
0.0
 20
0.0
 30
0.0
210
0.0
220
0.0
230
1.0
  2
SOLID
 70
         1
 71
         1
 91
        1
 92
        1
 93
        1
 72
         2
 10
58.350000000000001
 20
86.629999999999995
 40
0.45
 50
0.0
 51
360.0
 73
         1
 97
        1
330
57A
 75
         0
 76
         1
 98
        1
 10
0.0
 20
0.0
  0
CIRCLE
  5
57C
100
AcDbEntity
  8
PART_HOLES_LAYER_TOP
100
AcDbCircle
 10
48.28
 20
83.79
 30
0.0
 40
1.15
  0
HATCH
  5
57D
100
AcDbEntity
  8
PART_HOLES_LAYER_TOP
100
AcDbHatch
 10
0.0
 20
0.0
 30
0.0
210
0.0
220
0.0
230
1.0
  2
SOLID
 70
         1
 71
         1
 91
        1
 92
        1
 93
        1
 72
         2
 10
48.280000000000001
 20
83.790000000000006
 40
1.1499999999999999
 50
0.0
 51
360.0
 73
         1
 97
        1
330
57C
 75
         0
 76
         1
 98
        1
 10
0.0
 20
0.0
  0
CIRCLE
  5
57E
100
AcDbEntity
  8
PART_HOLES_LAYER_TOP
100
AcDbCircle
 10
48.28
 20
89.47
 30
0.0
 40
1.15
  0
HATCH
  5
57F
100
AcDbEntity
  8
PART_HOLES_LAYER_TOP
100
AcDbHatch
 10
0.0
 20
0.0
 30
0.0
210
0.0
220
0.0
230
1.0
  2
SOLID
 70
         1
 71
         1
 91
        1
 92
        1
 93
        1
 72
         2
 10
48.280000000000001
 20
89.469999999999999
 40
1.1499999999999999
 50
0.0
 51
360.0
 73
         1
 97
        1
330
57E
 75
         0
 76
         1
 98
        1
 10
0.0
 20
0.0
  0
CIRCLE
  5
580
100
AcDbEntity
  8
PART_HOLES_LAYER_TOP
100
AcDbCircle
 10
61.42
 20
83.79
 30
0.0
 40
1.15
  0
HATCH
  5
581
100
AcDbEntity
  8
PART_HOLES_LAYER_TOP
100
AcDbHatch
 10
0.0
 20
0.0
 30
0.0
210
0.0
220
0.0
230
1.0
  2
SOLID
 70
         1
 71
         1
 91
        1
 92
        1
 93
        1
 72
         2
 10
61.420000000000002
 20
83.790000000000006
 40
1.1499999999999999
 50
0.0
 51
360.0
 73
         1
 97
        1
330
580
 75
         0
 76
         1
 98
        1
 10
0.0
 20
0.0
  0
CIRCLE
  5
582
100
AcDbEntity
  8
PART_HOLES_LAYER_TOP
100
AcDbCircle
 10
61.42
 20
89.47
 30
0.0
 40
1.15
  0
HATCH
  5
583
100
AcDbEntity
  8
PART_HOLES_LAYER_TOP
100
AcDbHatch
 10
0.0
 20
0.0
 30
0.0
210
0.0
220
0.0
230
1.0
  2
SOLID
 70
         1
 71
         1
 91
        1
 92
        1
 93
        1
 72
         2
 10
61.420000000000002
 20
89.469999999999999
 40
1.1499999999999999
 50
0.0
 51
360.0
 73
         1
 97
        1
330
582
 75
         0
 76
         1
 98
        1
 10
0.0
 20
0.0
  0
CIRCLE
  5
584
100
AcDbEntity
  8
PART_HOLES_LAYER_TOP
100
AcDbCircle
 10
53.85
 20
89.25
 30
0.0
 40
0.45
  0
HATCH
  5
585
100
AcDbEntity
  8
PART_HOLES_LAYER_TOP
100
AcDbHatch
 10
0.0
 20
0.0
 30
0.0
210
0.0
220
0.0
230
1.0
  2
SOLID
 70
         1
 71
         1
 91
        1
 92
        1
 93
        1
 72
         2
 10
53.850000000000001
 20
89.25
 40
0.45
 50
0.0
 51
360.0
 73
         1
 97
        1
330
584
 75
         0
 76
         1
 98
        1
 10
0.0
 20
0.0
  0
CIRCLE
  5
586
100
AcDbEntity
  8
PART_HOLES_LAYER_TOP
100
AcDbCircle
 10
55.85
 20
89.25
 30
0.0
 40
0.45
  0
HATCH
  5
587
100
AcDbEntity
  8
PART_HOLES_LAYER_TOP
100
AcDbHatch
 10
0.0
 20
0.0
 30
0.0
210
0.0
220
0.0
230
1.0
  2
SOLID
 70
         1
 71
         1
 91
        1
 92
        1
 93
        1
 72
         2
 10
55.850000000000001
 20
89.25
 40
0.45
 50
0.0
 51
360.0
 73
         1
 97
        1
330
586
 75
         0
 76
         1
 98
        1
 10
0.0
 20
0.0
  0
CIRCLE
  5
588
100
AcDbEntity
  8
PART_HOLES_LAYER_TOP
100
AcDbCircle
 10
53.85
 20
86.63
 30
0.0
 40
0.45
  0
HATCH
  5
589
100
AcDbEntity
  8
PART_HOLES_LAYER_TOP
100
AcDbHatch
 10
0.0
 20
0.0
 30
0.0
210
0.0
220
0.0
230
1.0
  2
SOLID
 70
         1
 71
         1
 91
        1
 92
        1
 93
        1
 72
         2
 10
53.850000000000001
 20
86.629999999999995
 40
0.45
 50
0.0
 51
360.0
 73
         1
 97
        1
330
588
 75
         0
 76
         1
 98
        1
 10
0.0
 20
0.0
  0
CIRCLE
  5
58A
100
AcDbEntity
  8
PART_HOLES_LAYER_TOP
100
AcDbCircle
 10
55.85
 20
86.63
 30
0.0
 40
0.45
  0
HATCH
  5
58B
100
AcDbEntity
  8
PART_HOLES_LAYER_TOP
100
AcDbHatch
 10
0.0
 20
0.0
 30
0.0
210
0.0
220
0.0
230
1.0
  2
SOLID
 70
         1
 71
         1
 91
        1
 92
        1
 93
        1
 72
         2
 10
55.850000000000001
 20
86.629999999999995
 40
0.45
 50
0.0
 51
360.0
 73
         1
 97
        1
330
58A
 75
         0
 76
         1
 98
        1
 10
0.0
 20
0.0
  0
CIRCLE
  5
58C
100
AcDbEntity
  8
PART_HOLES_LAYER_TOP
100
AcDbCircle
 10
51.35
 20
86.63
 30
0.0
 40
0.45
  0
HATCH
  5
58D
100
AcDbEntity
  8
PART_HOLES_LAYER_TOP
100
AcDbHatch
 10
0.0
 20
0.0
 30
0.0
210
0.0
220
0.0
230
1.0
  2
SOLID
 70
         1
 71
         1
 91
        1
 92
        1
 93
        1
 72
         2
 10
51.350000000000001
 20
86.629999999999995
 40
0.45
 50
0.0
 51
360.0
 73
         1
 97
        1
330
58C
 75
         0
 76
         1
 98
        1
 10
0.0
 20
0.0
  0
CIRCLE
  5
58E
100
AcDbEntity
  8
PART_HOLES_LAYER_TOP
100
AcDbCircle
 10
92.425
 20
80.125
 30
0.0
 40
0.45
  0
HATCH
  5
58F
100
AcDbEntity
  8
PART_HOLES_LAYER_TOP
100
AcDbHatch
 10
0.0
 20
0.0
 30
0.0
210
0.0
220
0.0
230
1.0
  2
SOLID
 70
         1
 71
         1
 91
        1
 92
        1
 93
        1
 72
         2
 10
92.424999999999997
 20
80.125
 40
0.45
 50
0.0
 51
360.0
 73
         1
 97
        1
330
58E
 75
         0
 76
         1
 98
        1
 10
0.0
 20
0.0
  0
CIRCLE
  5
590
100
AcDbEntity
  8
PART_HOLES_LAYER_TOP
100
AcDbCircle
 10
88.025
 20
80.125
 30
0.0
 40
0.45
  0
HATCH
  5
591
100
AcDbEntity
  8
PART_HOLES_LAYER_TOP
100
AcDbHatch
 10
0.0
 20
0.0
 30
0.0
210
0.0
220
0.0
230
1.0
  2
SOLID
 70
         1
 71
         1
 91
        1
 92
        1
 93
        1
 72
         2
 10
88.025000000000006
 20
80.125
 40
0.45
 50
0.0
 51
360.0
 73
         1
 97
        1
330
590
 75
         0
 76
         1
 98
        1
 10
0.0
 20
0.0
  0
CIRCLE
  5
592
100
AcDbEntity
  8
PART_HOLES_LAYER_TOP
100
AcDbCircle
 10
-6.75
 20
152.3
 30
0.0
 40
0.45
  0
HATCH
  5
593
100
AcDbEntity
  8
PART_HOLES_LAYER_TOP
100
AcDbHatch
 10
0.0
 20
0.0
 30
0.0
210
0.0
220
0.0
230
1.0
  2
SOLID
 70
         1
 71
         1
 91
        1
 92
        1
 93
        1
 72
         2
 10
-6.75
 20
152.30000000000001
 40
0.45
 50
0.0
 51
360.0
 73
         1
 97
        1
330
592
 75
         0
 76
         1
 98
        1
 10
0.0
 20
0.0
  0
CIRCLE
  5
594
100
AcDbEntity
  8
PART_HOLES_LAYER_TOP
100
AcDbCircle
 10
-6.75
 20
154.84
 30
0.0
 40
0.45
  0
HATCH
  5
595
100
AcDbEntity
  8
PART_HOLES_LAYER_TOP
100
AcDbHatch
 10
0.0
 20
0.0
 30
0.0
210
0.0
220
0.0
230
1.0
  2
SOLID
 70
         1
 71
         1
 91
        1
 92
        1
 93
        1
 72
         2
 10
-6.75
 20
154.84
 40
0.45
 50
0.0
 51
360.0
 73
         1
 97
        1
330
594
 75
         0
 76
         1
 98
        1
 10
0.0
 20
0.0
  0
CIRCLE
  5
596
100
AcDbEntity
  8
PART_HOLES_LAYER_TOP
100
AcDbCircle
 10
67.650001
 20
107.120001
 30
0.0
 40
0.45
  0
HATCH
  5
597
100
AcDbEntity
  8
PART_HOLES_LAYER_TOP
100
AcDbHatch
 10
0.0
 20
0.0
 30
0.0
210
0.0
220
0.0
230
1.0
  2
SOLID
 70
         1
 71
         1
 91
        1
 92
        1
 93
        1
 72
         2
 10
67.650001000000003
 20
107.120001
 40
0.45
 50
0.0
 51
360.0
 73
         1
 97
        1
330
596
 75
         0
 76
         1
 98
        1
 10
0.0
 20
0.0
  0
CIRCLE
  5
598
100
AcDbEntity
  8
PART_HOLES_LAYER_TOP
100
AcDbCircle
 10
67.650001
 20
104.579999
 30
0.0
 40
0.45
  0
HATCH
  5
599
100
AcDbEntity
  8
PART_HOLES_LAYER_TOP
100
AcDbHatch
 10
0.0
 20
0.0
 30
0.0
210
0.0
220
0.0
230
1.0
  2
SOLID
 70
         1
 71
         1
 91
        1
 92
        1
 93
        1
 72
         2
 10
67.650001000000003
 20
104.579999
 40
0.45
 50
0.0
 51
360.0
 73
         1
 97
        1
330
598
 75
         0
 76
         1
 98
        1
 10
0.0
 20
0.0
  0
CIRCLE
  5
59A
100
AcDbEntity
  8
PART_HOLES_LAYER_TOP
100
AcDbCircle
 10
19.3
 20
151.35
 30
0.0
 40
0.45
  0
HATCH
  5
59B
100
AcDbEntity
  8
PART_HOLES_LAYER_TOP
100
AcDbHatch
 10
0.0
 20
0.0
 30
0.0
210
0.0
220
0.0
230
1.0
  2
SOLID
 70
         1
 71
         1
 91
        1
 92
        1
 93
        1
 72
         2
 10
19.300000000000001
 20
151.34999999999999
 40
0.45
 50
0.0
 51
360.0
 73
         1
 97
        1
330
59A
 75
         0
 76
         1
 98
        1
 10
0.0
 20
0.0
  0
CIRCLE
  5
59C
100
AcDbEntity
  8
PART_HOLES_LAYER_TOP
100
AcDbCircle
 10
19.3
 20
153.89
 30
0.0
 40
0.45
  0
HATCH
  5
59D
100
AcDbEntity
  8
PART_HOLES_LAYER_TOP
100
AcDbHatch
 10
0.0
 20
0.0
 30
0.0
210
0.0
220
0.0
230
1.0
  2
SOLID
 70
         1
 71
         1
 91
        1
 92
        1
 93
        1
 72
         2
 10
19.300000000000001
 20
153.88999999999999
 40
0.45
 50
0.0
 51
360.0
 73
         1
 97
        1
330
59C
 75
         0
 76
         1
 98
        1
 10
0.0
 20
0.0
  0
CIRCLE
  5
59E
100
AcDbEntity
  8
PART_HOLES_LAYER_TOP
100
AcDbCircle
 10
1.9
 20
132.15
 30
0.0
 40
0.45
  0
HATCH
  5
59F
100
AcDbEntity
  8
PART_HOLES_LAYER_TOP
100
AcDbHatch
 10
0.0
 20
0.0
 30
0.0
210
0.0
220
0.0
230
1.0
  2
SOLID
 70
         1
 71
         1
 91
        1
 92
        1
 93
        1
 72
         2
 10
1.8999999999999999
 20
132.15000000000001
 40
0.45
 50
0.0
 51
360.0
 73
         1
 97
        1
330
59E
 75
         0
 76
         1
 98
        1
 10
0.0
 20
0.0
  0
CIRCLE
  5
5A0
100
AcDbEntity
  8
PART_HOLES_LAYER_TOP
100
AcDbCircle
 10
6.98
 20
132.15
 30
0.0
 40
0.45
  0
HATCH
  5
5A1
100
AcDbEntity
  8
PART_HOLES_LAYER_TOP
100
AcDbHatch
 10
0.0
 20
0.0
 30
0.0
210
0.0
220
0.0
230
1.0
  2
SOLID
 70
         1
 71
         1
 91
        1
 92
        1
 93
        1
 72
         2
 10
6.9800000000000004
 20
132.15000000000001
 40
0.45
 50
0.0
 51
360.0
 73
         1
 97
        1
330
5A0
 75
         0
 76
         1
 98
        1
 10
0.0
 20
0.0
  0
CIRCLE
  5
5A2
100
AcDbEntity
  8
PART_HOLES_LAYER_TOP
100
AcDbCircle
 10
4.44
 20
132.15
 30
0.0
 40
0.45
  0
HATCH
  5
5A3
100
AcDbEntity
  8
PART_HOLES_LAYER_TOP
100
AcDbHatch
 10
0.0
 20
0.0
 30
0.0
210
0.0
220
0.0
230
1.0
  2
SOLID
 70
         1
 71
         1
 91
        1
 92
        1
 93
        1
 72
         2
 10
4.4400000000000004
 20
132.15000000000001
 40
0.45
 50
0.0
 51
360.0
 73
         1
 97
        1
330
5A2
 75
         0
 76
         1
 98
        1
 10
0.0
 20
0.0
  0
CIRCLE
  5
5A4
100
AcDbEntity
  8
PART_HOLES_LAYER_TOP
100
AcDbCircle
 10
3.7
 20
169.6
 30
0.0
 40
0.95
  0
HATCH
  5
5A5
100
AcDbEntity
  8
PART_HOLES_LAYER_TOP
100
AcDbHatch
 10
0.0
 20
0.0
 30
0.0
210
0.0
220
0.0
230
1.0
  2
SOLID
 70
         1
 71
         1
 91
        1
 92
        1
 93
        1
 72
         2
 10
3.7000000000000002
 20
169.59999999999999
 40
0.95
 50
0.0
 51
360.0
 73
         1
 97
        1
330
5A4
 75
         0
 76
         1
 98
        1
 10
0.0
 20
0.0
  0
CIRCLE
  5
5A6
100
AcDbEntity
  8
PART_HOLES_LAYER_TOP
100
AcDbCircle
 10
5.8
 20
161.5
 30
0.0
 40
0.95
  0
HATCH
  5
5A7
100
AcDbEntity
  8
PART_HOLES_LAYER_TOP
100
AcDbHatch
 10
0.0
 20
0.0
 30
0.0
210
0.0
220
0.0
230
1.0
  2
SOLID
 70
         1
 71
         1
 91
        1
 92
        1
 93
        1
 72
         2
 10
5.7999999999999998
 20
161.5
 40
0.95
 50
0.0
 51
360.0
 73
         1
 97
        1
330
5A6
 75
         0
 76
         1
 98
        1
 10
0.0
 20
0.0
  0
CIRCLE
  5
5A8
100
AcDbEntity
  8
PART_HOLES_LAYER_TOP
100
AcDbCircle
 10
5.8
 20
167.1
 30
0.0
 40
0.95
  0
HATCH
  5
5A9
100
AcDbEntity
  8
PART_HOLES_LAYER_TOP
100
AcDbHatch
 10
0.0
 20
0.0
 30
0.0
210
0.0
220
0.0
230
1.0
  2
SOLID
 70
         1
 71
         1
 91
        1
 92
        1
 93
        1
 72
         2
 10
5.7999999999999998
 20
167.09999999999999
 40
0.95
 50
0.0
 51
360.0
 73
         1
 97
        1
330
5A8
 75
         0
 76
         1
 98
        1
 10
0.0
 20
0.0
  0
CIRCLE
  5
5AA
100
AcDbEntity
  8
PART_HOLES_LAYER_TOP
100
AcDbCircle
 10
39.55
 20
101.81
 30
0.0
 40
0.45
  0
HATCH
  5
5AB
100
AcDbEntity
  8
PART_HOLES_LAYER_TOP
100
AcDbHatch
 10
0.0
 20
0.0
 30
0.0
210
0.0
220
0.0
230
1.0
  2
SOLID
 70
         1
 71
         1
 91
        1
 92
        1
 93
        1
 72
         2
 10
39.549999999999997
 20
101.81
 40
0.45
 50
0.0
 51
360.0
 73
         1
 97
        1
330
5AA
 75
         0
 76
         1
 98
        1
 10
0.0
 20
0.0
  0
CIRCLE
  5
5AC
100
AcDbEntity
  8
PART_HOLES_LAYER_TOP
100
AcDbCircle
 10
39.55
 20
106.69
 30
0.0
 40
0.45
  0
HATCH
  5
5AD
100
AcDbEntity
  8
PART_HOLES_LAYER_TOP
100
AcDbHatch
 10
0.0
 20
0.0
 30
0.0
210
0.0
220
0.0
230
1.0
  2
SOLID
 70
         1
 71
         1
 91
        1
 92
        1
 93
        1
 72
         2
 10
39.549999999999997
 20
106.69
 40
0.45
 50
0.0
 51
360.0
 73
         1
 97
        1
330
5AC
 75
         0
 76
         1
 98
        1
 10
0.0
 20
0.0
  0
CIRCLE
  5
5AE
100
AcDbEntity
  8
PART_HOLES_LAYER_TOP
100
AcDbCircle
 10
64.0
 20
99.4
 30
0.0
 40
0.35
  0
HATCH
  5
5AF
100
AcDbEntity
  8
PART_HOLES_LAYER_TOP
100
AcDbHatch
 10
0.0
 20
0.0
 30
0.0
210
0.0
220
0.0
230
1.0
  2
SOLID
 70
         1
 71
         1
 91
        1
 92
        1
 93
        1
 72
         2
 10
64.0
 20
99.400000000000006
 40
0.35
 50
0.0
 51
360.0
 73
         1
 97
        1
330
5AE
 75
         0
 76
         1
 98
        1
 10
0.0
 20
0.0
  0
CIRCLE
  5
5B0
100
AcDbEntity
  8
PART_HOLES_LAYER_TOP
100
AcDbCircle
 10
67.81
 20
99.4
 30
0.0
 40
0.35
  0
HATCH
  5
5B1
100
AcDbEntity
  8
PART_HOLES_LAYER_TOP
100
AcDbHatch
 10
0.0
 20
0.0
 30
0.0
210
0.0
220
0.0
230
1.0
  2
SOLID
 70
         1
 71
         1
 91
        1
 92
        1
 93
        1
 72
         2
 10
67.810000000000002
 20
99.400000000000006
 40
0.35
 50
0.0
 51
360.0
 73
         1
 97
        1
330
5B0
 75
         0
 76
         1
 98
        1
 10
0.0
 20
0.0
  0
CIRCLE
  5
5B2
100
AcDbEntity
  8
PART_HOLES_LAYER_TOP
100
AcDbCircle
 10
60.19
 20
99.4
 30
0.0
 40
0.35
  0
HATCH
  5
5B3
100
AcDbEntity
  8
PART_HOLES_LAYER_TOP
100
AcDbHatch
 10
0.0
 20
0.0
 30
0.0
210
0.0
220
0.0
230
1.0
  2
SOLID
 70
         1
 71
         1
 91
        1
 92
        1
 93
        1
 72
         2
 10
60.189999999999998
 20
99.400000000000006
 40
0.35
 50
0.0
 51
360.0
 73
         1
 97
        1
330
5B2
 75
         0
 76
         1
 98
        1
 10
0.0
 20
0.0
  0
CIRCLE
  5
5B4
100
AcDbEntity
  8
PART_HOLES_LAYER_TOP
100
AcDbCircle
 10
65.268972
 20
100.402017
 30
0.0
 40
0.35
  0
HATCH
  5
5B5
100
AcDbEntity
  8
PART_HOLES_LAYER_TOP
100
AcDbHatch
 10
0.0
 20
0.0
 30
0.0
210
0.0
220
0.0
230
1.0
  2
SOLID
 70
         1
 71
         1
 91
        1
 92
        1
 93
        1
 72
         2
 10
65.268972000000005
 20
100.402017
 40
0.35
 50
0.0
 51
360.0
 73
         1
 97
        1
330
5B4
 75
         0
 76
         1
 98
        1
 10
0.0
 20
0.0
  0
CIRCLE
  5
5B6
100
AcDbEntity
  8
PART_HOLES_LAYER_TOP
100
AcDbCircle
 10
66.538972
 20
100.402017
 30
0.0
 40
0.35
  0
HATCH
  5
5B7
100
AcDbEntity
  8
PART_HOLES_LAYER_TOP
100
AcDbHatch
 10
0.0
 20
0.0
 30
0.0
210
0.0
220
0.0
230
1.0
  2
SOLID
 70
         1
 71
         1
 91
        1
 92
        1
 93
        1
 72
         2
 10
66.538972000000001
 20
100.402017
 40
0.35
 50
0.0
 51
360.0
 73
         1
 97
        1
330
5B6
 75
         0
 76
         1
 98
        1
 10
0.0
 20
0.0
  0
CIRCLE
  5
5B8
100
AcDbEntity
  8
PART_HOLES_LAYER_TOP
100
AcDbCircle
 10
61.458972
 20
100.402017
 30
0.0
 40
0.35
  0
HATCH
  5
5B9
100
AcDbEntity
  8
PART_HOLES_LAYER_TOP
100
AcDbHatch
 10
0.0
 20
0.0
 30
0.0
210
0.0
220
0.0
230
1.0
  2
SOLID
 70
         1
 71
         1
 91
        1
 92
        1
 93
        1
 72
         2
 10
61.458972000000003
 20
100.402017
 40
0.35
 50
0.0
 51
360.0
 73
         1
 97
        1
330
5B8
 75
         0
 76
         1
 98
        1
 10
0.0
 20
0.0
  0
CIRCLE
  5
5BA
100
AcDbEntity
  8
PART_HOLES_LAYER_TOP
100
AcDbCircle
 10
62.728972
 20
100.402017
 30
0.0
 40
0.35
  0
HATCH
  5
5BB
100
AcDbEntity
  8
PART_HOLES_LAYER_TOP
100
AcDbHatch
 10
0.0
 20
0.0
 30
0.0
210
0.0
220
0.0
230
1.0
  2
SOLID
 70
         1
 71
         1
 91
        1
 92
        1
 93
        1
 72
         2
 10
62.728971999999999
 20
100.402017
 40
0.35
 50
0.0
 51
360.0
 73
         1
 97
        1
330
5BA
 75
         0
 76
         1
 98
        1
 10
0.0
 20
0.0
  0
CIRCLE
  5
5BC
100
AcDbEntity
  8
PART_HOLES_LAYER_TOP
100
AcDbCircle
 10
2.75
 20
109.55
 30
0.0
 40
0.45
  0
HATCH
  5
5BD
100
AcDbEntity
  8
PART_HOLES_LAYER_TOP
100
AcDbHatch
 10
0.0
 20
0.0
 30
0.0
210
0.0
220
0.0
230
1.0
  2
SOLID
 70
         1
 71
         1
 91
        1
 92
        1
 93
        1
 72
         2
 10
2.75
 20
109.55
 40
0.45
 50
0.0
 51
360.0
 73
         1
 97
        1
330
5BC
 75
         0
 76
         1
 98
        1
 10
0.0
 20
0.0
  0
CIRCLE
  5
5BE
100
AcDbEntity
  8
PART_HOLES_LAYER_TOP
100
AcDbCircle
 10
5.29
 20
109.55
 30
0.0
 40
0.45
  0
HATCH
  5
5BF
100
AcDbEntity
  8
PART_HOLES_LAYER_TOP
100
AcDbHatch
 10
0.0
 20
0.0
 30
0.0
210
0.0
220
0.0
230
1.0
  2
SOLID
 70
         1
 71
         1
 91
        1
 92
        1
 93
        1
 72
         2
 10
5.29
 20
109.55
 40
0.45
 50
0.0
 51
360.0
 73
         1
 97
        1
330
5BE
 75
         0
 76
         1
 98
        1
 10
0.0
 20
0.0
  0
CIRCLE
  5
5C0
100
AcDbEntity
  8
PART_HOLES_LAYER_TOP
100
AcDbCircle
 10
2.75
 20
104.45
 30
0.0
 40
0.45
  0
HATCH
  5
5C1
100
AcDbEntity
  8
PART_HOLES_LAYER_TOP
100
AcDbHatch
 10
0.0
 20
0.0
 30
0.0
210
0.0
220
0.0
230
1.0
  2
SOLID
 70
         1
 71
         1
 91
        1
 92
        1
 93
        1
 72
         2
 10
2.75
 20
104.45
 40
0.45
 50
0.0
 51
360.0
 73
         1
 97
        1
330
5C0
 75
         0
 76
         1
 98
        1
 10
0.0
 20
0.0
  0
CIRCLE
  5
5C2
100
AcDbEntity
  8
PART_HOLES_LAYER_TOP
100
AcDbCircle
 10
5.29
 20
104.45
 30
0.0
 40
0.45
  0
HATCH
  5
5C3
100
AcDbEntity
  8
PART_HOLES_LAYER_TOP
100
AcDbHatch
 10
0.0
 20
0.0
 30
0.0
210
0.0
220
0.0
230
1.0
  2
SOLID
 70
         1
 71
         1
 91
        1
 92
        1
 93
        1
 72
         2
 10
5.29
 20
104.45
 40
0.45
 50
0.0
 51
360.0
 73
         1
 97
        1
330
5C2
 75
         0
 76
         1
 98
        1
 10
0.0
 20
0.0
  0
CIRCLE
  5
5C4
100
AcDbEntity
  8
PART_HOLES_LAYER_TOP
100
AcDbCircle
 10
19.3
 20
148.79
 30
0.0
 40
0.45
  0
HATCH
  5
5C5
100
AcDbEntity
  8
PART_HOLES_LAYER_TOP
100
AcDbHatch
 10
0.0
 20
0.0
 30
0.0
210
0.0
220
0.0
230
1.0
  2
SOLID
 70
         1
 71
         1
 91
        1
 92
        1
 93
        1
 72
         2
 10
19.300000000000001
 20
148.78999999999999
 40
0.45
 50
0.0
 51
360.0
 73
         1
 97
        1
330
5C4
 75
         0
 76
         1
 98
        1
 10
0.0
 20
0.0
  0
CIRCLE
  5
5C6
100
AcDbEntity
  8
PART_HOLES_LAYER_TOP
100
AcDbCircle
 10
19.3
 20
146.25
 30
0.0
 40
0.45
  0
HATCH
  5
5C7
100
AcDbEntity
  8
PART_HOLES_LAYER_TOP
100
AcDbHatch
 10
0.0
 20
0.0
 30
0.0
210
0.0
220
0.0
230
1.0
  2
SOLID
 70
         1
 71
         1
 91
        1
 92
        1
 93
        1
 72
         2
 10
19.300000000000001
 20
146.25
 40
0.45
 50
0.0
 51
360.0
 73
         1
 97
        1
330
5C6
 75
         0
 76
         1
 98
        1
 10
0.0
 20
0.0
  0
CIRCLE
  5
5C8
100
AcDbEntity
  8
PART_HOLES_LAYER_TOP
100
AcDbCircle
 10
86.65
 20
95.55
 30
0.0
 40
0.45
  0
HATCH
  5
5C9
100
AcDbEntity
  8
PART_HOLES_LAYER_TOP
100
AcDbHatch
 10
0.0
 20
0.0
 30
0.0
210
0.0
220
0.0
230
1.0
  2
SOLID
 70
         1
 71
         1
 91
        1
 92
        1
 93
        1
 72
         2
 10
86.650000000000006
 20
95.549999999999997
 40
0.45
 50
0.0
 51
360.0
 73
         1
 97
        1
330
5C8
 75
         0
 76
         1
 98
        1
 10
0.0
 20
0.0
  0
CIRCLE
  5
5CA
100
AcDbEntity
  8
PART_HOLES_LAYER_TOP
100
AcDbCircle
 10
86.65
 20
87.93
 30
0.0
 40
0.4
  0
HATCH
  5
5CB
100
AcDbEntity
  8
PART_HOLES_LAYER_TOP
100
AcDbHatch
 10
0.0
 20
0.0
 30
0.0
210
0.0
220
0.0
230
1.0
  2
SOLID
 70
         1
 71
         1
 91
        1
 92
        1
 93
        1
 72
         2
 10
86.650000000000006
 20
87.930000000000007
 40
0.4
 50
0.0
 51
360.0
 73
         1
 97
        1
330
5CA
 75
         0
 76
         1
 98
        1
 10
0.0
 20
0.0
  0
CIRCLE
  5
5CC
100
AcDbEntity
  8
PART_HOLES_LAYER_TOP
100
AcDbCircle
 10
86.65
 20
93.01
 30
0.0
 40
0.45
  0
HATCH
  5
5CD
100
AcDbEntity
  8
PART_HOLES_LAYER_TOP
100
AcDbHatch
 10
0.0
 20
0.0
 30
0.0
210
0.0
220
0.0
230
1.0
  2
SOLID
 70
         1
 71
         1
 91
        1
 92
        1
 93
        1
 72
         2
 10
86.650000000000006
 20
93.010000000000005
 40
0.45
 50
0.0
 51
360.0
 73
         1
 97
        1
330
5CC
 75
         0
 76
         1
 98
        1
 10
0.0
 20
0.0
  0
CIRCLE
  5
5CE
100
AcDbEntity
  8
PART_HOLES_LAYER_TOP
100
AcDbCircle
 10
86.65
 20
90.47
 30
0.0
 40
0.45
  0
HATCH
  5
5CF
100
AcDbEntity
  8
PART_HOLES_LAYER_TOP
100
AcDbHatch
 10
0.0
 20
0.0
 30
0.0
210
0.0
220
0.0
230
1.0
  2
SOLID
 70
         1
 71
         1
 91
        1
 92
        1
 93
        1
 72
         2
 10
86.650000000000006
 20
90.469999999999999
 40
0.45
 50
0.0
 51
360.0
 73
         1
 97
        1
330
5CE
 75
         0
 76
         1
 98
        1
 10
0.0
 20
0.0
  0
CIRCLE
  5
5D0
100
AcDbEntity
  8
PART_HOLES_LAYER_TOP
100
AcDbCircle
 10
98.05
 20
157.35
 30
0.0
 40
0.45
  0
HATCH
  5
5D1
100
AcDbEntity
  8
PART_HOLES_LAYER_TOP
100
AcDbHatch
 10
0.0
 20
0.0
 30
0.0
210
0.0
220
0.0
230
1.0
  2
SOLID
 70
         1
 71
         1
 91
        1
 92
        1
 93
        1
 72
         2
 10
98.049999999999997
 20
157.34999999999999
 40
0.45
 50
0.0
 51
360.0
 73
         1
 97
        1
330
5D0
 75
         0
 76
         1
 98
        1
 10
0.0
 20
0.0
  0
CIRCLE
  5
5D2
100
AcDbEntity
  8
PART_HOLES_LAYER_TOP
100
AcDbCircle
 10
100.59
 20
157.35
 30
0.0
 40
0.45
  0
HATCH
  5
5D3
100
AcDbEntity
  8
PART_HOLES_LAYER_TOP
100
AcDbHatch
 10
0.0
 20
0.0
 30
0.0
210
0.0
220
0.0
230
1.0
  2
SOLID
 70
         1
 71
         1
 91
        1
 92
        1
 93
        1
 72
         2
 10
100.59
 20
157.34999999999999
 40
0.45
 50
0.0
 51
360.0
 73
         1
 97
        1
330
5D2
 75
         0
 76
         1
 98
        1
 10
0.0
 20
0.0
  0
CIRCLE
  5
5D4
100
AcDbEntity
  8
PART_HOLES_LAYER_TOP
100
AcDbCircle
 10
100.59
 20
134.49
 30
0.0
 40
0.45
  0
HATCH
  5
5D5
100
AcDbEntity
  8
PART_HOLES_LAYER_TOP
100
AcDbHatch
 10
0.0
 20
0.0
 30
0.0
210
0.0
220
0.0
230
1.0
  2
SOLID
 70
         1
 71
         1
 91
        1
 92
        1
 93
        1
 72
         2
 10
100.59
 20
134.49000000000001
 40
0.45
 50
0.0
 51
360.0
 73
         1
 97
        1
330
5D4
 75
         0
 76
         1
 98
        1
 10
0.0
 20
0.0
  0
CIRCLE
  5
5D6
100
AcDbEntity
  8
PART_HOLES_LAYER_TOP
100
AcDbCircle
 10
100.59
 20
137.03
 30
0.0
 40
0.45
  0
HATCH
  5
5D7
100
AcDbEntity
  8
PART_HOLES_LAYER_TOP
100
AcDbHatch
 10
0.0
 20
0.0
 30
0.0
210
0.0
220
0.0
230
1.0
  2
SOLID
 70
         1
 71
         1
 91
        1
 92
        1
 93
        1
 72
         2
 10
100.59
 20
137.03
 40
0.45
 50
0.0
 51
360.0
 73
         1
 97
        1
330
5D6
 75
         0
 76
         1
 98
        1
 10
0.0
 20
0.0
  0
CIRCLE
  5
5D8
100
AcDbEntity
  8
PART_HOLES_LAYER_TOP
100
AcDbCircle
 10
98.05
 20
142.11
 30
0.0
 40
0.45
  0
HATCH
  5
5D9
100
AcDbEntity
  8
PART_HOLES_LAYER_TOP
100
AcDbHatch
 10
0.0
 20
0.0
 30
0.0
210
0.0
220
0.0
230
1.0
  2
SOLID
 70
         1
 71
         1
 91
        1
 92
        1
 93
        1
 72
         2
 10
98.049999999999997
 20
142.11000000000001
 40
0.45
 50
0.0
 51
360.0
 73
         1
 97
        1
330
5D8
 75
         0
 76
         1
 98
        1
 10
0.0
 20
0.0
  0
CIRCLE
  5
5DA
100
AcDbEntity
  8
PART_HOLES_LAYER_TOP
100
AcDbCircle
 10
100.59
 20
142.11
 30
0.0
 40
0.45
  0
HATCH
  5
5DB
100
AcDbEntity
  8
PART_HOLES_LAYER_TOP
100
AcDbHatch
 10
0.0
 20
0.0
 30
0.0
210
0.0
220
0.0
230
1.0
  2
SOLID
 70
         1
 71
         1
 91
        1
 92
        1
 93
        1
 72
         2
 10
100.59
 20
142.11000000000001
 40
0.45
 50
0.0
 51
360.0
 73
         1
 97
        1
330
5DA
 75
         0
 76
         1
 98
        1
 10
0.0
 20
0.0
  0
CIRCLE
  5
5DC
100
AcDbEntity
  8
PART_HOLES_LAYER_TOP
100
AcDbCircle
 10
98.05
 20
147.19
 30
0.0
 40
0.45
  0
HATCH
  5
5DD
100
AcDbEntity
  8
PART_HOLES_LAYER_TOP
100
AcDbHatch
 10
0.0
 20
0.0
 30
0.0
210
0.0
220
0.0
230
1.0
  2
SOLID
 70
         1
 71
         1
 91
        1
 92
        1
 93
        1
 72
         2
 10
98.049999999999997
 20
147.19
 40
0.45
 50
0.0
 51
360.0
 73
         1
 97
        1
330
5DC
 75
         0
 76
         1
 98
        1
 10
0.0
 20
0.0
  0
CIRCLE
  5
5DE
100
AcDbEntity
  8
PART_HOLES_LAYER_TOP
100
AcDbCircle
 10
100.59
 20
147.19
 30
0.0
 40
0.45
  0
HATCH
  5
5DF
100
AcDbEntity
  8
PART_HOLES_LAYER_TOP
100
AcDbHatch
 10
0.0
 20
0.0
 30
0.0
210
0.0
220
0.0
230
1.0
  2
SOLID
 70
         1
 71
         1
 91
        1
 92
        1
 93
        1
 72
         2
 10
100.59
 20
147.19
 40
0.45
 50
0.0
 51
360.0
 73
         1
 97
        1
330
5DE
 75
         0
 76
         1
 98
        1
 10
0.0
 20
0.0
  0
CIRCLE
  5
5E0
100
AcDbEntity
  8
PART_HOLES_LAYER_TOP
100
AcDbCircle
 10
98.05
 20
154.81
 30
0.0
 40
0.45
  0
HATCH
  5
5E1
100
AcDbEntity
  8
PART_HOLES_LAYER_TOP
100
AcDbHatch
 10
0.0
 20
0.0
 30
0.0
210
0.0
220
0.0
230
1.0
  2
SOLID
 70
         1
 71
         1
 91
        1
 92
        1
 93
        1
 72
         2
 10
98.049999999999997
 20
154.81
 40
0.45
 50
0.0
 51
360.0
 73
         1
 97
        1
330
5E0
 75
         0
 76
         1
 98
        1
 10
0.0
 20
0.0
  0
CIRCLE
  5
5E2
100
AcDbEntity
  8
PART_HOLES_LAYER_TOP
100
AcDbCircle
 10
100.59
 20
154.81
 30
0.0
 40
0.45
  0
HATCH
  5
5E3
100
AcDbEntity
  8
PART_HOLES_LAYER_TOP
100
AcDbHatch
 10
0.0
 20
0.0
 30
0.0
210
0.0
220
0.0
230
1.0
  2
SOLID
 70
         1
 71
         1
 91
        1
 92
        1
 93
        1
 72
         2
 10
100.59
 20
154.81
 40
0.45
 50
0.0
 51
360.0
 73
         1
 97
        1
330
5E2
 75
         0
 76
         1
 98
        1
 10
0.0
 20
0.0
  0
CIRCLE
  5
5E4
100
AcDbEntity
  8
PART_HOLES_LAYER_TOP
100
AcDbCircle
 10
98.05
 20
152.27
 30
0.0
 40
0.45
  0
HATCH
  5
5E5
100
AcDbEntity
  8
PART_HOLES_LAYER_TOP
100
AcDbHatch
 10
0.0
 20
0.0
 30
0.0
210
0.0
220
0.0
230
1.0
  2
SOLID
 70
         1
 71
         1
 91
        1
 92
        1
 93
        1
 72
         2
 10
98.049999999999997
 20
152.27000000000001
 40
0.45
 50
0.0
 51
360.0
 73
         1
 97
        1
330
5E4
 75
         0
 76
         1
 98
        1
 10
0.0
 20
0.0
  0
CIRCLE
  5
5E6
100
AcDbEntity
  8
PART_HOLES_LAYER_TOP
100
AcDbCircle
 10
100.59
 20
152.27
 30
0.0
 40
0.45
  0
HATCH
  5
5E7
100
AcDbEntity
  8
PART_HOLES_LAYER_TOP
100
AcDbHatch
 10
0.0
 20
0.0
 30
0.0
210
0.0
220
0.0
230
1.0
  2
SOLID
 70
         1
 71
         1
 91
        1
 92
        1
 93
        1
 72
         2
 10
100.59
 20
152.27000000000001
 40
0.45
 50
0.0
 51
360.0
 73
         1
 97
        1
330
5E6
 75
         0
 76
         1
 98
        1
 10
0.0
 20
0.0
  0
CIRCLE
  5
5E8
100
AcDbEntity
  8
PART_HOLES_LAYER_TOP
100
AcDbCircle
 10
98.05
 20
149.73
 30
0.0
 40
0.45
  0
HATCH
  5
5E9
100
AcDbEntity
  8
PART_HOLES_LAYER_TOP
100
AcDbHatch
 10
0.0
 20
0.0
 30
0.0
210
0.0
220
0.0
230
1.0
  2
SOLID
 70
         1
 71
         1
 91
        1
 92
        1
 93
        1
 72
         2
 10
98.049999999999997
 20
149.72999999999999
 40
0.45
 50
0.0
 51
360.0
 73
         1
 97
        1
330
5E8
 75
         0
 76
         1
 98
        1
 10
0.0
 20
0.0
  0
CIRCLE
  5
5EA
100
AcDbEntity
  8
PART_HOLES_LAYER_TOP
100
AcDbCircle
 10
100.59
 20
149.73
 30
0.0
 40
0.45
  0
HATCH
  5
5EB
100
AcDbEntity
  8
PART_HOLES_LAYER_TOP
100
AcDbHatch
 10
0.0
 20
0.0
 30
0.0
210
0.0
220
0.0
230
1.0
  2
SOLID
 70
         1
 71
         1
 91
        1
 92
        1
 93
        1
 72
         2
 10
100.59
 20
149.72999999999999
 40
0.45
 50
0.0
 51
360.0
 73
         1
 97
        1
330
5EA
 75
         0
 76
         1
 98
        1
 10
0.0
 20
0.0
  0
CIRCLE
  5
5EC
100
AcDbEntity
  8
PART_HOLES_LAYER_TOP
100
AcDbCircle
 10
98.05
 20
144.65
 30
0.0
 40
0.45
  0
HATCH
  5
5ED
100
AcDbEntity
  8
PART_HOLES_LAYER_TOP
100
AcDbHatch
 10
0.0
 20
0.0
 30
0.0
210
0.0
220
0.0
230
1.0
  2
SOLID
 70
         1
 71
         1
 91
        1
 92
        1
 93
        1
 72
         2
 10
98.049999999999997
 20
144.65000000000001
 40
0.45
 50
0.0
 51
360.0
 73
         1
 97
        1
330
5EC
 75
         0
 76
         1
 98
        1
 10
0.0
 20
0.0
  0
CIRCLE
  5
5EE
100
AcDbEntity
  8
PART_HOLES_LAYER_TOP
100
AcDbCircle
 10
100.59
 20
144.65
 30
0.0
 40
0.45
  0
HATCH
  5
5EF
100
AcDbEntity
  8
PART_HOLES_LAYER_TOP
100
AcDbHatch
 10
0.0
 20
0.0
 30
0.0
210
0.0
220
0.0
230
1.0
  2
SOLID
 70
         1
 71
         1
 91
        1
 92
        1
 93
        1
 72
         2
 10
100.59
 20
144.65000000000001
 40
0.45
 50
0.0
 51
360.0
 73
         1
 97
        1
330
5EE
 75
         0
 76
         1
 98
        1
 10
0.0
 20
0.0
  0
CIRCLE
  5
5F0
100
AcDbEntity
  8
PART_HOLES_LAYER_TOP
100
AcDbCircle
 10
98.05
 20
137.03
 30
0.0
 40
0.45
  0
HATCH
  5
5F1
100
AcDbEntity
  8
PART_HOLES_LAYER_TOP
100
AcDbHatch
 10
0.0
 20
0.0
 30
0.0
210
0.0
220
0.0
230
1.0
  2
SOLID
 70
         1
 71
         1
 91
        1
 92
        1
 93
        1
 72
         2
 10
98.049999999999997
 20
137.03
 40
0.45
 50
0.0
 51
360.0
 73
         1
 97
        1
330
5F0
 75
         0
 76
         1
 98
        1
 10
0.0
 20
0.0
  0
CIRCLE
  5
5F2
100
AcDbEntity
  8
PART_HOLES_LAYER_TOP
100
AcDbCircle
 10
98.05
 20
139.57
 30
0.0
 40
0.45
  0
HATCH
  5
5F3
100
AcDbEntity
  8
PART_HOLES_LAYER_TOP
100
AcDbHatch
 10
0.0
 20
0.0
 30
0.0
210
0.0
220
0.0
230
1.0
  2
SOLID
 70
         1
 71
         1
 91
        1
 92
        1
 93
        1
 72
         2
 10
98.049999999999997
 20
139.56999999999999
 40
0.45
 50
0.0
 51
360.0
 73
         1
 97
        1
330
5F2
 75
         0
 76
         1
 98
        1
 10
0.0
 20
0.0
  0
CIRCLE
  5
5F4
100
AcDbEntity
  8
PART_HOLES_LAYER_TOP
100
AcDbCircle
 10
98.05
 20
134.49
 30
0.0
 40
0.45
  0
HATCH
  5
5F5
100
AcDbEntity
  8
PART_HOLES_LAYER_TOP
100
AcDbHatch
 10
0.0
 20
0.0
 30
0.0
210
0.0
220
0.0
230
1.0
  2
SOLID
 70
         1
 71
         1
 91
        1
 92
        1
 93
        1
 72
         2
 10
98.049999999999997
 20
134.49000000000001
 40
0.45
 50
0.0
 51
360.0
 73
         1
 97
        1
330
5F4
 75
         0
 76
         1
 98
        1
 10
0.0
 20
0.0
  0
CIRCLE
  5
5F6
100
AcDbEntity
  8
PART_HOLES_LAYER_TOP
100
AcDbCircle
 10
100.59
 20
139.57
 30
0.0
 40
0.45
  0
HATCH
  5
5F7
100
AcDbEntity
  8
PART_HOLES_LAYER_TOP
100
AcDbHatch
 10
0.0
 20
0.0
 30
0.0
210
0.0
220
0.0
230
1.0
  2
SOLID
 70
         1
 71
         1
 91
        1
 92
        1
 93
        1
 72
         2
 10
100.59
 20
139.56999999999999
 40
0.45
 50
0.0
 51
360.0
 73
         1
 97
        1
330
5F6
 75
         0
 76
         1
 98
        1
 10
0.0
 20
0.0
  0
CIRCLE
  5
5F8
100
AcDbEntity
  8
PART_HOLES_LAYER_TOP
100
AcDbCircle
 10
100.59
 20
100.99
 30
0.0
 40
0.45
  0
HATCH
  5
5F9
100
AcDbEntity
  8
PART_HOLES_LAYER_TOP
100
AcDbHatch
 10
0.0
 20
0.0
 30
0.0
210
0.0
220
0.0
230
1.0
  2
SOLID
 70
         1
 71
         1
 91
        1
 92
        1
 93
        1
 72
         2
 10
100.59
 20
100.98999999999999
 40
0.45
 50
0.0
 51
360.0
 73
         1
 97
        1
330
5F8
 75
         0
 76
         1
 98
        1
 10
0.0
 20
0.0
  0
CIRCLE
  5
5FA
100
AcDbEntity
  8
PART_HOLES_LAYER_TOP
100
AcDbCircle
 10
98.05
 20
100.99
 30
0.0
 40
0.45
  0
HATCH
  5
5FB
100
AcDbEntity
  8
PART_HOLES_LAYER_TOP
100
AcDbHatch
 10
0.0
 20
0.0
 30
0.0
210
0.0
220
0.0
230
1.0
  2
SOLID
 70
         1
 71
         1
 91
        1
 92
        1
 93
        1
 72
         2
 10
98.049999999999997
 20
100.98999999999999
 40
0.45
 50
0.0
 51
360.0
 73
         1
 97
        1
330
5FA
 75
         0
 76
         1
 98
        1
 10
0.0
 20
0.0
  0
CIRCLE
  5
5FC
100
AcDbEntity
  8
PART_HOLES_LAYER_TOP
100
AcDbCircle
 10
98.05
 20
123.85
 30
0.0
 40
0.45
  0
HATCH
  5
5FD
100
AcDbEntity
  8
PART_HOLES_LAYER_TOP
100
AcDbHatch
 10
0.0
 20
0.0
 30
0.0
210
0.0
220
0.0
230
1.0
  2
SOLID
 70
         1
 71
         1
 91
        1
 92
        1
 93
        1
 72
         2
 10
98.049999999999997
 20
123.84999999999999
 40
0.45
 50
0.0
 51
360.0
 73
         1
 97
        1
330
5FC
 75
         0
 76
         1
 98
        1
 10
0.0
 20
0.0
  0
CIRCLE
  5
5FE
100
AcDbEntity
  8
PART_HOLES_LAYER_TOP
100
AcDbCircle
 10
98.05
 20
121.31
 30
0.0
 40
0.45
  0
HATCH
  5
5FF
100
AcDbEntity
  8
PART_HOLES_LAYER_TOP
100
AcDbHatch
 10
0.0
 20
0.0
 30
0.0
210
0.0
220
0.0
230
1.0
  2
SOLID
 70
         1
 71
         1
 91
        1
 92
        1
 93
        1
 72
         2
 10
98.049999999999997
 20
121.31
 40
0.45
 50
0.0
 51
360.0
 73
         1
 97
        1
330
5FE
 75
         0
 76
         1
 98
        1
 10
0.0
 20
0.0
  0
CIRCLE
  5
600
100
AcDbEntity
  8
PART_HOLES_LAYER_TOP
100
AcDbCircle
 10
100.59
 20
111.15
 30
0.0
 40
0.45
  0
HATCH
  5
601
100
AcDbEntity
  8
PART_HOLES_LAYER_TOP
100
AcDbHatch
 10
0.0
 20
0.0
 30
0.0
210
0.0
220
0.0
230
1.0
  2
SOLID
 70
         1
 71
         1
 91
        1
 92
        1
 93
        1
 72
         2
 10
100.59
 20
111.15000000000001
 40
0.45
 50
0.0
 51
360.0
 73
         1
 97
        1
330
600
 75
         0
 76
         1
 98
        1
 10
0.0
 20
0.0
  0
CIRCLE
  5
602
100
AcDbEntity
  8
PART_HOLES_LAYER_TOP
100
AcDbCircle
 10
98.05
 20
111.15
 30
0.0
 40
0.45
  0
HATCH
  5
603
100
AcDbEntity
  8
PART_HOLES_LAYER_TOP
100
AcDbHatch
 10
0.0
 20
0.0
 30
0.0
210
0.0
220
0.0
230
1.0
  2
SOLID
 70
         1
 71
         1
 91
        1
 92
        1
 93
        1
 72
         2
 10
98.049999999999997
 20
111.15000000000001
 40
0.45
 50
0.0
 51
360.0
 73
         1
 97
        1
330
602
 75
         0
 76
         1
 98
        1
 10
0.0
 20
0.0
  0
CIRCLE
  5
604
100
AcDbEntity
  8
PART_HOLES_LAYER_TOP
100
AcDbCircle
 10
100.59
 20
103.53
 30
0.0
 40
0.45
  0
HATCH
  5
605
100
AcDbEntity
  8
PART_HOLES_LAYER_TOP
100
AcDbHatch
 10
0.0
 20
0.0
 30
0.0
210
0.0
220
0.0
230
1.0
  2
SOLID
 70
         1
 71
         1
 91
        1
 92
        1
 93
        1
 72
         2
 10
100.59
 20
103.53
 40
0.45
 50
0.0
 51
360.0
 73
         1
 97
        1
330
604
 75
         0
 76
         1
 98
        1
 10
0.0
 20
0.0
  0
CIRCLE
  5
606
100
AcDbEntity
  8
PART_HOLES_LAYER_TOP
100
AcDbCircle
 10
98.05
 20
103.53
 30
0.0
 40
0.45
  0
HATCH
  5
607
100
AcDbEntity
  8
PART_HOLES_LAYER_TOP
100
AcDbHatch
 10
0.0
 20
0.0
 30
0.0
210
0.0
220
0.0
230
1.0
  2
SOLID
 70
         1
 71
         1
 91
        1
 92
        1
 93
        1
 72
         2
 10
98.049999999999997
 20
103.53
 40
0.45
 50
0.0
 51
360.0
 73
         1
 97
        1
330
606
 75
         0
 76
         1
 98
        1
 10
0.0
 20
0.0
  0
CIRCLE
  5
608
100
AcDbEntity
  8
PART_HOLES_LAYER_TOP
100
AcDbCircle
 10
100.59
 20
106.07
 30
0.0
 40
0.45
  0
HATCH
  5
609
100
AcDbEntity
  8
PART_HOLES_LAYER_TOP
100
AcDbHatch
 10
0.0
 20
0.0
 30
0.0
210
0.0
220
0.0
230
1.0
  2
SOLID
 70
         1
 71
         1
 91
        1
 92
        1
 93
        1
 72
         2
 10
100.59
 20
106.06999999999999
 40
0.45
 50
0.0
 51
360.0
 73
         1
 97
        1
330
608
 75
         0
 76
         1
 98
        1
 10
0.0
 20
0.0
  0
CIRCLE
  5
60A
100
AcDbEntity
  8
PART_HOLES_LAYER_TOP
100
AcDbCircle
 10
98.05
 20
106.07
 30
0.0
 40
0.45
  0
HATCH
  5
60B
100
AcDbEntity
  8
PART_HOLES_LAYER_TOP
100
AcDbHatch
 10
0.0
 20
0.0
 30
0.0
210
0.0
220
0.0
230
1.0
  2
SOLID
 70
         1
 71
         1
 91
        1
 92
        1
 93
        1
 72
         2
 10
98.049999999999997
 20
106.06999999999999
 40
0.45
 50
0.0
 51
360.0
 73
         1
 97
        1
330
60A
 75
         0
 76
         1
 98
        1
 10
0.0
 20
0.0
  0
CIRCLE
  5
60C
100
AcDbEntity
  8
PART_HOLES_LAYER_TOP
100
AcDbCircle
 10
100.59
 20
108.61
 30
0.0
 40
0.45
  0
HATCH
  5
60D
100
AcDbEntity
  8
PART_HOLES_LAYER_TOP
100
AcDbHatch
 10
0.0
 20
0.0
 30
0.0
210
0.0
220
0.0
230
1.0
  2
SOLID
 70
         1
 71
         1
 91
        1
 92
        1
 93
        1
 72
         2
 10
100.59
 20
108.61
 40
0.45
 50
0.0
 51
360.0
 73
         1
 97
        1
330
60C
 75
         0
 76
         1
 98
        1
 10
0.0
 20
0.0
  0
CIRCLE
  5
60E
100
AcDbEntity
  8
PART_HOLES_LAYER_TOP
100
AcDbCircle
 10
98.05
 20
108.61
 30
0.0
 40
0.45
  0
HATCH
  5
60F
100
AcDbEntity
  8
PART_HOLES_LAYER_TOP
100
AcDbHatch
 10
0.0
 20
0.0
 30
0.0
210
0.0
220
0.0
230
1.0
  2
SOLID
 70
         1
 71
         1
 91
        1
 92
        1
 93
        1
 72
         2
 10
98.049999999999997
 20
108.61
 40
0.45
 50
0.0
 51
360.0
 73
         1
 97
        1
330
60E
 75
         0
 76
         1
 98
        1
 10
0.0
 20
0.0
  0
CIRCLE
  5
610
100
AcDbEntity
  8
PART_HOLES_LAYER_TOP
100
AcDbCircle
 10
100.59
 20
113.69
 30
0.0
 40
0.45
  0
HATCH
  5
611
100
AcDbEntity
  8
PART_HOLES_LAYER_TOP
100
AcDbHatch
 10
0.0
 20
0.0
 30
0.0
210
0.0
220
0.0
230
1.0
  2
SOLID
 70
         1
 71
         1
 91
        1
 92
        1
 93
        1
 72
         2
 10
100.59
 20
113.69
 40
0.45
 50
0.0
 51
360.0
 73
         1
 97
        1
330
610
 75
         0
 76
         1
 98
        1
 10
0.0
 20
0.0
  0
CIRCLE
  5
612
100
AcDbEntity
  8
PART_HOLES_LAYER_TOP
100
AcDbCircle
 10
98.05
 20
113.69
 30
0.0
 40
0.45
  0
HATCH
  5
613
100
AcDbEntity
  8
PART_HOLES_LAYER_TOP
100
AcDbHatch
 10
0.0
 20
0.0
 30
0.0
210
0.0
220
0.0
230
1.0
  2
SOLID
 70
         1
 71
         1
 91
        1
 92
        1
 93
        1
 72
         2
 10
98.049999999999997
 20
113.69
 40
0.45
 50
0.0
 51
360.0
 73
         1
 97
        1
330
612
 75
         0
 76
         1
 98
        1
 10
0.0
 20
0.0
  0
CIRCLE
  5
614
100
AcDbEntity
  8
PART_HOLES_LAYER_TOP
100
AcDbCircle
 10
100.59
 20
123.85
 30
0.0
 40
0.45
  0
HATCH
  5
615
100
AcDbEntity
  8
PART_HOLES_LAYER_TOP
100
AcDbHatch
 10
0.0
 20
0.0
 30
0.0
210
0.0
220
0.0
230
1.0
  2
SOLID
 70
         1
 71
         1
 91
        1
 92
        1
 93
        1
 72
         2
 10
100.59
 20
123.84999999999999
 40
0.45
 50
0.0
 51
360.0
 73
         1
 97
        1
330
614
 75
         0
 76
         1
 98
        1
 10
0.0
 20
0.0
  0
CIRCLE
  5
616
100
AcDbEntity
  8
PART_HOLES_LAYER_TOP
100
AcDbCircle
 10
98.05
 20
118.77
 30
0.0
 40
0.45
  0
HATCH
  5
617
100
AcDbEntity
  8
PART_HOLES_LAYER_TOP
100
AcDbHatch
 10
0.0
 20
0.0
 30
0.0
210
0.0
220
0.0
230
1.0
  2
SOLID
 70
         1
 71
         1
 91
        1
 92
        1
 93
        1
 72
         2
 10
98.049999999999997
 20
118.77
 40
0.45
 50
0.0
 51
360.0
 73
         1
 97
        1
330
616
 75
         0
 76
         1
 98
        1
 10
0.0
 20
0.0
  0
CIRCLE
  5
618
100
AcDbEntity
  8
PART_HOLES_LAYER_TOP
100
AcDbCircle
 10
100.59
 20
121.31
 30
0.0
 40
0.45
  0
HATCH
  5
619
100
AcDbEntity
  8
PART_HOLES_LAYER_TOP
100
AcDbHatch
 10
0.0
 20
0.0
 30
0.0
210
0.0
220
0.0
230
1.0
  2
SOLID
 70
         1
 71
         1
 91
        1
 92
        1
 93
        1
 72
         2
 10
100.59
 20
121.31
 40
0.45
 50
0.0
 51
360.0
 73
         1
 97
        1
330
618
 75
         0
 76
         1
 98
        1
 10
0.0
 20
0.0
  0
CIRCLE
  5
61A
100
AcDbEntity
  8
PART_HOLES_LAYER_TOP
100
AcDbCircle
 10
100.59
 20
118.77
 30
0.0
 40
0.45
  0
HATCH
  5
61B
100
AcDbEntity
  8
PART_HOLES_LAYER_TOP
100
AcDbHatch
 10
0.0
 20
0.0
 30
0.0
210
0.0
220
0.0
230
1.0
  2
SOLID
 70
         1
 71
         1
 91
        1
 92
        1
 93
        1
 72
         2
 10
100.59
 20
118.77
 40
0.45
 50
0.0
 51
360.0
 73
         1
 97
        1
330
61A
 75
         0
 76
         1
 98
        1
 10
0.0
 20
0.0
  0
CIRCLE
  5
61C
100
AcDbEntity
  8
PART_HOLES_LAYER_TOP
100
AcDbCircle
 10
98.05
 20
116.23
 30
0.0
 40
0.45
  0
HATCH
  5
61D
100
AcDbEntity
  8
PART_HOLES_LAYER_TOP
100
AcDbHatch
 10
0.0
 20
0.0
 30
0.0
210
0.0
220
0.0
230
1.0
  2
SOLID
 70
         1
 71
         1
 91
        1
 92
        1
 93
        1
 72
         2
 10
98.049999999999997
 20
116.23
 40
0.45
 50
0.0
 51
360.0
 73
         1
 97
        1
330
61C
 75
         0
 76
         1
 98
        1
 10
0.0
 20
0.0
  0
CIRCLE
  5
61E
100
AcDbEntity
  8
PART_HOLES_LAYER_TOP
100
AcDbCircle
 10
100.59
 20
116.23
 30
0.0
 40
0.45
  0
HATCH
  5
61F
100
AcDbEntity
  8
PART_HOLES_LAYER_TOP
100
AcDbHatch
 10
0.0
 20
0.0
 30
0.0
210
0.0
220
0.0
230
1.0
  2
SOLID
 70
         1
 71
         1
 91
        1
 92
        1
 93
        1
 72
         2
 10
100.59
 20
116.23
 40
0.45
 50
0.0
 51
360.0
 73
         1
 97
        1
330
61E
 75
         0
 76
         1
 98
        1
 10
0.0
 20
0.0
  0
CIRCLE
  5
620
100
AcDbEntity
  8
PART_HOLES_LAYER_TOP
100
AcDbCircle
 10
-7.8
 20
149.65
 30
0.0
 40
0.45
  0
HATCH
  5
621
100
AcDbEntity
  8
PART_HOLES_LAYER_TOP
100
AcDbHatch
 10
0.0
 20
0.0
 30
0.0
210
0.0
220
0.0
230
1.0
  2
SOLID
 70
         1
 71
         1
 91
        1
 92
        1
 93
        1
 72
         2
 10
-7.7999999999999998
 20
149.65000000000001
 40
0.45
 50
0.0
 51
360.0
 73
         1
 97
        1
330
620
 75
         0
 76
         1
 98
        1
 10
0.0
 20
0.0
  0
CIRCLE
  5
622
100
AcDbEntity
  8
PART_HOLES_LAYER_TOP
100
AcDbCircle
 10
-5.26
 20
149.65
 30
0.0
 40
0.45
  0
HATCH
  5
623
100
AcDbEntity
  8
PART_HOLES_LAYER_TOP
100
AcDbHatch
 10
0.0
 20
0.0
 30
0.0
210
0.0
220
0.0
230
1.0
  2
SOLID
 70
         1
 71
         1
 91
        1
 92
        1
 93
        1
 72
         2
 10
-5.2599999999999998
 20
149.65000000000001
 40
0.45
 50
0.0
 51
360.0
 73
         1
 97
        1
330
622
 75
         0
 76
         1
 98
        1
 10
0.0
 20
0.0
  0
CIRCLE
  5
624
100
AcDbEntity
  8
PART_HOLES_LAYER_TOP
100
AcDbCircle
 10
-2.72
 20
149.65
 30
0.0
 40
0.45
  0
HATCH
  5
625
100
AcDbEntity
  8
PART_HOLES_LAYER_TOP
100
AcDbHatch
 10
0.0
 20
0.0
 30
0.0
210
0.0
220
0.0
230
1.0
  2
SOLID
 70
         1
 71
         1
 91
        1
 92
        1
 93
        1
 72
         2
 10
-2.7200000000000002
 20
149.65000000000001
 40
0.45
 50
0.0
 51
360.0
 73
         1
 97
        1
330
624
 75
         0
 76
         1
 98
        1
 10
0.0
 20
0.0
  0
CIRCLE
  5
626
100
AcDbEntity
  8
PART_HOLES_LAYER_TOP
100
AcDbCircle
 10
70.55
 20
92.1
 30
0.0
 40
0.45
  0
HATCH
  5
627
100
AcDbEntity
  8
PART_HOLES_LAYER_TOP
100
AcDbHatch
 10
0.0
 20
0.0
 30
0.0
210
0.0
220
0.0
230
1.0
  2
SOLID
 70
         1
 71
         1
 91
        1
 92
        1
 93
        1
 72
         2
 10
70.549999999999997
 20
92.099999999999994
 40
0.45
 50
0.0
 51
360.0
 73
         1
 97
        1
330
626
 75
         0
 76
         1
 98
        1
 10
0.0
 20
0.0
  0
ENDSEC
  0
SECTION
  2
OBJECTS
  0
DICTIONARY
  5
19
100
AcDbDictionary
  3
ACAD_GROUP
350
1A
  3
ACAD_MLINESTYLE
350
1B
  0
DICTIONARY
  5
1A
102
{ACAD_REACTORS
330
19
102
}
100
AcDbDictionary
  0
DICTIONARY
  5
1B
102
{ACAD_REACTORS
330
19
102
}
100
AcDbDictionary
  3
STANDARD
350
1C
  0
MLINESTYLE
  5
1C
102
{ACAD_REACTORS
330
1B
102
}
100
AcDbMlineStyle
  2
STANDARD
 70
         0
  3

 62
         0
 51
90.0
 52
90.0
 71
         2
 49
0.5
 62
       256
  6
BYLAYER
 49
-0.5
 62
       256
  6
BYLAYER
  0
DICTIONARY
  5
22
102
{ACAD_REACTORS
330
19
102
}
100
AcDbDictionary
  0
ENDSEC
  0
EOF
