  0
SECTION
  2
HEADER
  9
$ACADVER
  1
AC1014
  9
$ACADMAINTVER
 70
         0
  9
$DWGCODEPAGE
  3
ANSI_1252
  9
$INSBASE
 10
0.0
 20
0.0
 30
0.0
  9
$EXTMIN
 10
-27.1016
 20
-7.0
 30
0.0
  9
$EXTMAX
 10
116.914684
 20
89.281324
 30
0.0
  9
$LIMMIN
 10
0.0
 20
0.0
  9
$LIMMAX
 10
0.0
 20
0.0
  9
$ORTHOMODE
 70
         0
  9
$REGENMODE
 70
         1
  9
$FILLMODE
 70
         1
  9
$QTEXTMODE
 70
         0
  9
$MIRRTEXT
 70
         1
  9
$DRAGMODE
 70
         2
  9
$LTSCALE
 40
1.0
  9
$OSMODE
 70
         0
  9
$ATTMODE
 70
         1
  9
$TEXTSIZE
 40
0.2
  9
$TRACEWID
 40
0.05
  9
$TEXTSTYLE
  7
STANDARD
  9
$CLAYER
  8
0
  9
$CELTYPE
  6
CONTINUOUS
  9
$CECOLOR
 62
       256
  9
$CELTSCALE
 40
1.0
  9
$DELOBJ
 70
         1
  9
$DISPSILH
 70
         0
  9
$DIMSCALE
 40
1.0
  9
$DIMASZ
 40
0.18
  9
$DIMEXO
 40
0.0625
  9
$DIMDLI
 40
0.38
  9
$DIMRND
 40
0.0
  9
$DIMDLE
 40
0.0
  9
$DIMEXE
 40
0.18
  9
$DIMTP
 40
0.0
  9
$DIMTM
 40
0.0
  9
$DIMTXT
 40
0.18
  9
$DIMCEN
 40
0.09
  9
$DIMTSZ
 40
0.0
  9
$DIMTOL
 70
         0
  9
$DIMLIM
 70
         0
  9
$DIMTIH
 70
         1
  9
$DIMTOH
 70
         1
  9
$DIMSE1
 70
         0
  9
$DIMSE2
 70
         0
  9
$DIMTAD
 70
         0
  9
$DIMZIN
 70
         0
  9
$DIMBLK
  1

  9
$DIMASO
 70
         1
  9
$DIMSHO
 70
         1
  9
$DIMPOST
  1

  9
$DIMAPOST
  1

  9
$DIMALT
 70
         0
  9
$DIMALTD
 70
         2
  9
$DIMALTF
 40
25.4
  9
$DIMLFAC
 40
1.0
  9
$DIMTOFL
 70
         0
  9
$DIMTVP
 40
0.0
  9
$DIMTIX
 70
         0
  9
$DIMSOXD
 70
         0
  9
$DIMSAH
 70
         0
  9
$DIMBLK1
  1

  9
$DIMBLK2
  1

  9
$DIMSTYLE
  2
STANDARD
  9
$DIMCLRD
 70
         0
  9
$DIMCLRE
 70
         0
  9
$DIMCLRT
 70
         0
  9
$DIMTFAC
 40
1.0
  9
$DIMGAP
 40
0.09
  9
$DIMJUST
 70
         0
  9
$DIMSD1
 70
         0
  9
$DIMSD2
 70
         0
  9
$DIMTOLJ
 70
         1
  9
$DIMTZIN
 70
         0
  9
$DIMALTZ
 70
         0
  9
$DIMALTTZ
 70
         0
  9
$DIMFIT
 70
         3
  9
$DIMUPT
 70
         0
  9
$DIMUNIT
 70
         2
  9
$DIMDEC
 70
         4
  9
$DIMTDEC
 70
         4
  9
$DIMALTU
 70
         2
  9
$DIMALTTD
 70
         2
  9
$DIMTXSTY
  7
STANDARD
  9
$DIMAUNIT
 70
         0
  9
$LUNITS
 70
         2
  9
$LUPREC
 70
         4
  9
$SKETCHINC
 40
0.1
  9
$FILLETRAD
 40
0.0
  9
$AUNITS
 70
         0
  9
$AUPREC
 70
         0
  9
$MENU
  1
acad
  9
$ELEVATION
 40
0.0
  9
$PELEVATION
 40
0.0
  9
$THICKNESS
 40
0.0
  9
$LIMCHECK
 70
         0
  9
$BLIPMODE
 70
         1
  9
$CHAMFERA
 40
0.0
  9
$CHAMFERB
 40
0.0
  9
$CHAMFERC
 40
0.0
  9
$CHAMFERD
 40
0.0
  9
$SKPOLY
 70
         0
  9
$TDCREATE
 40
2456141.559606481
  9
$TDUPDATE
 40
0.000000000
  9
$TDINDWG
 40
0.0000000000
  9
$TDUSRTIMER
 40
0.0000000000
  9
$USRTIMER
 70
         1
  9
$ANGBASE
 50
0.0
  9
$ANGDIR
 70
         0
  9
$PDMODE
 70
         0
  9
$PDSIZE
 40
0.0
  9
$PLINEWID
 40
0.0
  9
$COORDS
 70
         0
  9
$SPLFRAME
 70
         0
  9
$SPLINETYPE
 70
         6
  9
$SPLINESEGS
 70
         8
  9
$ATTDIA
 70
         0
  9
$ATTREQ
 70
         1
  9
$HANDLING
 70
         1
  9
$HANDSEED
  5
570
  9
$SURFTAB1
 70
         6
  9
$SURFTAB2
 70
         6
  9
$SURFTYPE
 70
         6
  9
$SURFU
 70
         6
  9
$SURFV
 70
         6
  9
$UCSNAME
  2

  9
$UCSORG
 10
0.0
 20
0.0
 30
0.0
  9
$UCSXDIR
 10
1.0
 20
0.0
 30
0.0
  9
$UCSYDIR
 10
0.0
 20
1.0
 30
0.0
  9
$PUCSNAME
  2

  9
$PUCSORG
 10
0.0
 20
0.0
 30
0.0
  9
$PUCSXDIR
 10
1.0
 20
0.0
 30
0.0
  9
$PUCSYDIR
 10
0.0
 20
1.0
 30
0.0
  9
$USERI1
 70
        -3
  9
$USERI2
 70
         0
  9
$USERI3
 70
         0
  9
$USERI4
 70
         0
  9
$USERI5
 70
         0
  9
$USERR1
 40
0.0
  9
$USERR2
 40
0.0
  9
$USERR3
 40
0.0
  9
$USERR4
 40
0.0
  9
$USERR5
 40
0.0
  9
$WORLDVIEW
 70
         1
  9
$SHADEDGE
 70
         3
  9
$SHADEDIF
 70
        70
  9
$TILEMODE
 70
         1
  9
$MAXACTVP
 70
        16
  9
$PINSBASE
 10
0.0
 20
0.0
 30
0.0
  9
$PLIMCHECK
 70
         0
  9
$PEXTMIN
 10
1.0000000000E+20
 20
1.0000000000E+20
 30
1.0000000000E+20
  9
$PEXTMAX
 10
-1.0000000000E+20
 20
-1.0000000000E+20
 30
-1.0000000000E+20
  9
$PLIMMIN
 10
0.0
 20
0.0
  9
$PLIMMAX
 10
12.0
 20
9.0
  9
$UNITMODE
 70
         0
  9
$VISRETAIN
 70
         0
  9
$PLINEGEN
 70
         1
  9
$PSLTSCALE
 70
         0
  9
$TREEDEPTH
 70
      3020
  9
$PICKSTYLE
 70
         1
  9
$CMLSTYLE
  2
STANDARD
  9
$CMLJUST
 70
         0
  9
$CMLSCALE
 40
1.0
  9
$PROXYGRAPHICS
 70
         0
  9
$MEASUREMENT
 70
         0
  0
ENDSEC
  0
SECTION
  2
CLASSES
  0
CLASS
  1
LWPOLYLINE
  2
AcDbPolyline
  3
"AutoCAD"
 90
        0
280
         0
281
         1
  0
CLASS
  1
IMAGE
  2
AcDbRasterImage
  3
ISM
 90
      127
280
         0
281
         1
  0
CLASS
  1
OLE2FRAME
  2
AcDbOle2Frame
  3
""
 90
        0
280
         0
281
         1
  0
CLASS
  1
HATCH
  2
AcDbHatch
  3
"ACAD_SEDONA"
 90
        0
280
         0
281
         1
  0
CLASS
  1
DICTIONARYVAR
  2
AcDbDictionaryVar
  3
"AutoCAD"
 90
        0
280
         0
281
         0
  0
CLASS
  1
RASTERVARIABLES
  2
AcDbRasterVariables
  3
ISM
 90
        0
280
         0
281
         0
  0
CLASS
  1
IMAGEDEF
  2
AcDbRasterImageDef
  3
ISM
 90
        0
280
         0
281
         0
  0
CLASS
  1
IMAGEDEF_REACTOR
  2
AcDbRasterImageDefReactor
  3
ISM
 90
        1
280
         0
281
         0
  0
CLASS
  1
IDBUFFER
  2
AcDbIdBuffer
  3
"Acad"
 90
        0
280
         0
281
         0
  0
CLASS
  1
SPATIAL_FILTER
  2
AcDbSpatialFilter
  3
"Acad"
 90
        0
280
         0
281
         0
  0
CLASS
  1
XRECORD
  2
AcDbXrecord
  3
"<Built In>"
 90
        0
280
         0
281
         0
  0
CLASS
  1
SORTENTSTABLE
  2
AcDbSortentsTable
  3
"AutoCAD"
 90
        0
280
         0
281
         0
  0
CLASS
  1
LAYER_INDEX
  2
AcDbLayerIndex
  3
"Acad"
 90
        0
280
         0
281
         0
  0
CLASS
  1
SPATIAL_INDEX
  2
AcDbSpatialIndex
  3
"Acad"
 90
        0
280
         0
281
         0
  0
CLASS
  1
OBJECT_PTR
  2
CAseDLPNTableRecord
  3
"ASE-LPNTableRecord"
 90
        1
280
         0
281
         0
  0
CLASS
  1
LAYOUT
  2
AcDbLayout
  3
"AutoCAD 2000"
 90
        0
280
         0
281
         0
  0
CLASS
  1
PLOTSETTINGS
  2
AcDbPlotSettings
  3
"AutoCAD 2000"
 90
        0
280
         0
281
         0
  0
CLASS
  1
ACDBDICTIONARYWDFLT
  2
AcDbDictionaryWithDefault
  3
"AutoCAD 2000"
 90
        0
280
         0
281
         0
  0
CLASS
  1
ACDBPLACEHOLDER
  2
AcDbPlaceHolder
  3
"AutoCAD 2000"
 90
        0
280
         0
281
         0
  0
CLASS
  1
VBA_PROJECT
  2
AcDbVbaProject
  3
"acadvba"
 90
        0
280
         0
281
         0
  0
CLASS
  1
WIPEOUT
  2
AcDbWipeout
  3
WipeOut|AutoCAD Express Tool|expresstools@autodesk.com
 90
      127
280
         0
281
         1
  0
CLASS
  1
WIPEOUTVARIABLES
  2
AcDbWipeoutVariables
  3
WipeOut|AutoCAD Express Tool|expresstools@autodesk.com
 90
        0
280
         0
281
         0
  0
CLASS
  1
RTEXT
  2
RText
  3
RText|AutoCAD Express Tool|expresstools@autodesk.com
 90
        0
280
         0
281
         1
  0
CLASS
  1
ARCALIGNEDTEXT
  2
AcDbArcAlignedText
  3
ATEXT|AutoCAD Express Tool|expresstools@autodesk.com
 90
        0
280
         0
281
         1
  0
ENDSEC
  0
SECTION
  2
TABLES
  0
TABLE
  2
VPORT
  5
7
100
AcDbSymbolTable
 70
         1
  0
VPORT
  5
15
100
AcDbSymbolTableRecord
100
AcDbViewportTableRecord
  2
*ACTIVE
 70
         0
 10
0.0
 20
0.0
 11
1.0
 21
1.0
 12
6.591288
 22
4.579184
 13
0.0
 23
0.0
 14
1.0
 24
1.0
 15
0.0
 25
0.0
 16
0.0
 26
0.0
 36
1.0
 17
0.0
 27
0.0
 37
0.0
 40
9.158369
 41
0.688564
 42
50.0
 43
0.0
 44
0.0
 50
0.0
 51
0.0
 71
         0
 72
       100
 73
         1
 74
         1
 75
         0
 76
         0
 77
         0
 78
         0
  0
ENDTAB
  0
TABLE
  2
LTYPE
  5
4
100
AcDbSymbolTable
 70
         3
  0
LTYPE
  5
11
100
AcDbSymbolTableRecord
100
AcDbLinetypeTableRecord
  2
BYBLOCK
 70
        64
  3

 72
        65
 73
         0
 40
0.0
  0
LTYPE
  5
12
100
AcDbSymbolTableRecord
100
AcDbLinetypeTableRecord
  2
BYLAYER
 70
        64
  3

 72
        65
 73
         0
 40
0.0
  0
LTYPE
  5
13
100
AcDbSymbolTableRecord
100
AcDbLinetypeTableRecord
  2
CONTINUOUS
 70
        64
  3
Solid line
 72
        65
 73
         0
 40
0.0
  0
ENDTAB
  0
TABLE
  2
LAYER
  5
2
100
AcDbSymbolTable
 70
         6
  0
LAYER
  5
14
100
AcDbSymbolTableRecord
100
AcDbLayerTableRecord
  2
0
 70
         0
 62
         7
  6
CONTINUOUS
  0
LAYER
  5
24
100
AcDbSymbolTableRecord
100
AcDbLayerTableRecord
  2
ASSEMBLY_OUTLINES_TOP
 70
         0
 62
       102
  6
CONTINUOUS
  0
LAYER
  5
25
100
AcDbSymbolTableRecord
100
AcDbLayerTableRecord
  2
ASSEMBLY_REF_DES_TOP
 70
         0
 62
       102
  6
CONTINUOUS
  0
LAYER
  5
26
100
AcDbSymbolTableRecord
100
AcDbLayerTableRecord
  2
BOARD_OUTLINE
 70
         0
 62
        10
  6
CONTINUOUS
  0
LAYER
  5
27
100
AcDbSymbolTableRecord
100
AcDbLayerTableRecord
  2
MOUNTING_HOLES_LAYER_TOP
 70
         0
 62
        42
  6
CONTINUOUS
  0
LAYER
  5
28
100
AcDbSymbolTableRecord
100
AcDbLayerTableRecord
  2
PART_HOLES_LAYER_TOP
 70
         0
 62
        30
  6
CONTINUOUS
  0
ENDTAB
  0
TABLE
  2
STYLE
  5
3
100
AcDbSymbolTable
 70
         3
  0
STYLE
  5
17
100
AcDbSymbolTableRecord
100
AcDbTextStyleTableRecord
  2
STANDARD
 70
         0
 40
0.0
 41
1.0
 50
0.0
 71
         0
 42
0.0
  3
txt
  4

  0
STYLE
  5
39
100
AcDbSymbolTableRecord
100
AcDbTextStyleTableRecord
  2
VERIBEST_GERBER_1
 70
         0
 40
0.0
 41
1.0
 50
0.0
 71
         0
 42
0.0
  3

  4

  0
STYLE
  5
34C
100
AcDbSymbolTableRecord
100
AcDbTextStyleTableRecord
  2
GOST_TYPE_B
 70
         0
 40
0.0
 41
1.0
 50
0.0
 71
         0
 42
0.0
  3
gost_0.ttf
  4

  0
ENDTAB
  0
TABLE
  2
VIEW
  5
5
100
AcDbSymbolTable
 70
         0
  0
ENDTAB
  0
TABLE
  2
UCS
  5
6
100
AcDbSymbolTable
 70
         0
  0
ENDTAB
  0
TABLE
  2
APPID
  5
8
100
AcDbSymbolTable
 70
         1
  0
APPID
  5
16
100
AcDbSymbolTableRecord
100
AcDbRegAppTableRecord
  2
ACAD
 70
         0
  0
ENDTAB
  0
TABLE
  2
DIMSTYLE
  5
9
100
AcDbSymbolTable
 70
         1
  0
DIMSTYLE
105
18
100
AcDbSymbolTableRecord
100
AcDbDimStyleTableRecord
  2
STANDARD
 70
         0
  3

  4

  5

  6

  7

 40
1.0
 41
0.18
 42
0.0625
 43
0.38
 44
0.18
 45
0.0
 46
0.0
 47
0.0
 48
0.0
 71
         0
 72
         0
 73
         1
 74
         1
 75
         0
 76
         0
 77
         0
 78
         0
140
0.18
141
0.09
142
0.0
143
25.4
144
1.0
145
0.0
146
1.0
147
0.09
170
         0
171
         2
172
         0
173
         0
174
         0
175
         0
176
         0
177
         0
178
         0
270
         2
271
         4
272
         4
273
         2
274
         2
275
         0
280
         0
281
         0
282
         0
283
         1
284
         0
285
         0
286
         0
287
         3
288
         0
340
17
  0
ENDTAB
  0
TABLE
  2
BLOCK_RECORD
  5
1
100
AcDbSymbolTable
 70
         0
  0
BLOCK_RECORD
  5
A
100
AcDbSymbolTableRecord
100
AcDbBlockTableRecord
  2
*MODEL_SPACE
  0
BLOCK_RECORD
  5
B
100
AcDbSymbolTableRecord
100
AcDbBlockTableRecord
  2
*PAPER_SPACE
  0
ENDTAB
  0
ENDSEC
  0
SECTION
  2
BLOCKS
  0
BLOCK
  5
D
100
AcDbEntity
  8
0
100
AcDbBlockBegin
  2
*MODEL_SPACE
 70
         0
 10
0.0
 20
0.0
 30
0.0
  3
*MODEL_SPACE
  1

  0
ENDBLK
  5
E
100
AcDbEntity
  8
0
100
AcDbBlockEnd
  0
BLOCK
  5
F
100
AcDbEntity
 67
         1
  8
0
100
AcDbBlockBegin
  2
*PAPER_SPACE
 70
         0
 10
0.0
 20
0.0
 30
0.0
  3
*PAPER_SPACE
  1

  0
ENDBLK
  5
10
100
AcDbEntity
 67
         1
  8
0
100
AcDbBlockEnd
  0
ENDSEC
  0
SECTION
  2
ENTITIES
  0
LWPOLYLINE
  5
29
100
AcDbEntity
  8
ASSEMBLY_OUTLINES_TOP
100
AcDbPolyline
 90
        2
 70
         0
 43
0.2032
 10
-27.0
 20
84.508
 10
-27.0
 20
89.179724
  0
LWPOLYLINE
  5
2A
100
AcDbEntity
  8
ASSEMBLY_OUTLINES_TOP
100
AcDbPolyline
 90
        2
 70
         0
 43
0.2032
 10
110.5
 20
84.508
 10
110.5
 20
89.179724
  0
LWPOLYLINE
  5
2B
100
AcDbEntity
  8
ASSEMBLY_OUTLINES_TOP
100
AcDbPolyline
 90
        2
 70
         0
 43
0.2032
 10
-26.4285
 20
88.671724
 10
37.333861
 20
88.671724
  0
LWPOLYLINE
  5
2C
100
AcDbEntity
  8
ASSEMBLY_OUTLINES_TOP
100
AcDbPolyline
 90
        2
 70
         0
 43
0.2032
 10
46.166139
 20
88.671724
 10
109.9285
 20
88.671724
  0
LWPOLYLINE
  5
2D
100
AcDbEntity
  8
ASSEMBLY_OUTLINES_TOP
100
AcDbPolyline
 90
        3
 70
         1
 10
-27.0
 20
88.671724
 10
-25.857
 20
89.243224
 10
-25.857
 20
88.100224
  0
HATCH
  5
2E
100
AcDbEntity
  8
ASSEMBLY_OUTLINES_TOP
100
AcDbHatch
 10
0.0
 20
0.0
 30
0.0
210
0.0
220
0.0
230
1.0
  2
SOLID
 70
         1
 71
         1
 91
        1
 92
        2
 72
         0
 73
         1
 93
        3
 10
-27.0
 20
88.671723999999998
 10
-25.856999999999999
 20
89.243223999999998
 10
-25.856999999999999
 20
88.100223999999997
 97
        1
330
2D
 75
         0
 76
         1
 98
        1
 10
0.0
 20
0.0
  0
LWPOLYLINE
  5
2F
100
AcDbEntity
  8
ASSEMBLY_OUTLINES_TOP
100
AcDbPolyline
 90
        3
 70
         1
 10
110.5
 20
88.671724
 10
109.357
 20
88.100225
 10
109.357
 20
89.243224
  0
HATCH
  5
30
100
AcDbEntity
  8
ASSEMBLY_OUTLINES_TOP
100
AcDbHatch
 10
0.0
 20
0.0
 30
0.0
210
0.0
220
0.0
230
1.0
  2
SOLID
 70
         1
 71
         1
 91
        1
 92
        2
 72
         0
 73
         1
 93
        3
 10
110.5
 20
88.671723999999998
 10
109.357
 20
88.100224999999995
 10
109.357
 20
89.243223999999998
 97
        1
330
2F
 75
         0
 76
         1
 98
        1
 10
0.0
 20
0.0
  0
LWPOLYLINE
  5
31
100
AcDbEntity
  8
ASSEMBLY_OUTLINES_TOP
100
AcDbPolyline
 90
        2
 70
         0
 43
0.2032
 10
111.008
 20
84.0
 10
116.813084
 20
84.0
  0
LWPOLYLINE
  5
32
100
AcDbEntity
  8
ASSEMBLY_OUTLINES_TOP
100
AcDbPolyline
 90
        2
 70
         0
 43
0.2032
 10
111.008
 20
0.0
 10
116.813084
 20
0.0
  0
LWPOLYLINE
  5
33
100
AcDbEntity
  8
ASSEMBLY_OUTLINES_TOP
100
AcDbPolyline
 90
        2
 70
         0
 43
0.2032
 10
116.305084
 20
83.4285
 10
116.305084
 20
44.752597
  0
LWPOLYLINE
  5
34
100
AcDbEntity
  8
ASSEMBLY_OUTLINES_TOP
100
AcDbPolyline
 90
        2
 70
         0
 43
0.2032
 10
116.305084
 20
39.247402
 10
116.305084
 20
0.5715
  0
LWPOLYLINE
  5
35
100
AcDbEntity
  8
ASSEMBLY_OUTLINES_TOP
100
AcDbPolyline
 90
        3
 70
         1
 10
116.305084
 20
84.0
 10
116.876583
 20
82.857
 10
115.733584
 20
82.857001
  0
HATCH
  5
36
100
AcDbEntity
  8
ASSEMBLY_OUTLINES_TOP
100
AcDbHatch
 10
0.0
 20
0.0
 30
0.0
210
0.0
220
0.0
230
1.0
  2
SOLID
 70
         1
 71
         1
 91
        1
 92
        2
 72
         0
 73
         1
 93
        3
 10
116.30508399999999
 20
84.0
 10
116.876583
 20
82.856999999999999
 10
115.73358399999999
 20
82.857000999999997
 97
        1
330
35
 75
         0
 76
         1
 98
        1
 10
0.0
 20
0.0
  0
LWPOLYLINE
  5
37
100
AcDbEntity
  8
ASSEMBLY_OUTLINES_TOP
100
AcDbPolyline
 90
        3
 70
         1
 10
116.305084
 20
0.0
 10
115.733584
 20
1.143
 10
116.876584
 20
1.143
  0
HATCH
  5
38
100
AcDbEntity
  8
ASSEMBLY_OUTLINES_TOP
100
AcDbHatch
 10
0.0
 20
0.0
 30
0.0
210
0.0
220
0.0
230
1.0
  2
SOLID
 70
         1
 71
         1
 91
        1
 92
        2
 72
         0
 73
         1
 93
        3
 10
116.30508399999999
 20
0.0
 10
115.73358399999999
 20
1.143
 10
116.87658399999999
 20
1.143
 97
        1
330
37
 75
         0
 76
         1
 98
        1
 10
0.0
 20
0.0
  0
TEXT
  5
3A
100
AcDbEntity
  8
ASSEMBLY_OUTLINES_TOP
100
AcDbText
 10
37.767915
 20
88.036724
 30
0.0
 40
1.27
  1
137.5mm
  7
VERIBEST_GERBER_1
 72
         1
 11
41.75
 21
88.671724
 31
0.0
100
AcDbText
 73
         2
  0
TEXT
  5
3B
100
AcDbEntity
  8
ASSEMBLY_OUTLINES_TOP
100
AcDbText
 10
116.940084
 20
39.602241
 30
0.0
 40
1.27
  1
84mm
 50
90.0
  7
VERIBEST_GERBER_1
 72
         1
 11
116.305084
 21
42.000001
 31
0.0
100
AcDbText
 73
         2
  0
LWPOLYLINE
  5
3C
100
AcDbEntity
  8
ASSEMBLY_OUTLINES_TOP
100
AcDbPolyline
 90
        4
 70
         1
 43
0.1
 10
50.35
 20
72.95
 10
50.35
 20
76.65
 10
53.35
 20
76.65
 10
53.35
 20
72.95
  0
LWPOLYLINE
  5
3D
100
AcDbEntity
  8
ASSEMBLY_OUTLINES_TOP
100
AcDbPolyline
 90
        2
 70
         0
 43
0.1
 10
53.35
 20
73.05
 10
50.35
 20
73.05
  0
LWPOLYLINE
  5
3E
100
AcDbEntity
  8
ASSEMBLY_OUTLINES_TOP
100
AcDbPolyline
 90
        2
 70
         0
 43
0.1
 10
53.35
 20
73.15
 10
50.35
 20
73.15
  0
LWPOLYLINE
  5
3F
100
AcDbEntity
  8
ASSEMBLY_OUTLINES_TOP
100
AcDbPolyline
 90
        2
 70
         0
 43
0.1
 10
53.35
 20
73.25
 10
50.35
 20
73.25
  0
LWPOLYLINE
  5
40
100
AcDbEntity
  8
ASSEMBLY_OUTLINES_TOP
100
AcDbPolyline
 90
        2
 70
         0
 43
0.1
 10
53.35
 20
73.35
 10
50.35
 20
73.35
  0
LWPOLYLINE
  5
41
100
AcDbEntity
  8
ASSEMBLY_OUTLINES_TOP
100
AcDbPolyline
 90
        2
 70
         0
 43
0.1
 10
53.35
 20
73.45
 10
50.35
 20
73.45
  0
LWPOLYLINE
  5
42
100
AcDbEntity
  8
ASSEMBLY_OUTLINES_TOP
100
AcDbPolyline
 90
        2
 70
         0
 43
0.1
 10
53.35
 20
73.55
 10
50.35
 20
73.55
  0
LWPOLYLINE
  5
43
100
AcDbEntity
  8
ASSEMBLY_OUTLINES_TOP
100
AcDbPolyline
 90
        2
 70
         0
 43
0.1
 10
53.35
 20
73.65
 10
50.35
 20
73.65
  0
LWPOLYLINE
  5
44
100
AcDbEntity
  8
ASSEMBLY_OUTLINES_TOP
100
AcDbPolyline
 90
        2
 70
         0
 43
0.1
 10
53.35
 20
73.75
 10
50.35
 20
73.75
  0
LWPOLYLINE
  5
45
100
AcDbEntity
  8
ASSEMBLY_OUTLINES_TOP
100
AcDbPolyline
 90
        4
 70
         1
 43
0.1
 10
37.65
 20
26.35
 10
37.65
 20
44.85
 10
49.75
 20
44.85
 10
49.75
 20
26.35
  0
LWPOLYLINE
  5
46
100
AcDbEntity
  8
ASSEMBLY_OUTLINES_TOP
100
AcDbPolyline
 90
        2
 70
         1
 43
0.1
 10
38.15
 20
27.35
 42
-1.0
 10
39.15
 20
27.35
 42
-1.0
  0
LWPOLYLINE
  5
47
100
AcDbEntity
  8
ASSEMBLY_OUTLINES_TOP
100
AcDbPolyline
 90
        4
 70
         1
 43
0.1
 10
-17.21
 20
18.32
 10
-17.21
 20
23.92
 10
-13.41
 20
23.92
 10
-13.41
 20
18.32
  0
LWPOLYLINE
  5
48
100
AcDbEntity
  8
ASSEMBLY_OUTLINES_TOP
100
AcDbPolyline
 90
        2
 70
         0
 43
0.1
 10
-17.21
 20
23.82
 10
-13.41
 20
23.82
  0
LWPOLYLINE
  5
49
100
AcDbEntity
  8
ASSEMBLY_OUTLINES_TOP
100
AcDbPolyline
 90
        2
 70
         0
 43
0.1
 10
-17.21
 20
23.72
 10
-13.41
 20
23.72
  0
LWPOLYLINE
  5
4A
100
AcDbEntity
  8
ASSEMBLY_OUTLINES_TOP
100
AcDbPolyline
 90
        2
 70
         0
 43
0.1
 10
-17.21
 20
23.62
 10
-13.41
 20
23.62
  0
LWPOLYLINE
  5
4B
100
AcDbEntity
  8
ASSEMBLY_OUTLINES_TOP
100
AcDbPolyline
 90
        2
 70
         0
 43
0.1
 10
-17.21
 20
23.52
 10
-13.41
 20
23.52
  0
LWPOLYLINE
  5
4C
100
AcDbEntity
  8
ASSEMBLY_OUTLINES_TOP
100
AcDbPolyline
 90
        2
 70
         0
 43
0.1
 10
-17.21
 20
23.42
 10
-13.41
 20
23.42
  0
LWPOLYLINE
  5
4D
100
AcDbEntity
  8
ASSEMBLY_OUTLINES_TOP
100
AcDbPolyline
 90
        2
 70
         0
 43
0.1
 10
-17.21
 20
23.32
 10
-13.41
 20
23.32
  0
LWPOLYLINE
  5
4E
100
AcDbEntity
  8
ASSEMBLY_OUTLINES_TOP
100
AcDbPolyline
 90
        2
 70
         0
 43
0.1
 10
-17.21
 20
23.22
 10
-13.41
 20
23.22
  0
LWPOLYLINE
  5
4F
100
AcDbEntity
  8
ASSEMBLY_OUTLINES_TOP
100
AcDbPolyline
 90
        2
 70
         0
 43
0.1
 10
-17.21
 20
23.12
 10
-13.41
 20
23.12
  0
LWPOLYLINE
  5
50
100
AcDbEntity
  8
ASSEMBLY_OUTLINES_TOP
100
AcDbPolyline
 90
        4
 70
         1
 10
17.23
 20
54.57
 10
17.23
 20
63.27
 10
42.61
 20
63.27
 10
42.61
 20
54.57
  0
LWPOLYLINE
  5
51
100
AcDbEntity
  8
ASSEMBLY_OUTLINES_TOP
100
AcDbPolyline
 90
        4
 70
         1
 10
26.75
 20
54.57
 10
26.75
 20
55.15
 10
33.25
 20
55.15
 10
33.25
 20
54.57
  0
LWPOLYLINE
  5
52
100
AcDbEntity
  8
ASSEMBLY_OUTLINES_TOP
100
AcDbPolyline
 90
        4
 70
         1
 10
26.75
 20
54.57
 10
26.75
 20
55.15
 10
33.25
 20
55.15
 10
33.25
 20
54.57
  0
LWPOLYLINE
  5
53
100
AcDbEntity
  8
ASSEMBLY_OUTLINES_TOP
100
AcDbPolyline
 90
        4
 70
         1
 10
55.43
 20
65.49
 10
55.43
 20
72.99
 10
57.97
 20
72.99
 10
57.97
 20
65.49
  0
LWPOLYLINE
  5
54
100
AcDbEntity
  8
ASSEMBLY_OUTLINES_TOP
100
AcDbPolyline
 90
        4
 70
         1
 43
0.1
 10
-16.3
 20
25.8
 10
-16.3
 20
29.5
 10
-13.3
 20
29.5
 10
-13.3
 20
25.8
  0
LWPOLYLINE
  5
55
100
AcDbEntity
  8
ASSEMBLY_OUTLINES_TOP
100
AcDbPolyline
 90
        2
 70
         0
 43
0.1
 10
-13.3
 20
25.9
 10
-16.3
 20
25.9
  0
LWPOLYLINE
  5
56
100
AcDbEntity
  8
ASSEMBLY_OUTLINES_TOP
100
AcDbPolyline
 90
        2
 70
         0
 43
0.1
 10
-13.3
 20
26.0
 10
-16.3
 20
26.0
  0
LWPOLYLINE
  5
57
100
AcDbEntity
  8
ASSEMBLY_OUTLINES_TOP
100
AcDbPolyline
 90
        2
 70
         0
 43
0.1
 10
-13.3
 20
26.1
 10
-16.3
 20
26.1
  0
LWPOLYLINE
  5
58
100
AcDbEntity
  8
ASSEMBLY_OUTLINES_TOP
100
AcDbPolyline
 90
        2
 70
         0
 43
0.1
 10
-13.3
 20
26.2
 10
-16.3
 20
26.2
  0
LWPOLYLINE
  5
59
100
AcDbEntity
  8
ASSEMBLY_OUTLINES_TOP
100
AcDbPolyline
 90
        2
 70
         0
 43
0.1
 10
-13.3
 20
26.3
 10
-16.3
 20
26.3
  0
LWPOLYLINE
  5
5A
100
AcDbEntity
  8
ASSEMBLY_OUTLINES_TOP
100
AcDbPolyline
 90
        2
 70
         0
 43
0.1
 10
-13.3
 20
26.4
 10
-16.3
 20
26.4
  0
LWPOLYLINE
  5
5B
100
AcDbEntity
  8
ASSEMBLY_OUTLINES_TOP
100
AcDbPolyline
 90
        2
 70
         0
 43
0.1
 10
-13.3
 20
26.5
 10
-16.3
 20
26.5
  0
LWPOLYLINE
  5
5C
100
AcDbEntity
  8
ASSEMBLY_OUTLINES_TOP
100
AcDbPolyline
 90
        2
 70
         0
 43
0.1
 10
-13.3
 20
26.6
 10
-16.3
 20
26.6
  0
LWPOLYLINE
  5
5D
100
AcDbEntity
  8
ASSEMBLY_OUTLINES_TOP
100
AcDbPolyline
 90
        2
 70
         0
 10
55.45
 20
60.95
 10
47.95
 20
60.95
  0
LWPOLYLINE
  5
5E
100
AcDbEntity
  8
ASSEMBLY_OUTLINES_TOP
100
AcDbPolyline
 90
        2
 70
         0
 10
55.45
 20
56.95
 10
47.95
 20
56.95
  0
LWPOLYLINE
  5
5F
100
AcDbEntity
  8
ASSEMBLY_OUTLINES_TOP
100
AcDbPolyline
 90
        2
 70
         0
 10
47.95
 20
60.95
 42
1.0
 10
47.95
 20
56.95
  0
LWPOLYLINE
  5
60
100
AcDbEntity
  8
ASSEMBLY_OUTLINES_TOP
100
AcDbPolyline
 90
        2
 70
         0
 10
55.45
 20
56.95
 42
1.0
 10
55.45
 20
60.95
  0
LWPOLYLINE
  5
61
100
AcDbEntity
  8
ASSEMBLY_OUTLINES_TOP
100
AcDbPolyline
 90
        4
 70
         1
 43
0.1
 10
84.2
 20
25.6
 10
84.2
 20
32.6
 10
91.2
 20
32.6
 10
91.2
 20
25.6
  0
LWPOLYLINE
  5
62
100
AcDbEntity
  8
ASSEMBLY_OUTLINES_TOP
100
AcDbPolyline
 90
        2
 70
         1
 43
0.1
 10
89.7
 20
31.6
 42
-1.0
 10
90.7
 20
31.6
 42
-1.0
  0
LWPOLYLINE
  5
63
100
AcDbEntity
  8
ASSEMBLY_OUTLINES_TOP
100
AcDbPolyline
 90
        4
 70
         1
 10
-8.94
 20
-5.89
 10
-8.94
 20
0.01
 10
7.06
 20
0.01
 10
7.06
 20
-5.89
  0
LWPOLYLINE
  5
64
100
AcDbEntity
  8
ASSEMBLY_OUTLINES_TOP
100
AcDbPolyline
 90
        4
 70
         1
 10
-16.34
 20
0.01
 10
-16.34
 20
12.41
 10
14.46
 20
12.41
 10
14.46
 20
0.01
  0
LWPOLYLINE
  5
65
100
AcDbEntity
  8
ASSEMBLY_OUTLINES_TOP
100
AcDbPolyline
 90
        4
 70
         1
 10
86.13
 20
17.43
 10
86.13
 20
19.97
 10
91.21
 20
19.97
 10
91.21
 20
17.43
  0
CIRCLE
  5
66
100
AcDbEntity
  8
ASSEMBLY_OUTLINES_TOP
100
AcDbCircle
 10
52.5
 20
45.5
 30
0.0
 40
2.0
  0
LWPOLYLINE
  5
67
100
AcDbEntity
  8
ASSEMBLY_OUTLINES_TOP
100
AcDbPolyline
 90
        4
 70
         1
 10
27.88
 20
19.68
 10
27.88
 20
52.68
 10
36.58
 20
52.68
 10
36.58
 20
19.68
  0
LWPOLYLINE
  5
68
100
AcDbEntity
  8
ASSEMBLY_OUTLINES_TOP
100
AcDbPolyline
 90
        4
 70
         1
 10
36.0
 20
32.75
 10
36.0
 20
39.25
 10
36.58
 20
39.25
 10
36.58
 20
32.75
  0
LWPOLYLINE
  5
69
100
AcDbEntity
  8
ASSEMBLY_OUTLINES_TOP
100
AcDbPolyline
 90
        2
 70
         0
 10
50.46
 20
40.86
 10
50.46
 20
33.36
  0
LWPOLYLINE
  5
6A
100
AcDbEntity
  8
ASSEMBLY_OUTLINES_TOP
100
AcDbPolyline
 90
        2
 70
         0
 10
54.46
 20
40.86
 10
54.46
 20
33.36
  0
LWPOLYLINE
  5
6B
100
AcDbEntity
  8
ASSEMBLY_OUTLINES_TOP
100
AcDbPolyline
 90
        2
 70
         0
 10
50.46
 20
33.36
 42
1.0
 10
54.46
 20
33.36
  0
LWPOLYLINE
  5
6C
100
AcDbEntity
  8
ASSEMBLY_OUTLINES_TOP
100
AcDbPolyline
 90
        2
 70
         0
 10
54.46
 20
40.86
 42
1.0
 10
50.46
 20
40.86
  0
LWPOLYLINE
  5
6D
100
AcDbEntity
  8
ASSEMBLY_OUTLINES_TOP
100
AcDbPolyline
 90
        4
 70
         1
 43
0.1
 10
51.65
 20
16.25
 10
51.65
 20
23.75
 10
64.15
 20
23.75
 10
64.15
 20
16.25
  0
LWPOLYLINE
  5
6E
100
AcDbEntity
  8
ASSEMBLY_OUTLINES_TOP
100
AcDbPolyline
 90
        4
 70
         1
 43
0.1
 10
50.9
 20
14.25
 10
50.9
 20
25.75
 10
64.9
 20
25.75
 10
64.9
 20
14.25
  0
LWPOLYLINE
  5
6F
100
AcDbEntity
  8
ASSEMBLY_OUTLINES_TOP
100
AcDbPolyline
 90
        2
 70
         0
 43
0.1
 10
51.0
 20
14.25
 10
50.9
 20
14.35
  0
LWPOLYLINE
  5
70
100
AcDbEntity
  8
ASSEMBLY_OUTLINES_TOP
100
AcDbPolyline
 90
        2
 70
         0
 43
0.1
 10
51.1
 20
14.25
 10
50.9
 20
14.45
  0
LWPOLYLINE
  5
71
100
AcDbEntity
  8
ASSEMBLY_OUTLINES_TOP
100
AcDbPolyline
 90
        2
 70
         0
 43
0.1
 10
51.2
 20
14.25
 10
50.9
 20
14.55
  0
LWPOLYLINE
  5
72
100
AcDbEntity
  8
ASSEMBLY_OUTLINES_TOP
100
AcDbPolyline
 90
        2
 70
         0
 43
0.1
 10
51.3
 20
14.25
 10
50.9
 20
14.65
  0
LWPOLYLINE
  5
73
100
AcDbEntity
  8
ASSEMBLY_OUTLINES_TOP
100
AcDbPolyline
 90
        2
 70
         0
 43
0.1
 10
51.4
 20
14.25
 10
50.9
 20
14.75
  0
LWPOLYLINE
  5
74
100
AcDbEntity
  8
ASSEMBLY_OUTLINES_TOP
100
AcDbPolyline
 90
        2
 70
         0
 43
0.1
 10
51.5
 20
14.25
 10
50.9
 20
14.85
  0
LWPOLYLINE
  5
75
100
AcDbEntity
  8
ASSEMBLY_OUTLINES_TOP
100
AcDbPolyline
 90
        4
 70
         1
 10
39.43
 20
21.93
 10
39.43
 20
24.47
 10
44.51
 20
24.47
 10
44.51
 20
21.93
  0
LWPOLYLINE
  5
76
100
AcDbEntity
  8
ASSEMBLY_OUTLINES_TOP
100
AcDbPolyline
 90
        4
 70
         1
 43
0.1
 10
-9.95
 20
13.1
 10
-9.95
 20
16.8
 10
-6.95
 20
16.8
 10
-6.95
 20
13.1
  0
LWPOLYLINE
  5
77
100
AcDbEntity
  8
ASSEMBLY_OUTLINES_TOP
100
AcDbPolyline
 90
        2
 70
         0
 43
0.1
 10
-9.95
 20
16.7
 10
-6.95
 20
16.7
  0
LWPOLYLINE
  5
78
100
AcDbEntity
  8
ASSEMBLY_OUTLINES_TOP
100
AcDbPolyline
 90
        2
 70
         0
 43
0.1
 10
-9.95
 20
16.6
 10
-6.95
 20
16.6
  0
LWPOLYLINE
  5
79
100
AcDbEntity
  8
ASSEMBLY_OUTLINES_TOP
100
AcDbPolyline
 90
        2
 70
         0
 43
0.1
 10
-9.95
 20
16.5
 10
-6.95
 20
16.5
  0
LWPOLYLINE
  5
7A
100
AcDbEntity
  8
ASSEMBLY_OUTLINES_TOP
100
AcDbPolyline
 90
        2
 70
         0
 43
0.1
 10
-9.95
 20
16.4
 10
-6.95
 20
16.4
  0
LWPOLYLINE
  5
7B
100
AcDbEntity
  8
ASSEMBLY_OUTLINES_TOP
100
AcDbPolyline
 90
        2
 70
         0
 43
0.1
 10
-9.95
 20
16.3
 10
-6.95
 20
16.3
  0
LWPOLYLINE
  5
7C
100
AcDbEntity
  8
ASSEMBLY_OUTLINES_TOP
100
AcDbPolyline
 90
        2
 70
         0
 43
0.1
 10
-9.95
 20
16.2
 10
-6.95
 20
16.2
  0
LWPOLYLINE
  5
7D
100
AcDbEntity
  8
ASSEMBLY_OUTLINES_TOP
100
AcDbPolyline
 90
        2
 70
         0
 43
0.1
 10
-9.95
 20
16.1
 10
-6.95
 20
16.1
  0
LWPOLYLINE
  5
7E
100
AcDbEntity
  8
ASSEMBLY_OUTLINES_TOP
100
AcDbPolyline
 90
        2
 70
         0
 43
0.1
 10
-9.95
 20
16.0
 10
-6.95
 20
16.0
  0
LWPOLYLINE
  5
7F
100
AcDbEntity
  8
ASSEMBLY_OUTLINES_TOP
100
AcDbPolyline
 90
        4
 70
         1
 43
0.1
 10
1.15
 20
23.05
 10
1.15
 20
26.05
 10
4.85
 20
26.05
 10
4.85
 20
23.05
  0
LWPOLYLINE
  5
80
100
AcDbEntity
  8
ASSEMBLY_OUTLINES_TOP
100
AcDbPolyline
 90
        2
 70
         0
 43
0.1
 10
4.75
 20
26.05
 10
4.75
 20
23.05
  0
LWPOLYLINE
  5
81
100
AcDbEntity
  8
ASSEMBLY_OUTLINES_TOP
100
AcDbPolyline
 90
        2
 70
         0
 43
0.1
 10
4.65
 20
26.05
 10
4.65
 20
23.05
  0
LWPOLYLINE
  5
82
100
AcDbEntity
  8
ASSEMBLY_OUTLINES_TOP
100
AcDbPolyline
 90
        2
 70
         0
 43
0.1
 10
4.55
 20
26.05
 10
4.55
 20
23.05
  0
LWPOLYLINE
  5
83
100
AcDbEntity
  8
ASSEMBLY_OUTLINES_TOP
100
AcDbPolyline
 90
        2
 70
         0
 43
0.1
 10
4.45
 20
26.05
 10
4.45
 20
23.05
  0
LWPOLYLINE
  5
84
100
AcDbEntity
  8
ASSEMBLY_OUTLINES_TOP
100
AcDbPolyline
 90
        2
 70
         0
 43
0.1
 10
4.35
 20
26.05
 10
4.35
 20
23.05
  0
LWPOLYLINE
  5
85
100
AcDbEntity
  8
ASSEMBLY_OUTLINES_TOP
100
AcDbPolyline
 90
        2
 70
         0
 43
0.1
 10
4.25
 20
26.05
 10
4.25
 20
23.05
  0
LWPOLYLINE
  5
86
100
AcDbEntity
  8
ASSEMBLY_OUTLINES_TOP
100
AcDbPolyline
 90
        2
 70
         0
 43
0.1
 10
4.15
 20
26.05
 10
4.15
 20
23.05
  0
LWPOLYLINE
  5
87
100
AcDbEntity
  8
ASSEMBLY_OUTLINES_TOP
100
AcDbPolyline
 90
        2
 70
         0
 43
0.1
 10
4.05
 20
26.05
 10
4.05
 20
23.05
  0
LWPOLYLINE
  5
88
100
AcDbEntity
  8
ASSEMBLY_OUTLINES_TOP
100
AcDbPolyline
 90
        4
 70
         1
 10
94.28
 20
34.08
 10
94.28
 20
36.62
 10
96.82
 20
36.62
 10
96.82
 20
34.08
  0
LWPOLYLINE
  5
89
100
AcDbEntity
  8
ASSEMBLY_OUTLINES_TOP
100
AcDbPolyline
 90
        4
 70
         1
 10
-13.81
 20
40.08
 10
-13.81
 20
42.62
 10
-8.73
 20
42.62
 10
-8.73
 20
40.08
  0
LWPOLYLINE
  5
8A
100
AcDbEntity
  8
ASSEMBLY_OUTLINES_TOP
100
AcDbPolyline
 90
        4
 70
         1
 10
70.93
 20
0.89
 10
70.93
 20
5.97
 10
73.47
 20
5.97
 10
73.47
 20
0.89
  0
LWPOLYLINE
  5
8B
100
AcDbEntity
  8
ASSEMBLY_OUTLINES_TOP
100
AcDbPolyline
 90
        4
 70
         1
 43
0.1
 10
63.025
 20
67.325
 10
63.025
 20
70.375
 10
66.075
 20
70.375
 10
66.075
 20
67.325
  0
LWPOLYLINE
  5
8C
100
AcDbEntity
  8
ASSEMBLY_OUTLINES_TOP
100
AcDbPolyline
 90
        2
 70
         1
 43
0.1
 10
63.298616
 20
67.825
 42
-1.0
 10
63.751384
 20
67.825
 42
-1.0
  0
LWPOLYLINE
  5
8D
100
AcDbEntity
  8
ASSEMBLY_OUTLINES_TOP
100
AcDbPolyline
 90
        4
 70
         1
 43
0.1
 10
-11.9
 20
23.1
 10
-11.9
 20
26.1
 10
-8.2
 20
26.1
 10
-8.2
 20
23.1
  0
LWPOLYLINE
  5
8E
100
AcDbEntity
  8
ASSEMBLY_OUTLINES_TOP
100
AcDbPolyline
 90
        2
 70
         0
 43
0.1
 10
-8.3
 20
26.1
 10
-8.3
 20
23.1
  0
LWPOLYLINE
  5
8F
100
AcDbEntity
  8
ASSEMBLY_OUTLINES_TOP
100
AcDbPolyline
 90
        2
 70
         0
 43
0.1
 10
-8.4
 20
26.1
 10
-8.4
 20
23.1
  0
LWPOLYLINE
  5
90
100
AcDbEntity
  8
ASSEMBLY_OUTLINES_TOP
100
AcDbPolyline
 90
        2
 70
         0
 43
0.1
 10
-8.5
 20
26.1
 10
-8.5
 20
23.1
  0
LWPOLYLINE
  5
91
100
AcDbEntity
  8
ASSEMBLY_OUTLINES_TOP
100
AcDbPolyline
 90
        2
 70
         0
 43
0.1
 10
-8.6
 20
26.1
 10
-8.6
 20
23.1
  0
LWPOLYLINE
  5
92
100
AcDbEntity
  8
ASSEMBLY_OUTLINES_TOP
100
AcDbPolyline
 90
        2
 70
         0
 43
0.1
 10
-8.7
 20
26.1
 10
-8.7
 20
23.1
  0
LWPOLYLINE
  5
93
100
AcDbEntity
  8
ASSEMBLY_OUTLINES_TOP
100
AcDbPolyline
 90
        2
 70
         0
 43
0.1
 10
-8.8
 20
26.1
 10
-8.8
 20
23.1
  0
LWPOLYLINE
  5
94
100
AcDbEntity
  8
ASSEMBLY_OUTLINES_TOP
100
AcDbPolyline
 90
        2
 70
         0
 43
0.1
 10
-8.9
 20
26.1
 10
-8.9
 20
23.1
  0
LWPOLYLINE
  5
95
100
AcDbEntity
  8
ASSEMBLY_OUTLINES_TOP
100
AcDbPolyline
 90
        2
 70
         0
 43
0.1
 10
-9.0
 20
26.1
 10
-9.0
 20
23.1
  0
LWPOLYLINE
  5
96
100
AcDbEntity
  8
ASSEMBLY_OUTLINES_TOP
100
AcDbPolyline
 90
        4
 70
         1
 43
0.1
 10
-9.0
 20
43.45
 10
-9.0
 20
58.45
 10
6.0
 20
58.45
 10
6.0
 20
43.45
  0
LWPOLYLINE
  5
97
100
AcDbEntity
  8
ASSEMBLY_OUTLINES_TOP
100
AcDbPolyline
 90
        2
 70
         0
 43
0.1
 10
5.9
 20
58.45
 10
6.0
 20
58.35
  0
LWPOLYLINE
  5
98
100
AcDbEntity
  8
ASSEMBLY_OUTLINES_TOP
100
AcDbPolyline
 90
        2
 70
         0
 43
0.1
 10
5.8
 20
58.45
 10
6.0
 20
58.25
  0
LWPOLYLINE
  5
99
100
AcDbEntity
  8
ASSEMBLY_OUTLINES_TOP
100
AcDbPolyline
 90
        2
 70
         0
 43
0.1
 10
5.7
 20
58.45
 10
6.0
 20
58.15
  0
LWPOLYLINE
  5
9A
100
AcDbEntity
  8
ASSEMBLY_OUTLINES_TOP
100
AcDbPolyline
 90
        2
 70
         0
 43
0.1
 10
5.6
 20
58.45
 10
6.0
 20
58.05
  0
LWPOLYLINE
  5
9B
100
AcDbEntity
  8
ASSEMBLY_OUTLINES_TOP
100
AcDbPolyline
 90
        2
 70
         0
 43
0.1
 10
5.5
 20
58.45
 10
6.0
 20
57.95
  0
LWPOLYLINE
  5
9C
100
AcDbEntity
  8
ASSEMBLY_OUTLINES_TOP
100
AcDbPolyline
 90
        2
 70
         0
 43
0.1
 10
5.4
 20
58.45
 10
6.0
 20
57.85
  0
LWPOLYLINE
  5
9D
100
AcDbEntity
  8
ASSEMBLY_OUTLINES_TOP
100
AcDbPolyline
 90
        8
 70
         1
 43
0.1
 10
10.65
 20
27.75
 10
13.95
 20
27.75
 42
0.4142135624
 10
14.95
 20
28.75
 10
14.95
 20
31.95
 42
0.4142135624
 10
13.95
 20
32.95
 10
10.65
 20
32.95
 42
0.4142135624
 10
9.65
 20
31.95
 10
9.65
 20
28.75
 42
0.4142135624
  0
LWPOLYLINE
  5
9E
100
AcDbEntity
  8
ASSEMBLY_OUTLINES_TOP
100
AcDbPolyline
 90
        4
 70
         1
 10
44.28
 20
63.88
 10
44.28
 20
68.96
 10
46.82
 20
68.96
 10
46.82
 20
63.88
  0
LWPOLYLINE
  5
9F
100
AcDbEntity
  8
ASSEMBLY_OUTLINES_TOP
100
AcDbPolyline
 90
        4
 70
         1
 43
0.1
 10
44.25
 20
11.9
 10
44.25
 20
13.6
 10
47.35
 20
13.6
 10
47.35
 20
11.9
  0
LWPOLYLINE
  5
A0
100
AcDbEntity
  8
ASSEMBLY_OUTLINES_TOP
100
AcDbPolyline
 90
        2
 70
         0
 43
0.1
 10
47.25
 20
13.6
 10
47.25
 20
11.9
  0
LWPOLYLINE
  5
A1
100
AcDbEntity
  8
ASSEMBLY_OUTLINES_TOP
100
AcDbPolyline
 90
        2
 70
         0
 43
0.1
 10
47.15
 20
13.6
 10
47.15
 20
11.9
  0
LWPOLYLINE
  5
A2
100
AcDbEntity
  8
ASSEMBLY_OUTLINES_TOP
100
AcDbPolyline
 90
        2
 70
         0
 43
0.1
 10
47.05
 20
13.6
 10
47.05
 20
11.9
  0
LWPOLYLINE
  5
A3
100
AcDbEntity
  8
ASSEMBLY_OUTLINES_TOP
100
AcDbPolyline
 90
        2
 70
         0
 43
0.1
 10
46.95
 20
13.6
 10
46.95
 20
11.9
  0
LWPOLYLINE
  5
A4
100
AcDbEntity
  8
ASSEMBLY_OUTLINES_TOP
100
AcDbPolyline
 90
        2
 70
         0
 43
0.1
 10
46.85
 20
13.6
 10
46.85
 20
11.9
  0
LWPOLYLINE
  5
A5
100
AcDbEntity
  8
ASSEMBLY_OUTLINES_TOP
100
AcDbPolyline
 90
        2
 70
         0
 43
0.1
 10
46.75
 20
13.6
 10
46.75
 20
11.9
  0
LWPOLYLINE
  5
A6
100
AcDbEntity
  8
ASSEMBLY_OUTLINES_TOP
100
AcDbPolyline
 90
        4
 70
         1
 10
45.34
 20
22.58
 10
45.34
 20
25.12
 10
50.42
 20
25.12
 10
50.42
 20
22.58
  0
LWPOLYLINE
  5
A7
100
AcDbEntity
  8
ASSEMBLY_OUTLINES_TOP
100
AcDbPolyline
 90
        4
 70
         1
 10
29.7
 20
0.0
 10
29.7
 20
12.1
 10
43.1
 20
12.1
 10
43.1
 20
0.0
  0
LWPOLYLINE
  5
A8
100
AcDbEntity
  8
ASSEMBLY_OUTLINES_TOP
100
AcDbPolyline
 90
        4
 70
         1
 10
30.4
 20
-7.0
 10
30.4
 20
0.0
 10
41.4
 20
0.0
 10
41.4
 20
-7.0
  0
LWPOLYLINE
  5
A9
100
AcDbEntity
  8
ASSEMBLY_OUTLINES_TOP
100
AcDbPolyline
 90
        4
 70
         1
 10
26.4
 20
65.3
 10
26.4
 20
67.3
 10
41.4
 20
67.3
 10
41.4
 20
65.3
  0
LWPOLYLINE
  5
AA
100
AcDbEntity
  8
ASSEMBLY_OUTLINES_TOP
100
AcDbPolyline
 90
        8
 70
         1
 43
0.1
 10
13.95
 20
38.6
 10
10.65
 20
38.6
 42
0.4142135624
 10
9.65
 20
37.6
 10
9.65
 20
34.4
 42
0.4142135624
 10
10.65
 20
33.4
 10
13.95
 20
33.4
 42
0.4142135624
 10
14.95
 20
34.4
 10
14.95
 20
37.6
 42
0.4142135624
  0
LWPOLYLINE
  5
AB
100
AcDbEntity
  8
ASSEMBLY_OUTLINES_TOP
100
AcDbPolyline
 90
        4
 70
         1
 43
0.1
 10
-5.4
 20
23.05
 10
-5.4
 20
26.05
 10
-1.7
 20
26.05
 10
-1.7
 20
23.05
  0
LWPOLYLINE
  5
AC
100
AcDbEntity
  8
ASSEMBLY_OUTLINES_TOP
100
AcDbPolyline
 90
        2
 70
         0
 43
0.1
 10
-1.8
 20
26.05
 10
-1.8
 20
23.05
  0
LWPOLYLINE
  5
AD
100
AcDbEntity
  8
ASSEMBLY_OUTLINES_TOP
100
AcDbPolyline
 90
        2
 70
         0
 43
0.1
 10
-1.9
 20
26.05
 10
-1.9
 20
23.05
  0
LWPOLYLINE
  5
AE
100
AcDbEntity
  8
ASSEMBLY_OUTLINES_TOP
100
AcDbPolyline
 90
        2
 70
         0
 43
0.1
 10
-2.0
 20
26.05
 10
-2.0
 20
23.05
  0
LWPOLYLINE
  5
AF
100
AcDbEntity
  8
ASSEMBLY_OUTLINES_TOP
100
AcDbPolyline
 90
        2
 70
         0
 43
0.1
 10
-2.1
 20
26.05
 10
-2.1
 20
23.05
  0
LWPOLYLINE
  5
B0
100
AcDbEntity
  8
ASSEMBLY_OUTLINES_TOP
100
AcDbPolyline
 90
        2
 70
         0
 43
0.1
 10
-2.2
 20
26.05
 10
-2.2
 20
23.05
  0
LWPOLYLINE
  5
B1
100
AcDbEntity
  8
ASSEMBLY_OUTLINES_TOP
100
AcDbPolyline
 90
        2
 70
         0
 43
0.1
 10
-2.3
 20
26.05
 10
-2.3
 20
23.05
  0
LWPOLYLINE
  5
B2
100
AcDbEntity
  8
ASSEMBLY_OUTLINES_TOP
100
AcDbPolyline
 90
        2
 70
         0
 43
0.1
 10
-2.4
 20
26.05
 10
-2.4
 20
23.05
  0
LWPOLYLINE
  5
B3
100
AcDbEntity
  8
ASSEMBLY_OUTLINES_TOP
100
AcDbPolyline
 90
        2
 70
         0
 43
0.1
 10
-2.5
 20
26.05
 10
-2.5
 20
23.05
  0
LWPOLYLINE
  5
B4
100
AcDbEntity
  8
ASSEMBLY_OUTLINES_TOP
100
AcDbPolyline
 90
        4
 70
         1
 43
0.1
 10
47.1
 20
72.95
 10
47.1
 20
76.65
 10
50.1
 20
76.65
 10
50.1
 20
72.95
  0
LWPOLYLINE
  5
B5
100
AcDbEntity
  8
ASSEMBLY_OUTLINES_TOP
100
AcDbPolyline
 90
        2
 70
         0
 43
0.1
 10
50.1
 20
73.05
 10
47.1
 20
73.05
  0
LWPOLYLINE
  5
B6
100
AcDbEntity
  8
ASSEMBLY_OUTLINES_TOP
100
AcDbPolyline
 90
        2
 70
         0
 43
0.1
 10
50.1
 20
73.15
 10
47.1
 20
73.15
  0
LWPOLYLINE
  5
B7
100
AcDbEntity
  8
ASSEMBLY_OUTLINES_TOP
100
AcDbPolyline
 90
        2
 70
         0
 43
0.1
 10
50.1
 20
73.25
 10
47.1
 20
73.25
  0
LWPOLYLINE
  5
B8
100
AcDbEntity
  8
ASSEMBLY_OUTLINES_TOP
100
AcDbPolyline
 90
        2
 70
         0
 43
0.1
 10
50.1
 20
73.35
 10
47.1
 20
73.35
  0
LWPOLYLINE
  5
B9
100
AcDbEntity
  8
ASSEMBLY_OUTLINES_TOP
100
AcDbPolyline
 90
        2
 70
         0
 43
0.1
 10
50.1
 20
73.45
 10
47.1
 20
73.45
  0
LWPOLYLINE
  5
BA
100
AcDbEntity
  8
ASSEMBLY_OUTLINES_TOP
100
AcDbPolyline
 90
        2
 70
         0
 43
0.1
 10
50.1
 20
73.55
 10
47.1
 20
73.55
  0
LWPOLYLINE
  5
BB
100
AcDbEntity
  8
ASSEMBLY_OUTLINES_TOP
100
AcDbPolyline
 90
        2
 70
         0
 43
0.1
 10
50.1
 20
73.65
 10
47.1
 20
73.65
  0
LWPOLYLINE
  5
BC
100
AcDbEntity
  8
ASSEMBLY_OUTLINES_TOP
100
AcDbPolyline
 90
        2
 70
         0
 43
0.1
 10
50.1
 20
73.75
 10
47.1
 20
73.75
  0
LWPOLYLINE
  5
BD
100
AcDbEntity
  8
ASSEMBLY_OUTLINES_TOP
100
AcDbPolyline
 90
        4
 70
         1
 43
0.1
 10
-3.45
 20
13.1
 10
-3.45
 20
16.8
 10
-0.45
 20
16.8
 10
-0.45
 20
13.1
  0
LWPOLYLINE
  5
BE
100
AcDbEntity
  8
ASSEMBLY_OUTLINES_TOP
100
AcDbPolyline
 90
        2
 70
         0
 43
0.1
 10
-3.45
 20
16.7
 10
-0.45
 20
16.7
  0
LWPOLYLINE
  5
BF
100
AcDbEntity
  8
ASSEMBLY_OUTLINES_TOP
100
AcDbPolyline
 90
        2
 70
         0
 43
0.1
 10
-3.45
 20
16.6
 10
-0.45
 20
16.6
  0
LWPOLYLINE
  5
C0
100
AcDbEntity
  8
ASSEMBLY_OUTLINES_TOP
100
AcDbPolyline
 90
        2
 70
         0
 43
0.1
 10
-3.45
 20
16.5
 10
-0.45
 20
16.5
  0
LWPOLYLINE
  5
C1
100
AcDbEntity
  8
ASSEMBLY_OUTLINES_TOP
100
AcDbPolyline
 90
        2
 70
         0
 43
0.1
 10
-3.45
 20
16.4
 10
-0.45
 20
16.4
  0
LWPOLYLINE
  5
C2
100
AcDbEntity
  8
ASSEMBLY_OUTLINES_TOP
100
AcDbPolyline
 90
        2
 70
         0
 43
0.1
 10
-3.45
 20
16.3
 10
-0.45
 20
16.3
  0
LWPOLYLINE
  5
C3
100
AcDbEntity
  8
ASSEMBLY_OUTLINES_TOP
100
AcDbPolyline
 90
        2
 70
         0
 43
0.1
 10
-3.45
 20
16.2
 10
-0.45
 20
16.2
  0
LWPOLYLINE
  5
C4
100
AcDbEntity
  8
ASSEMBLY_OUTLINES_TOP
100
AcDbPolyline
 90
        2
 70
         0
 43
0.1
 10
-3.45
 20
16.1
 10
-0.45
 20
16.1
  0
LWPOLYLINE
  5
C5
100
AcDbEntity
  8
ASSEMBLY_OUTLINES_TOP
100
AcDbPolyline
 90
        2
 70
         0
 43
0.1
 10
-3.45
 20
16.0
 10
-0.45
 20
16.0
  0
LWPOLYLINE
  5
C6
100
AcDbEntity
  8
ASSEMBLY_OUTLINES_TOP
100
AcDbPolyline
 90
        4
 70
         1
 10
16.95
 20
-4.77
 10
16.95
 20
2.23
 10
25.35
 20
2.23
 10
25.35
 20
-4.77
  0
LWPOLYLINE
  5
C7
100
AcDbEntity
  8
ASSEMBLY_OUTLINES_TOP
100
AcDbPolyline
 90
        4
 70
         1
 10
15.45
 20
2.23
 10
15.45
 20
8.73
 10
26.95
 20
8.73
 10
26.95
 20
2.23
  0
LWPOLYLINE
  5
C8
100
AcDbEntity
  8
ASSEMBLY_OUTLINES_TOP
100
AcDbPolyline
 90
        8
 70
         1
 43
0.1
 10
0.15
 20
21.8
 10
0.15
 20
18.5
 42
0.4142135624
 10
1.15
 20
17.5
 10
4.35
 20
17.5
 42
0.4142135624
 10
5.35
 20
18.5
 10
5.35
 20
21.8
 42
0.4142135624
 10
4.35
 20
22.8
 10
1.15
 20
22.8
 42
0.4142135624
  0
LWPOLYLINE
  5
C9
100
AcDbEntity
  8
ASSEMBLY_OUTLINES_TOP
100
AcDbPolyline
 90
        8
 70
         1
 43
0.1
 10
6.6
 20
21.8
 10
6.6
 20
18.5
 42
0.4142135624
 10
7.6
 20
17.5
 10
10.8
 20
17.5
 42
0.4142135624
 10
11.8
 20
18.5
 10
11.8
 20
21.8
 42
0.4142135624
 10
10.8
 20
22.8
 10
7.6
 20
22.8
 42
0.4142135624
  0
LWPOLYLINE
  5
CA
100
AcDbEntity
  8
ASSEMBLY_OUTLINES_TOP
100
AcDbPolyline
 90
        4
 70
         1
 10
64.51
 20
71.78
 10
64.51
 20
74.32
 10
72.01
 20
74.32
 10
72.01
 20
71.78
  0
LWPOLYLINE
  5
CB
100
AcDbEntity
  8
ASSEMBLY_OUTLINES_TOP
100
AcDbPolyline
 90
        4
 70
         1
 43
0.1
 10
55.3
 20
27.6
 10
55.3
 20
46.6
 10
74.3
 20
46.6
 10
74.3
 20
27.6
  0
LWPOLYLINE
  5
CC
100
AcDbEntity
  8
ASSEMBLY_OUTLINES_TOP
100
AcDbPolyline
 90
        2
 70
         0
 43
0.1
 10
74.2
 20
46.6
 10
74.3
 20
46.5
  0
LWPOLYLINE
  5
CD
100
AcDbEntity
  8
ASSEMBLY_OUTLINES_TOP
100
AcDbPolyline
 90
        2
 70
         0
 43
0.1
 10
74.1
 20
46.6
 10
74.3
 20
46.4
  0
LWPOLYLINE
  5
CE
100
AcDbEntity
  8
ASSEMBLY_OUTLINES_TOP
100
AcDbPolyline
 90
        2
 70
         0
 43
0.1
 10
74.0
 20
46.6
 10
74.3
 20
46.3
  0
LWPOLYLINE
  5
CF
100
AcDbEntity
  8
ASSEMBLY_OUTLINES_TOP
100
AcDbPolyline
 90
        2
 70
         0
 43
0.1
 10
73.9
 20
46.6
 10
74.3
 20
46.2
  0
LWPOLYLINE
  5
D0
100
AcDbEntity
  8
ASSEMBLY_OUTLINES_TOP
100
AcDbPolyline
 90
        2
 70
         0
 43
0.1
 10
73.8
 20
46.6
 10
74.3
 20
46.1
  0
LWPOLYLINE
  5
D1
100
AcDbEntity
  8
ASSEMBLY_OUTLINES_TOP
100
AcDbPolyline
 90
        2
 70
         0
 43
0.1
 10
73.7
 20
46.6
 10
74.3
 20
46.0
  0
LWPOLYLINE
  5
D2
100
AcDbEntity
  8
ASSEMBLY_OUTLINES_TOP
100
AcDbPolyline
 90
        8
 70
         0
 10
75.75
 20
70.9
 42
-2.549150321
 10
75.75
 20
60.7
 10
75.75
 20
58.8
 10
73.75
 20
58.8
 10
73.75
 20
72.8
 10
75.75
 20
72.8
 10
75.75
 20
70.9
 10
75.75
 20
71.0
  0
LWPOLYLINE
  5
D3
100
AcDbEntity
  8
ASSEMBLY_OUTLINES_TOP
100
AcDbPolyline
 90
        4
 70
         1
 10
43.93
 20
4.43
 10
43.93
 20
9.51
 10
46.47
 20
9.51
 10
46.47
 20
4.43
  0
LWPOLYLINE
  5
D4
100
AcDbEntity
  8
ASSEMBLY_OUTLINES_TOP
100
AcDbPolyline
 90
        4
 70
         1
 43
0.1
 10
45.55
 20
50.15
 10
45.55
 20
54.15
 10
50.55
 20
54.15
 10
50.55
 20
50.15
  0
LWPOLYLINE
  5
D5
100
AcDbEntity
  8
ASSEMBLY_OUTLINES_TOP
100
AcDbPolyline
 90
        2
 70
         1
 43
0.1
 10
46.05
 20
51.15
 42
-1.0
 10
47.05
 20
51.15
 42
-1.0
  0
LWPOLYLINE
  5
D6
100
AcDbEntity
  8
ASSEMBLY_OUTLINES_TOP
100
AcDbPolyline
 90
        4
 70
         1
 43
0.1
 10
15.3
 20
34.9
 10
15.3
 20
37.9
 10
18.3
 20
37.9
 10
18.3
 20
34.9
  0
LWPOLYLINE
  5
D7
100
AcDbEntity
  8
ASSEMBLY_OUTLINES_TOP
100
AcDbPolyline
 90
        2
 70
         0
 43
0.1
 10
18.2
 20
37.9
 10
18.3
 20
37.8
  0
LWPOLYLINE
  5
D8
100
AcDbEntity
  8
ASSEMBLY_OUTLINES_TOP
100
AcDbPolyline
 90
        2
 70
         0
 43
0.1
 10
18.1
 20
37.9
 10
18.3
 20
37.7
  0
LWPOLYLINE
  5
D9
100
AcDbEntity
  8
ASSEMBLY_OUTLINES_TOP
100
AcDbPolyline
 90
        2
 70
         0
 43
0.1
 10
18.0
 20
37.9
 10
18.3
 20
37.6
  0
LWPOLYLINE
  5
DA
100
AcDbEntity
  8
ASSEMBLY_OUTLINES_TOP
100
AcDbPolyline
 90
        2
 70
         0
 43
0.1
 10
17.9
 20
37.9
 10
18.3
 20
37.5
  0
LWPOLYLINE
  5
DB
100
AcDbEntity
  8
ASSEMBLY_OUTLINES_TOP
100
AcDbPolyline
 90
        2
 70
         0
 43
0.1
 10
17.8
 20
37.9
 10
18.3
 20
37.4
  0
LWPOLYLINE
  5
DC
100
AcDbEntity
  8
ASSEMBLY_OUTLINES_TOP
100
AcDbPolyline
 90
        2
 70
         0
 43
0.1
 10
17.7
 20
37.9
 10
18.3
 20
37.3
  0
LWPOLYLINE
  5
DD
100
AcDbEntity
  8
ASSEMBLY_OUTLINES_TOP
100
AcDbPolyline
 90
        4
 70
         1
 10
-21.5
 20
76.825
 10
-21.5
 20
81.905
 10
29.3
 20
81.905
 10
29.3
 20
76.825
  0
CIRCLE
  5
DE
100
AcDbEntity
  8
ASSEMBLY_OUTLINES_TOP
100
AcDbCircle
 10
-20.231775
 20
78.08456
 30
0.0
 40
0.45
  0
HATCH
  5
DF
100
AcDbEntity
  8
ASSEMBLY_OUTLINES_TOP
100
AcDbHatch
 10
0.0
 20
0.0
 30
0.0
210
0.0
220
0.0
230
1.0
  2
SOLID
 70
         1
 71
         1
 91
        1
 92
        1
 93
        1
 72
         2
 10
-20.231774999999999
 20
78.084559999999996
 40
0.45
 50
0.0
 51
360.0
 73
         1
 97
        1
330
DE
 75
         0
 76
         1
 98
        1
 10
0.0
 20
0.0
  0
CIRCLE
  5
E0
100
AcDbEntity
  8
ASSEMBLY_OUTLINES_TOP
100
AcDbCircle
 10
-17.691775
 20
78.08456
 30
0.0
 40
0.45
  0
HATCH
  5
E1
100
AcDbEntity
  8
ASSEMBLY_OUTLINES_TOP
100
AcDbHatch
 10
0.0
 20
0.0
 30
0.0
210
0.0
220
0.0
230
1.0
  2
SOLID
 70
         1
 71
         1
 91
        1
 92
        1
 93
        1
 72
         2
 10
-17.691775
 20
78.084559999999996
 40
0.45
 50
0.0
 51
360.0
 73
         1
 97
        1
330
E0
 75
         0
 76
         1
 98
        1
 10
0.0
 20
0.0
  0
CIRCLE
  5
E2
100
AcDbEntity
  8
ASSEMBLY_OUTLINES_TOP
100
AcDbCircle
 10
-15.151775
 20
78.08456
 30
0.0
 40
0.45
  0
HATCH
  5
E3
100
AcDbEntity
  8
ASSEMBLY_OUTLINES_TOP
100
AcDbHatch
 10
0.0
 20
0.0
 30
0.0
210
0.0
220
0.0
230
1.0
  2
SOLID
 70
         1
 71
         1
 91
        1
 92
        1
 93
        1
 72
         2
 10
-15.151775000000001
 20
78.084559999999996
 40
0.45
 50
0.0
 51
360.0
 73
         1
 97
        1
330
E2
 75
         0
 76
         1
 98
        1
 10
0.0
 20
0.0
  0
CIRCLE
  5
E4
100
AcDbEntity
  8
ASSEMBLY_OUTLINES_TOP
100
AcDbCircle
 10
-12.611775
 20
78.08456
 30
0.0
 40
0.45
  0
HATCH
  5
E5
100
AcDbEntity
  8
ASSEMBLY_OUTLINES_TOP
100
AcDbHatch
 10
0.0
 20
0.0
 30
0.0
210
0.0
220
0.0
230
1.0
  2
SOLID
 70
         1
 71
         1
 91
        1
 92
        1
 93
        1
 72
         2
 10
-12.611775
 20
78.084559999999996
 40
0.45
 50
0.0
 51
360.0
 73
         1
 97
        1
330
E4
 75
         0
 76
         1
 98
        1
 10
0.0
 20
0.0
  0
CIRCLE
  5
E6
100
AcDbEntity
  8
ASSEMBLY_OUTLINES_TOP
100
AcDbCircle
 10
-10.071775
 20
78.08456
 30
0.0
 40
0.45
  0
HATCH
  5
E7
100
AcDbEntity
  8
ASSEMBLY_OUTLINES_TOP
100
AcDbHatch
 10
0.0
 20
0.0
 30
0.0
210
0.0
220
0.0
230
1.0
  2
SOLID
 70
         1
 71
         1
 91
        1
 92
        1
 93
        1
 72
         2
 10
-10.071775000000001
 20
78.084559999999996
 40
0.45
 50
0.0
 51
360.0
 73
         1
 97
        1
330
E6
 75
         0
 76
         1
 98
        1
 10
0.0
 20
0.0
  0
CIRCLE
  5
E8
100
AcDbEntity
  8
ASSEMBLY_OUTLINES_TOP
100
AcDbCircle
 10
-7.531775
 20
78.08456
 30
0.0
 40
0.45
  0
HATCH
  5
E9
100
AcDbEntity
  8
ASSEMBLY_OUTLINES_TOP
100
AcDbHatch
 10
0.0
 20
0.0
 30
0.0
210
0.0
220
0.0
230
1.0
  2
SOLID
 70
         1
 71
         1
 91
        1
 92
        1
 93
        1
 72
         2
 10
-7.5317749999999997
 20
78.084559999999996
 40
0.45
 50
0.0
 51
360.0
 73
         1
 97
        1
330
E8
 75
         0
 76
         1
 98
        1
 10
0.0
 20
0.0
  0
CIRCLE
  5
EA
100
AcDbEntity
  8
ASSEMBLY_OUTLINES_TOP
100
AcDbCircle
 10
-4.991775
 20
78.08456
 30
0.0
 40
0.45
  0
HATCH
  5
EB
100
AcDbEntity
  8
ASSEMBLY_OUTLINES_TOP
100
AcDbHatch
 10
0.0
 20
0.0
 30
0.0
210
0.0
220
0.0
230
1.0
  2
SOLID
 70
         1
 71
         1
 91
        1
 92
        1
 93
        1
 72
         2
 10
-4.9917749999999996
 20
78.084559999999996
 40
0.45
 50
0.0
 51
360.0
 73
         1
 97
        1
330
EA
 75
         0
 76
         1
 98
        1
 10
0.0
 20
0.0
  0
CIRCLE
  5
EC
100
AcDbEntity
  8
ASSEMBLY_OUTLINES_TOP
100
AcDbCircle
 10
-2.451775
 20
78.08456
 30
0.0
 40
0.45
  0
HATCH
  5
ED
100
AcDbEntity
  8
ASSEMBLY_OUTLINES_TOP
100
AcDbHatch
 10
0.0
 20
0.0
 30
0.0
210
0.0
220
0.0
230
1.0
  2
SOLID
 70
         1
 71
         1
 91
        1
 92
        1
 93
        1
 72
         2
 10
-2.451775
 20
78.084559999999996
 40
0.45
 50
0.0
 51
360.0
 73
         1
 97
        1
330
EC
 75
         0
 76
         1
 98
        1
 10
0.0
 20
0.0
  0
CIRCLE
  5
EE
100
AcDbEntity
  8
ASSEMBLY_OUTLINES_TOP
100
AcDbCircle
 10
0.088225
 20
78.08456
 30
0.0
 40
0.45
  0
HATCH
  5
EF
100
AcDbEntity
  8
ASSEMBLY_OUTLINES_TOP
100
AcDbHatch
 10
0.0
 20
0.0
 30
0.0
210
0.0
220
0.0
230
1.0
  2
SOLID
 70
         1
 71
         1
 91
        1
 92
        1
 93
        1
 72
         2
 10
0.088225
 20
78.084559999999996
 40
0.45
 50
0.0
 51
360.0
 73
         1
 97
        1
330
EE
 75
         0
 76
         1
 98
        1
 10
0.0
 20
0.0
  0
CIRCLE
  5
F0
100
AcDbEntity
  8
ASSEMBLY_OUTLINES_TOP
100
AcDbCircle
 10
2.628225
 20
78.08456
 30
0.0
 40
0.45
  0
HATCH
  5
F1
100
AcDbEntity
  8
ASSEMBLY_OUTLINES_TOP
100
AcDbHatch
 10
0.0
 20
0.0
 30
0.0
210
0.0
220
0.0
230
1.0
  2
SOLID
 70
         1
 71
         1
 91
        1
 92
        1
 93
        1
 72
         2
 10
2.628225
 20
78.084559999999996
 40
0.45
 50
0.0
 51
360.0
 73
         1
 97
        1
330
F0
 75
         0
 76
         1
 98
        1
 10
0.0
 20
0.0
  0
CIRCLE
  5
F2
100
AcDbEntity
  8
ASSEMBLY_OUTLINES_TOP
100
AcDbCircle
 10
5.171774
 20
78.07544
 30
0.0
 40
0.45
  0
HATCH
  5
F3
100
AcDbEntity
  8
ASSEMBLY_OUTLINES_TOP
100
AcDbHatch
 10
0.0
 20
0.0
 30
0.0
210
0.0
220
0.0
230
1.0
  2
SOLID
 70
         1
 71
         1
 91
        1
 92
        1
 93
        1
 72
         2
 10
5.1717740000000001
 20
78.07544
 40
0.45
 50
0.0
 51
360.0
 73
         1
 97
        1
330
F2
 75
         0
 76
         1
 98
        1
 10
0.0
 20
0.0
  0
CIRCLE
  5
F4
100
AcDbEntity
  8
ASSEMBLY_OUTLINES_TOP
100
AcDbCircle
 10
7.711774
 20
78.07544
 30
0.0
 40
0.45
  0
HATCH
  5
F5
100
AcDbEntity
  8
ASSEMBLY_OUTLINES_TOP
100
AcDbHatch
 10
0.0
 20
0.0
 30
0.0
210
0.0
220
0.0
230
1.0
  2
SOLID
 70
         1
 71
         1
 91
        1
 92
        1
 93
        1
 72
         2
 10
7.7117740000000001
 20
78.07544
 40
0.45
 50
0.0
 51
360.0
 73
         1
 97
        1
330
F4
 75
         0
 76
         1
 98
        1
 10
0.0
 20
0.0
  0
CIRCLE
  5
F6
100
AcDbEntity
  8
ASSEMBLY_OUTLINES_TOP
100
AcDbCircle
 10
10.251774
 20
78.07544
 30
0.0
 40
0.45
  0
HATCH
  5
F7
100
AcDbEntity
  8
ASSEMBLY_OUTLINES_TOP
100
AcDbHatch
 10
0.0
 20
0.0
 30
0.0
210
0.0
220
0.0
230
1.0
  2
SOLID
 70
         1
 71
         1
 91
        1
 92
        1
 93
        1
 72
         2
 10
10.251773999999999
 20
78.07544
 40
0.45
 50
0.0
 51
360.0
 73
         1
 97
        1
330
F6
 75
         0
 76
         1
 98
        1
 10
0.0
 20
0.0
  0
CIRCLE
  5
F8
100
AcDbEntity
  8
ASSEMBLY_OUTLINES_TOP
100
AcDbCircle
 10
12.791774
 20
78.07544
 30
0.0
 40
0.45
  0
HATCH
  5
F9
100
AcDbEntity
  8
ASSEMBLY_OUTLINES_TOP
100
AcDbHatch
 10
0.0
 20
0.0
 30
0.0
210
0.0
220
0.0
230
1.0
  2
SOLID
 70
         1
 71
         1
 91
        1
 92
        1
 93
        1
 72
         2
 10
12.791774
 20
78.07544
 40
0.45
 50
0.0
 51
360.0
 73
         1
 97
        1
330
F8
 75
         0
 76
         1
 98
        1
 10
0.0
 20
0.0
  0
CIRCLE
  5
FA
100
AcDbEntity
  8
ASSEMBLY_OUTLINES_TOP
100
AcDbCircle
 10
15.331774
 20
78.07544
 30
0.0
 40
0.45
  0
HATCH
  5
FB
100
AcDbEntity
  8
ASSEMBLY_OUTLINES_TOP
100
AcDbHatch
 10
0.0
 20
0.0
 30
0.0
210
0.0
220
0.0
230
1.0
  2
SOLID
 70
         1
 71
         1
 91
        1
 92
        1
 93
        1
 72
         2
 10
15.331773999999999
 20
78.07544
 40
0.45
 50
0.0
 51
360.0
 73
         1
 97
        1
330
FA
 75
         0
 76
         1
 98
        1
 10
0.0
 20
0.0
  0
CIRCLE
  5
FC
100
AcDbEntity
  8
ASSEMBLY_OUTLINES_TOP
100
AcDbCircle
 10
17.871774
 20
78.07544
 30
0.0
 40
0.45
  0
HATCH
  5
FD
100
AcDbEntity
  8
ASSEMBLY_OUTLINES_TOP
100
AcDbHatch
 10
0.0
 20
0.0
 30
0.0
210
0.0
220
0.0
230
1.0
  2
SOLID
 70
         1
 71
         1
 91
        1
 92
        1
 93
        1
 72
         2
 10
17.871773999999998
 20
78.07544
 40
0.45
 50
0.0
 51
360.0
 73
         1
 97
        1
330
FC
 75
         0
 76
         1
 98
        1
 10
0.0
 20
0.0
  0
CIRCLE
  5
FE
100
AcDbEntity
  8
ASSEMBLY_OUTLINES_TOP
100
AcDbCircle
 10
20.411774
 20
78.07544
 30
0.0
 40
0.45
  0
HATCH
  5
FF
100
AcDbEntity
  8
ASSEMBLY_OUTLINES_TOP
100
AcDbHatch
 10
0.0
 20
0.0
 30
0.0
210
0.0
220
0.0
230
1.0
  2
SOLID
 70
         1
 71
         1
 91
        1
 92
        1
 93
        1
 72
         2
 10
20.411774000000001
 20
78.07544
 40
0.45
 50
0.0
 51
360.0
 73
         1
 97
        1
330
FE
 75
         0
 76
         1
 98
        1
 10
0.0
 20
0.0
  0
CIRCLE
  5
100
100
AcDbEntity
  8
ASSEMBLY_OUTLINES_TOP
100
AcDbCircle
 10
22.951774
 20
78.07544
 30
0.0
 40
0.45
  0
HATCH
  5
101
100
AcDbEntity
  8
ASSEMBLY_OUTLINES_TOP
100
AcDbHatch
 10
0.0
 20
0.0
 30
0.0
210
0.0
220
0.0
230
1.0
  2
SOLID
 70
         1
 71
         1
 91
        1
 92
        1
 93
        1
 72
         2
 10
22.951774
 20
78.07544
 40
0.45
 50
0.0
 51
360.0
 73
         1
 97
        1
330
100
 75
         0
 76
         1
 98
        1
 10
0.0
 20
0.0
  0
CIRCLE
  5
102
100
AcDbEntity
  8
ASSEMBLY_OUTLINES_TOP
100
AcDbCircle
 10
25.491774
 20
78.07544
 30
0.0
 40
0.45
  0
HATCH
  5
103
100
AcDbEntity
  8
ASSEMBLY_OUTLINES_TOP
100
AcDbHatch
 10
0.0
 20
0.0
 30
0.0
210
0.0
220
0.0
230
1.0
  2
SOLID
 70
         1
 71
         1
 91
        1
 92
        1
 93
        1
 72
         2
 10
25.491773999999999
 20
78.07544
 40
0.45
 50
0.0
 51
360.0
 73
         1
 97
        1
330
102
 75
         0
 76
         1
 98
        1
 10
0.0
 20
0.0
  0
CIRCLE
  5
104
100
AcDbEntity
  8
ASSEMBLY_OUTLINES_TOP
100
AcDbCircle
 10
28.031774
 20
78.07544
 30
0.0
 40
0.45
  0
HATCH
  5
105
100
AcDbEntity
  8
ASSEMBLY_OUTLINES_TOP
100
AcDbHatch
 10
0.0
 20
0.0
 30
0.0
210
0.0
220
0.0
230
1.0
  2
SOLID
 70
         1
 71
         1
 91
        1
 92
        1
 93
        1
 72
         2
 10
28.031773999999999
 20
78.07544
 40
0.45
 50
0.0
 51
360.0
 73
         1
 97
        1
330
104
 75
         0
 76
         1
 98
        1
 10
0.0
 20
0.0
  0
CIRCLE
  5
106
100
AcDbEntity
  8
ASSEMBLY_OUTLINES_TOP
100
AcDbCircle
 10
-20.23
 20
80.62
 30
0.0
 40
0.45
  0
HATCH
  5
107
100
AcDbEntity
  8
ASSEMBLY_OUTLINES_TOP
100
AcDbHatch
 10
0.0
 20
0.0
 30
0.0
210
0.0
220
0.0
230
1.0
  2
SOLID
 70
         1
 71
         1
 91
        1
 92
        1
 93
        1
 72
         2
 10
-20.23
 20
80.620000000000005
 40
0.45
 50
0.0
 51
360.0
 73
         1
 97
        1
330
106
 75
         0
 76
         1
 98
        1
 10
0.0
 20
0.0
  0
CIRCLE
  5
108
100
AcDbEntity
  8
ASSEMBLY_OUTLINES_TOP
100
AcDbCircle
 10
-17.69
 20
80.62
 30
0.0
 40
0.45
  0
HATCH
  5
109
100
AcDbEntity
  8
ASSEMBLY_OUTLINES_TOP
100
AcDbHatch
 10
0.0
 20
0.0
 30
0.0
210
0.0
220
0.0
230
1.0
  2
SOLID
 70
         1
 71
         1
 91
        1
 92
        1
 93
        1
 72
         2
 10
-17.690000000000001
 20
80.620000000000005
 40
0.45
 50
0.0
 51
360.0
 73
         1
 97
        1
330
108
 75
         0
 76
         1
 98
        1
 10
0.0
 20
0.0
  0
CIRCLE
  5
10A
100
AcDbEntity
  8
ASSEMBLY_OUTLINES_TOP
100
AcDbCircle
 10
-15.15
 20
80.62
 30
0.0
 40
0.45
  0
HATCH
  5
10B
100
AcDbEntity
  8
ASSEMBLY_OUTLINES_TOP
100
AcDbHatch
 10
0.0
 20
0.0
 30
0.0
210
0.0
220
0.0
230
1.0
  2
SOLID
 70
         1
 71
         1
 91
        1
 92
        1
 93
        1
 72
         2
 10
-15.15
 20
80.620000000000005
 40
0.45
 50
0.0
 51
360.0
 73
         1
 97
        1
330
10A
 75
         0
 76
         1
 98
        1
 10
0.0
 20
0.0
  0
CIRCLE
  5
10C
100
AcDbEntity
  8
ASSEMBLY_OUTLINES_TOP
100
AcDbCircle
 10
-12.61
 20
80.62
 30
0.0
 40
0.45
  0
HATCH
  5
10D
100
AcDbEntity
  8
ASSEMBLY_OUTLINES_TOP
100
AcDbHatch
 10
0.0
 20
0.0
 30
0.0
210
0.0
220
0.0
230
1.0
  2
SOLID
 70
         1
 71
         1
 91
        1
 92
        1
 93
        1
 72
         2
 10
-12.609999999999999
 20
80.620000000000005
 40
0.45
 50
0.0
 51
360.0
 73
         1
 97
        1
330
10C
 75
         0
 76
         1
 98
        1
 10
0.0
 20
0.0
  0
CIRCLE
  5
10E
100
AcDbEntity
  8
ASSEMBLY_OUTLINES_TOP
100
AcDbCircle
 10
-10.07
 20
80.62
 30
0.0
 40
0.45
  0
HATCH
  5
10F
100
AcDbEntity
  8
ASSEMBLY_OUTLINES_TOP
100
AcDbHatch
 10
0.0
 20
0.0
 30
0.0
210
0.0
220
0.0
230
1.0
  2
SOLID
 70
         1
 71
         1
 91
        1
 92
        1
 93
        1
 72
         2
 10
-10.07
 20
80.620000000000005
 40
0.45
 50
0.0
 51
360.0
 73
         1
 97
        1
330
10E
 75
         0
 76
         1
 98
        1
 10
0.0
 20
0.0
  0
CIRCLE
  5
110
100
AcDbEntity
  8
ASSEMBLY_OUTLINES_TOP
100
AcDbCircle
 10
-7.53
 20
80.62
 30
0.0
 40
0.45
  0
HATCH
  5
111
100
AcDbEntity
  8
ASSEMBLY_OUTLINES_TOP
100
AcDbHatch
 10
0.0
 20
0.0
 30
0.0
210
0.0
220
0.0
230
1.0
  2
SOLID
 70
         1
 71
         1
 91
        1
 92
        1
 93
        1
 72
         2
 10
-7.5300000000000002
 20
80.620000000000005
 40
0.45
 50
0.0
 51
360.0
 73
         1
 97
        1
330
110
 75
         0
 76
         1
 98
        1
 10
0.0
 20
0.0
  0
CIRCLE
  5
112
100
AcDbEntity
  8
ASSEMBLY_OUTLINES_TOP
100
AcDbCircle
 10
-4.99
 20
80.62
 30
0.0
 40
0.45
  0
HATCH
  5
113
100
AcDbEntity
  8
ASSEMBLY_OUTLINES_TOP
100
AcDbHatch
 10
0.0
 20
0.0
 30
0.0
210
0.0
220
0.0
230
1.0
  2
SOLID
 70
         1
 71
         1
 91
        1
 92
        1
 93
        1
 72
         2
 10
-4.9900000000000002
 20
80.620000000000005
 40
0.45
 50
0.0
 51
360.0
 73
         1
 97
        1
330
112
 75
         0
 76
         1
 98
        1
 10
0.0
 20
0.0
  0
CIRCLE
  5
114
100
AcDbEntity
  8
ASSEMBLY_OUTLINES_TOP
100
AcDbCircle
 10
-2.45
 20
80.62
 30
0.0
 40
0.45
  0
HATCH
  5
115
100
AcDbEntity
  8
ASSEMBLY_OUTLINES_TOP
100
AcDbHatch
 10
0.0
 20
0.0
 30
0.0
210
0.0
220
0.0
230
1.0
  2
SOLID
 70
         1
 71
         1
 91
        1
 92
        1
 93
        1
 72
         2
 10
-2.4500000000000002
 20
80.620000000000005
 40
0.45
 50
0.0
 51
360.0
 73
         1
 97
        1
330
114
 75
         0
 76
         1
 98
        1
 10
0.0
 20
0.0
  0
CIRCLE
  5
116
100
AcDbEntity
  8
ASSEMBLY_OUTLINES_TOP
100
AcDbCircle
 10
0.09
 20
80.62
 30
0.0
 40
0.45
  0
HATCH
  5
117
100
AcDbEntity
  8
ASSEMBLY_OUTLINES_TOP
100
AcDbHatch
 10
0.0
 20
0.0
 30
0.0
210
0.0
220
0.0
230
1.0
  2
SOLID
 70
         1
 71
         1
 91
        1
 92
        1
 93
        1
 72
         2
 10
0.09
 20
80.620000000000005
 40
0.45
 50
0.0
 51
360.0
 73
         1
 97
        1
330
116
 75
         0
 76
         1
 98
        1
 10
0.0
 20
0.0
  0
CIRCLE
  5
118
100
AcDbEntity
  8
ASSEMBLY_OUTLINES_TOP
100
AcDbCircle
 10
2.63
 20
80.62
 30
0.0
 40
0.45
  0
HATCH
  5
119
100
AcDbEntity
  8
ASSEMBLY_OUTLINES_TOP
100
AcDbHatch
 10
0.0
 20
0.0
 30
0.0
210
0.0
220
0.0
230
1.0
  2
SOLID
 70
         1
 71
         1
 91
        1
 92
        1
 93
        1
 72
         2
 10
2.6299999999999999
 20
80.620000000000005
 40
0.45
 50
0.0
 51
360.0
 73
         1
 97
        1
330
118
 75
         0
 76
         1
 98
        1
 10
0.0
 20
0.0
  0
CIRCLE
  5
11A
100
AcDbEntity
  8
ASSEMBLY_OUTLINES_TOP
100
AcDbCircle
 10
5.173549
 20
80.62088
 30
0.0
 40
0.45
  0
HATCH
  5
11B
100
AcDbEntity
  8
ASSEMBLY_OUTLINES_TOP
100
AcDbHatch
 10
0.0
 20
0.0
 30
0.0
210
0.0
220
0.0
230
1.0
  2
SOLID
 70
         1
 71
         1
 91
        1
 92
        1
 93
        1
 72
         2
 10
5.1735490000000004
 20
80.62088
 40
0.45
 50
0.0
 51
360.0
 73
         1
 97
        1
330
11A
 75
         0
 76
         1
 98
        1
 10
0.0
 20
0.0
  0
CIRCLE
  5
11C
100
AcDbEntity
  8
ASSEMBLY_OUTLINES_TOP
100
AcDbCircle
 10
7.713549
 20
80.62088
 30
0.0
 40
0.45
  0
HATCH
  5
11D
100
AcDbEntity
  8
ASSEMBLY_OUTLINES_TOP
100
AcDbHatch
 10
0.0
 20
0.0
 30
0.0
210
0.0
220
0.0
230
1.0
  2
SOLID
 70
         1
 71
         1
 91
        1
 92
        1
 93
        1
 72
         2
 10
7.7135490000000004
 20
80.62088
 40
0.45
 50
0.0
 51
360.0
 73
         1
 97
        1
330
11C
 75
         0
 76
         1
 98
        1
 10
0.0
 20
0.0
  0
CIRCLE
  5
11E
100
AcDbEntity
  8
ASSEMBLY_OUTLINES_TOP
100
AcDbCircle
 10
10.253549
 20
80.62088
 30
0.0
 40
0.45
  0
HATCH
  5
11F
100
AcDbEntity
  8
ASSEMBLY_OUTLINES_TOP
100
AcDbHatch
 10
0.0
 20
0.0
 30
0.0
210
0.0
220
0.0
230
1.0
  2
SOLID
 70
         1
 71
         1
 91
        1
 92
        1
 93
        1
 72
         2
 10
10.253549
 20
80.62088
 40
0.45
 50
0.0
 51
360.0
 73
         1
 97
        1
330
11E
 75
         0
 76
         1
 98
        1
 10
0.0
 20
0.0
  0
CIRCLE
  5
120
100
AcDbEntity
  8
ASSEMBLY_OUTLINES_TOP
100
AcDbCircle
 10
12.793549
 20
80.62088
 30
0.0
 40
0.45
  0
HATCH
  5
121
100
AcDbEntity
  8
ASSEMBLY_OUTLINES_TOP
100
AcDbHatch
 10
0.0
 20
0.0
 30
0.0
210
0.0
220
0.0
230
1.0
  2
SOLID
 70
         1
 71
         1
 91
        1
 92
        1
 93
        1
 72
         2
 10
12.793549000000001
 20
80.62088
 40
0.45
 50
0.0
 51
360.0
 73
         1
 97
        1
330
120
 75
         0
 76
         1
 98
        1
 10
0.0
 20
0.0
  0
CIRCLE
  5
122
100
AcDbEntity
  8
ASSEMBLY_OUTLINES_TOP
100
AcDbCircle
 10
15.333549
 20
80.62088
 30
0.0
 40
0.45
  0
HATCH
  5
123
100
AcDbEntity
  8
ASSEMBLY_OUTLINES_TOP
100
AcDbHatch
 10
0.0
 20
0.0
 30
0.0
210
0.0
220
0.0
230
1.0
  2
SOLID
 70
         1
 71
         1
 91
        1
 92
        1
 93
        1
 72
         2
 10
15.333549
 20
80.62088
 40
0.45
 50
0.0
 51
360.0
 73
         1
 97
        1
330
122
 75
         0
 76
         1
 98
        1
 10
0.0
 20
0.0
  0
CIRCLE
  5
124
100
AcDbEntity
  8
ASSEMBLY_OUTLINES_TOP
100
AcDbCircle
 10
17.873549
 20
80.62088
 30
0.0
 40
0.45
  0
HATCH
  5
125
100
AcDbEntity
  8
ASSEMBLY_OUTLINES_TOP
100
AcDbHatch
 10
0.0
 20
0.0
 30
0.0
210
0.0
220
0.0
230
1.0
  2
SOLID
 70
         1
 71
         1
 91
        1
 92
        1
 93
        1
 72
         2
 10
17.873549000000001
 20
80.62088
 40
0.45
 50
0.0
 51
360.0
 73
         1
 97
        1
330
124
 75
         0
 76
         1
 98
        1
 10
0.0
 20
0.0
  0
CIRCLE
  5
126
100
AcDbEntity
  8
ASSEMBLY_OUTLINES_TOP
100
AcDbCircle
 10
20.413549
 20
80.62088
 30
0.0
 40
0.45
  0
HATCH
  5
127
100
AcDbEntity
  8
ASSEMBLY_OUTLINES_TOP
100
AcDbHatch
 10
0.0
 20
0.0
 30
0.0
210
0.0
220
0.0
230
1.0
  2
SOLID
 70
         1
 71
         1
 91
        1
 92
        1
 93
        1
 72
         2
 10
20.413549
 20
80.62088
 40
0.45
 50
0.0
 51
360.0
 73
         1
 97
        1
330
126
 75
         0
 76
         1
 98
        1
 10
0.0
 20
0.0
  0
CIRCLE
  5
128
100
AcDbEntity
  8
ASSEMBLY_OUTLINES_TOP
100
AcDbCircle
 10
22.953549
 20
80.62088
 30
0.0
 40
0.45
  0
HATCH
  5
129
100
AcDbEntity
  8
ASSEMBLY_OUTLINES_TOP
100
AcDbHatch
 10
0.0
 20
0.0
 30
0.0
210
0.0
220
0.0
230
1.0
  2
SOLID
 70
         1
 71
         1
 91
        1
 92
        1
 93
        1
 72
         2
 10
22.953548999999999
 20
80.62088
 40
0.45
 50
0.0
 51
360.0
 73
         1
 97
        1
330
128
 75
         0
 76
         1
 98
        1
 10
0.0
 20
0.0
  0
CIRCLE
  5
12A
100
AcDbEntity
  8
ASSEMBLY_OUTLINES_TOP
100
AcDbCircle
 10
25.493549
 20
80.62088
 30
0.0
 40
0.45
  0
HATCH
  5
12B
100
AcDbEntity
  8
ASSEMBLY_OUTLINES_TOP
100
AcDbHatch
 10
0.0
 20
0.0
 30
0.0
210
0.0
220
0.0
230
1.0
  2
SOLID
 70
         1
 71
         1
 91
        1
 92
        1
 93
        1
 72
         2
 10
25.493549000000002
 20
80.62088
 40
0.45
 50
0.0
 51
360.0
 73
         1
 97
        1
330
12A
 75
         0
 76
         1
 98
        1
 10
0.0
 20
0.0
  0
CIRCLE
  5
12C
100
AcDbEntity
  8
ASSEMBLY_OUTLINES_TOP
100
AcDbCircle
 10
28.033549
 20
80.62088
 30
0.0
 40
0.45
  0
HATCH
  5
12D
100
AcDbEntity
  8
ASSEMBLY_OUTLINES_TOP
100
AcDbHatch
 10
0.0
 20
0.0
 30
0.0
210
0.0
220
0.0
230
1.0
  2
SOLID
 70
         1
 71
         1
 91
        1
 92
        1
 93
        1
 72
         2
 10
28.033549000000001
 20
80.62088
 40
0.45
 50
0.0
 51
360.0
 73
         1
 97
        1
330
12C
 75
         0
 76
         1
 98
        1
 10
0.0
 20
0.0
  0
LWPOLYLINE
  5
12E
100
AcDbEntity
  8
ASSEMBLY_OUTLINES_TOP
100
AcDbPolyline
 90
        4
 70
         1
 43
0.1
 10
9.55
 20
13.1
 10
9.55
 20
16.8
 10
12.55
 20
16.8
 10
12.55
 20
13.1
  0
LWPOLYLINE
  5
12F
100
AcDbEntity
  8
ASSEMBLY_OUTLINES_TOP
100
AcDbPolyline
 90
        2
 70
         0
 43
0.1
 10
9.55
 20
16.7
 10
12.55
 20
16.7
  0
LWPOLYLINE
  5
130
100
AcDbEntity
  8
ASSEMBLY_OUTLINES_TOP
100
AcDbPolyline
 90
        2
 70
         0
 43
0.1
 10
9.55
 20
16.6
 10
12.55
 20
16.6
  0
LWPOLYLINE
  5
131
100
AcDbEntity
  8
ASSEMBLY_OUTLINES_TOP
100
AcDbPolyline
 90
        2
 70
         0
 43
0.1
 10
9.55
 20
16.5
 10
12.55
 20
16.5
  0
LWPOLYLINE
  5
132
100
AcDbEntity
  8
ASSEMBLY_OUTLINES_TOP
100
AcDbPolyline
 90
        2
 70
         0
 43
0.1
 10
9.55
 20
16.4
 10
12.55
 20
16.4
  0
LWPOLYLINE
  5
133
100
AcDbEntity
  8
ASSEMBLY_OUTLINES_TOP
100
AcDbPolyline
 90
        2
 70
         0
 43
0.1
 10
9.55
 20
16.3
 10
12.55
 20
16.3
  0
LWPOLYLINE
  5
134
100
AcDbEntity
  8
ASSEMBLY_OUTLINES_TOP
100
AcDbPolyline
 90
        2
 70
         0
 43
0.1
 10
9.55
 20
16.2
 10
12.55
 20
16.2
  0
LWPOLYLINE
  5
135
100
AcDbEntity
  8
ASSEMBLY_OUTLINES_TOP
100
AcDbPolyline
 90
        2
 70
         0
 43
0.1
 10
9.55
 20
16.1
 10
12.55
 20
16.1
  0
LWPOLYLINE
  5
136
100
AcDbEntity
  8
ASSEMBLY_OUTLINES_TOP
100
AcDbPolyline
 90
        2
 70
         0
 43
0.1
 10
9.55
 20
16.0
 10
12.55
 20
16.0
  0
LWPOLYLINE
  5
137
100
AcDbEntity
  8
ASSEMBLY_OUTLINES_TOP
100
AcDbPolyline
 90
        8
 70
         1
 43
0.1
 10
-6.4
 20
21.8
 10
-6.4
 20
18.5
 42
0.4142135624
 10
-5.4
 20
17.5
 10
-2.2
 20
17.5
 42
0.4142135624
 10
-1.2
 20
18.5
 10
-1.2
 20
21.8
 42
0.4142135624
 10
-2.2
 20
22.8
 10
-5.4
 20
22.8
 42
0.4142135624
  0
LWPOLYLINE
  5
138
100
AcDbEntity
  8
ASSEMBLY_OUTLINES_TOP
100
AcDbPolyline
 90
        4
 70
         1
 10
73.62
 20
-3.0
 10
73.62
 20
11.0
 10
86.82
 20
11.0
 10
86.82
 20
-3.0
  0
LWPOLYLINE
  5
139
100
AcDbEntity
  8
ASSEMBLY_OUTLINES_TOP
100
AcDbPolyline
 90
        4
 70
         1
 43
0.1
 10
-6.7
 20
13.2
 10
-6.7
 20
16.2
 10
-3.7
 20
16.2
 10
-3.7
 20
13.2
  0
LWPOLYLINE
  5
13A
100
AcDbEntity
  8
ASSEMBLY_OUTLINES_TOP
100
AcDbPolyline
 90
        2
 70
         0
 43
0.1
 10
-3.8
 20
16.2
 10
-3.7
 20
16.1
  0
LWPOLYLINE
  5
13B
100
AcDbEntity
  8
ASSEMBLY_OUTLINES_TOP
100
AcDbPolyline
 90
        2
 70
         0
 43
0.1
 10
-3.9
 20
16.2
 10
-3.7
 20
16.0
  0
LWPOLYLINE
  5
13C
100
AcDbEntity
  8
ASSEMBLY_OUTLINES_TOP
100
AcDbPolyline
 90
        2
 70
         0
 43
0.1
 10
-4.0
 20
16.2
 10
-3.7
 20
15.9
  0
LWPOLYLINE
  5
13D
100
AcDbEntity
  8
ASSEMBLY_OUTLINES_TOP
100
AcDbPolyline
 90
        2
 70
         0
 43
0.1
 10
-4.1
 20
16.2
 10
-3.7
 20
15.8
  0
LWPOLYLINE
  5
13E
100
AcDbEntity
  8
ASSEMBLY_OUTLINES_TOP
100
AcDbPolyline
 90
        2
 70
         0
 43
0.1
 10
-4.2
 20
16.2
 10
-3.7
 20
15.7
  0
LWPOLYLINE
  5
13F
100
AcDbEntity
  8
ASSEMBLY_OUTLINES_TOP
100
AcDbPolyline
 90
        2
 70
         0
 43
0.1
 10
-4.3
 20
16.2
 10
-3.7
 20
15.6
  0
LWPOLYLINE
  5
140
100
AcDbEntity
  8
ASSEMBLY_OUTLINES_TOP
100
AcDbPolyline
 90
        4
 70
         1
 43
0.1
 10
-7.85
 20
32.1
 10
-7.85
 20
39.6
 10
4.65
 20
39.6
 10
4.65
 20
32.1
  0
LWPOLYLINE
  5
141
100
AcDbEntity
  8
ASSEMBLY_OUTLINES_TOP
100
AcDbPolyline
 90
        4
 70
         1
 43
0.1
 10
-8.6
 20
30.1
 10
-8.6
 20
41.6
 10
5.4
 20
41.6
 10
5.4
 20
30.1
  0
LWPOLYLINE
  5
142
100
AcDbEntity
  8
ASSEMBLY_OUTLINES_TOP
100
AcDbPolyline
 90
        2
 70
         0
 43
0.1
 10
-8.5
 20
30.1
 10
-8.6
 20
30.2
  0
LWPOLYLINE
  5
143
100
AcDbEntity
  8
ASSEMBLY_OUTLINES_TOP
100
AcDbPolyline
 90
        2
 70
         0
 43
0.1
 10
-8.4
 20
30.1
 10
-8.6
 20
30.3
  0
LWPOLYLINE
  5
144
100
AcDbEntity
  8
ASSEMBLY_OUTLINES_TOP
100
AcDbPolyline
 90
        2
 70
         0
 43
0.1
 10
-8.3
 20
30.1
 10
-8.6
 20
30.4
  0
LWPOLYLINE
  5
145
100
AcDbEntity
  8
ASSEMBLY_OUTLINES_TOP
100
AcDbPolyline
 90
        2
 70
         0
 43
0.1
 10
-8.2
 20
30.1
 10
-8.6
 20
30.5
  0
LWPOLYLINE
  5
146
100
AcDbEntity
  8
ASSEMBLY_OUTLINES_TOP
100
AcDbPolyline
 90
        2
 70
         0
 43
0.1
 10
-8.1
 20
30.1
 10
-8.6
 20
30.6
  0
LWPOLYLINE
  5
147
100
AcDbEntity
  8
ASSEMBLY_OUTLINES_TOP
100
AcDbPolyline
 90
        2
 70
         0
 43
0.1
 10
-8.0
 20
30.1
 10
-8.6
 20
30.7
  0
LWPOLYLINE
  5
148
100
AcDbEntity
  8
ASSEMBLY_OUTLINES_TOP
100
AcDbPolyline
 90
        4
 70
         1
 10
63.79
 20
8.43
 10
63.79
 20
10.97
 10
68.87
 20
10.97
 10
68.87
 20
8.43
  0
LWPOLYLINE
  5
149
100
AcDbEntity
  8
ASSEMBLY_OUTLINES_TOP
100
AcDbPolyline
 90
        4
 70
         1
 10
-11.97
 20
58.53
 10
-11.97
 20
63.61
 10
-9.43
 20
63.61
 10
-9.43
 20
58.53
  0
LWPOLYLINE
  5
14A
100
AcDbEntity
  8
ASSEMBLY_OUTLINES_TOP
100
AcDbPolyline
 90
        4
 70
         1
 10
-25.055
 20
13.15
 10
-25.055
 20
63.95
 10
-19.975
 20
63.95
 10
-19.975
 20
13.15
  0
CIRCLE
  5
14B
100
AcDbEntity
  8
ASSEMBLY_OUTLINES_TOP
100
AcDbCircle
 10
-21.23456
 20
14.418225
 30
0.0
 40
0.45
  0
HATCH
  5
14C
100
AcDbEntity
  8
ASSEMBLY_OUTLINES_TOP
100
AcDbHatch
 10
0.0
 20
0.0
 30
0.0
210
0.0
220
0.0
230
1.0
  2
SOLID
 70
         1
 71
         1
 91
        1
 92
        1
 93
        1
 72
         2
 10
-21.234559999999998
 20
14.418225
 40
0.45
 50
0.0
 51
360.0
 73
         1
 97
        1
330
14B
 75
         0
 76
         1
 98
        1
 10
0.0
 20
0.0
  0
CIRCLE
  5
14D
100
AcDbEntity
  8
ASSEMBLY_OUTLINES_TOP
100
AcDbCircle
 10
-21.23456
 20
16.958225
 30
0.0
 40
0.45
  0
HATCH
  5
14E
100
AcDbEntity
  8
ASSEMBLY_OUTLINES_TOP
100
AcDbHatch
 10
0.0
 20
0.0
 30
0.0
210
0.0
220
0.0
230
1.0
  2
SOLID
 70
         1
 71
         1
 91
        1
 92
        1
 93
        1
 72
         2
 10
-21.234559999999998
 20
16.958224999999999
 40
0.45
 50
0.0
 51
360.0
 73
         1
 97
        1
330
14D
 75
         0
 76
         1
 98
        1
 10
0.0
 20
0.0
  0
CIRCLE
  5
14F
100
AcDbEntity
  8
ASSEMBLY_OUTLINES_TOP
100
AcDbCircle
 10
-21.23456
 20
19.498225
 30
0.0
 40
0.45
  0
HATCH
  5
150
100
AcDbEntity
  8
ASSEMBLY_OUTLINES_TOP
100
AcDbHatch
 10
0.0
 20
0.0
 30
0.0
210
0.0
220
0.0
230
1.0
  2
SOLID
 70
         1
 71
         1
 91
        1
 92
        1
 93
        1
 72
         2
 10
-21.234559999999998
 20
19.498225000000001
 40
0.45
 50
0.0
 51
360.0
 73
         1
 97
        1
330
14F
 75
         0
 76
         1
 98
        1
 10
0.0
 20
0.0
  0
CIRCLE
  5
151
100
AcDbEntity
  8
ASSEMBLY_OUTLINES_TOP
100
AcDbCircle
 10
-21.23456
 20
22.038225
 30
0.0
 40
0.45
  0
HATCH
  5
152
100
AcDbEntity
  8
ASSEMBLY_OUTLINES_TOP
100
AcDbHatch
 10
0.0
 20
0.0
 30
0.0
210
0.0
220
0.0
230
1.0
  2
SOLID
 70
         1
 71
         1
 91
        1
 92
        1
 93
        1
 72
         2
 10
-21.234559999999998
 20
22.038225000000001
 40
0.45
 50
0.0
 51
360.0
 73
         1
 97
        1
330
151
 75
         0
 76
         1
 98
        1
 10
0.0
 20
0.0
  0
CIRCLE
  5
153
100
AcDbEntity
  8
ASSEMBLY_OUTLINES_TOP
100
AcDbCircle
 10
-21.23456
 20
24.578225
 30
0.0
 40
0.45
  0
HATCH
  5
154
100
AcDbEntity
  8
ASSEMBLY_OUTLINES_TOP
100
AcDbHatch
 10
0.0
 20
0.0
 30
0.0
210
0.0
220
0.0
230
1.0
  2
SOLID
 70
         1
 71
         1
 91
        1
 92
        1
 93
        1
 72
         2
 10
-21.234559999999998
 20
24.578225
 40
0.45
 50
0.0
 51
360.0
 73
         1
 97
        1
330
153
 75
         0
 76
         1
 98
        1
 10
0.0
 20
0.0
  0
CIRCLE
  5
155
100
AcDbEntity
  8
ASSEMBLY_OUTLINES_TOP
100
AcDbCircle
 10
-21.23456
 20
27.118225
 30
0.0
 40
0.45
  0
HATCH
  5
156
100
AcDbEntity
  8
ASSEMBLY_OUTLINES_TOP
100
AcDbHatch
 10
0.0
 20
0.0
 30
0.0
210
0.0
220
0.0
230
1.0
  2
SOLID
 70
         1
 71
         1
 91
        1
 92
        1
 93
        1
 72
         2
 10
-21.234559999999998
 20
27.118224999999999
 40
0.45
 50
0.0
 51
360.0
 73
         1
 97
        1
330
155
 75
         0
 76
         1
 98
        1
 10
0.0
 20
0.0
  0
CIRCLE
  5
157
100
AcDbEntity
  8
ASSEMBLY_OUTLINES_TOP
100
AcDbCircle
 10
-21.23456
 20
29.658225
 30
0.0
 40
0.45
  0
HATCH
  5
158
100
AcDbEntity
  8
ASSEMBLY_OUTLINES_TOP
100
AcDbHatch
 10
0.0
 20
0.0
 30
0.0
210
0.0
220
0.0
230
1.0
  2
SOLID
 70
         1
 71
         1
 91
        1
 92
        1
 93
        1
 72
         2
 10
-21.234559999999998
 20
29.658225000000002
 40
0.45
 50
0.0
 51
360.0
 73
         1
 97
        1
330
157
 75
         0
 76
         1
 98
        1
 10
0.0
 20
0.0
  0
CIRCLE
  5
159
100
AcDbEntity
  8
ASSEMBLY_OUTLINES_TOP
100
AcDbCircle
 10
-21.23456
 20
32.198225
 30
0.0
 40
0.45
  0
HATCH
  5
15A
100
AcDbEntity
  8
ASSEMBLY_OUTLINES_TOP
100
AcDbHatch
 10
0.0
 20
0.0
 30
0.0
210
0.0
220
0.0
230
1.0
  2
SOLID
 70
         1
 71
         1
 91
        1
 92
        1
 93
        1
 72
         2
 10
-21.234559999999998
 20
32.198225000000001
 40
0.45
 50
0.0
 51
360.0
 73
         1
 97
        1
330
159
 75
         0
 76
         1
 98
        1
 10
0.0
 20
0.0
  0
CIRCLE
  5
15B
100
AcDbEntity
  8
ASSEMBLY_OUTLINES_TOP
100
AcDbCircle
 10
-21.23456
 20
34.738225
 30
0.0
 40
0.45
  0
HATCH
  5
15C
100
AcDbEntity
  8
ASSEMBLY_OUTLINES_TOP
100
AcDbHatch
 10
0.0
 20
0.0
 30
0.0
210
0.0
220
0.0
230
1.0
  2
SOLID
 70
         1
 71
         1
 91
        1
 92
        1
 93
        1
 72
         2
 10
-21.234559999999998
 20
34.738225
 40
0.45
 50
0.0
 51
360.0
 73
         1
 97
        1
330
15B
 75
         0
 76
         1
 98
        1
 10
0.0
 20
0.0
  0
CIRCLE
  5
15D
100
AcDbEntity
  8
ASSEMBLY_OUTLINES_TOP
100
AcDbCircle
 10
-21.23456
 20
37.278225
 30
0.0
 40
0.45
  0
HATCH
  5
15E
100
AcDbEntity
  8
ASSEMBLY_OUTLINES_TOP
100
AcDbHatch
 10
0.0
 20
0.0
 30
0.0
210
0.0
220
0.0
230
1.0
  2
SOLID
 70
         1
 71
         1
 91
        1
 92
        1
 93
        1
 72
         2
 10
-21.234559999999998
 20
37.278224999999999
 40
0.45
 50
0.0
 51
360.0
 73
         1
 97
        1
330
15D
 75
         0
 76
         1
 98
        1
 10
0.0
 20
0.0
  0
CIRCLE
  5
15F
100
AcDbEntity
  8
ASSEMBLY_OUTLINES_TOP
100
AcDbCircle
 10
-21.22544
 20
39.821774
 30
0.0
 40
0.45
  0
HATCH
  5
160
100
AcDbEntity
  8
ASSEMBLY_OUTLINES_TOP
100
AcDbHatch
 10
0.0
 20
0.0
 30
0.0
210
0.0
220
0.0
230
1.0
  2
SOLID
 70
         1
 71
         1
 91
        1
 92
        1
 93
        1
 72
         2
 10
-21.225439999999999
 20
39.821773999999998
 40
0.45
 50
0.0
 51
360.0
 73
         1
 97
        1
330
15F
 75
         0
 76
         1
 98
        1
 10
0.0
 20
0.0
  0
CIRCLE
  5
161
100
AcDbEntity
  8
ASSEMBLY_OUTLINES_TOP
100
AcDbCircle
 10
-21.22544
 20
42.361774
 30
0.0
 40
0.45
  0
HATCH
  5
162
100
AcDbEntity
  8
ASSEMBLY_OUTLINES_TOP
100
AcDbHatch
 10
0.0
 20
0.0
 30
0.0
210
0.0
220
0.0
230
1.0
  2
SOLID
 70
         1
 71
         1
 91
        1
 92
        1
 93
        1
 72
         2
 10
-21.225439999999999
 20
42.361773999999997
 40
0.45
 50
0.0
 51
360.0
 73
         1
 97
        1
330
161
 75
         0
 76
         1
 98
        1
 10
0.0
 20
0.0
  0
CIRCLE
  5
163
100
AcDbEntity
  8
ASSEMBLY_OUTLINES_TOP
100
AcDbCircle
 10
-21.22544
 20
44.901774
 30
0.0
 40
0.45
  0
HATCH
  5
164
100
AcDbEntity
  8
ASSEMBLY_OUTLINES_TOP
100
AcDbHatch
 10
0.0
 20
0.0
 30
0.0
210
0.0
220
0.0
230
1.0
  2
SOLID
 70
         1
 71
         1
 91
        1
 92
        1
 93
        1
 72
         2
 10
-21.225439999999999
 20
44.901774000000003
 40
0.45
 50
0.0
 51
360.0
 73
         1
 97
        1
330
163
 75
         0
 76
         1
 98
        1
 10
0.0
 20
0.0
  0
CIRCLE
  5
165
100
AcDbEntity
  8
ASSEMBLY_OUTLINES_TOP
100
AcDbCircle
 10
-21.22544
 20
47.441774
 30
0.0
 40
0.45
  0
HATCH
  5
166
100
AcDbEntity
  8
ASSEMBLY_OUTLINES_TOP
100
AcDbHatch
 10
0.0
 20
0.0
 30
0.0
210
0.0
220
0.0
230
1.0
  2
SOLID
 70
         1
 71
         1
 91
        1
 92
        1
 93
        1
 72
         2
 10
-21.225439999999999
 20
47.441774000000002
 40
0.45
 50
0.0
 51
360.0
 73
         1
 97
        1
330
165
 75
         0
 76
         1
 98
        1
 10
0.0
 20
0.0
  0
CIRCLE
  5
167
100
AcDbEntity
  8
ASSEMBLY_OUTLINES_TOP
100
AcDbCircle
 10
-21.22544
 20
49.981774
 30
0.0
 40
0.45
  0
HATCH
  5
168
100
AcDbEntity
  8
ASSEMBLY_OUTLINES_TOP
100
AcDbHatch
 10
0.0
 20
0.0
 30
0.0
210
0.0
220
0.0
230
1.0
  2
SOLID
 70
         1
 71
         1
 91
        1
 92
        1
 93
        1
 72
         2
 10
-21.225439999999999
 20
49.981774000000001
 40
0.45
 50
0.0
 51
360.0
 73
         1
 97
        1
330
167
 75
         0
 76
         1
 98
        1
 10
0.0
 20
0.0
  0
CIRCLE
  5
169
100
AcDbEntity
  8
ASSEMBLY_OUTLINES_TOP
100
AcDbCircle
 10
-21.22544
 20
52.521774
 30
0.0
 40
0.45
  0
HATCH
  5
16A
100
AcDbEntity
  8
ASSEMBLY_OUTLINES_TOP
100
AcDbHatch
 10
0.0
 20
0.0
 30
0.0
210
0.0
220
0.0
230
1.0
  2
SOLID
 70
         1
 71
         1
 91
        1
 92
        1
 93
        1
 72
         2
 10
-21.225439999999999
 20
52.521774000000001
 40
0.45
 50
0.0
 51
360.0
 73
         1
 97
        1
330
169
 75
         0
 76
         1
 98
        1
 10
0.0
 20
0.0
  0
CIRCLE
  5
16B
100
AcDbEntity
  8
ASSEMBLY_OUTLINES_TOP
100
AcDbCircle
 10
-21.22544
 20
55.061774
 30
0.0
 40
0.45
  0
HATCH
  5
16C
100
AcDbEntity
  8
ASSEMBLY_OUTLINES_TOP
100
AcDbHatch
 10
0.0
 20
0.0
 30
0.0
210
0.0
220
0.0
230
1.0
  2
SOLID
 70
         1
 71
         1
 91
        1
 92
        1
 93
        1
 72
         2
 10
-21.225439999999999
 20
55.061774
 40
0.45
 50
0.0
 51
360.0
 73
         1
 97
        1
330
16B
 75
         0
 76
         1
 98
        1
 10
0.0
 20
0.0
  0
CIRCLE
  5
16D
100
AcDbEntity
  8
ASSEMBLY_OUTLINES_TOP
100
AcDbCircle
 10
-21.22544
 20
57.601774
 30
0.0
 40
0.45
  0
HATCH
  5
16E
100
AcDbEntity
  8
ASSEMBLY_OUTLINES_TOP
100
AcDbHatch
 10
0.0
 20
0.0
 30
0.0
210
0.0
220
0.0
230
1.0
  2
SOLID
 70
         1
 71
         1
 91
        1
 92
        1
 93
        1
 72
         2
 10
-21.225439999999999
 20
57.601773999999999
 40
0.45
 50
0.0
 51
360.0
 73
         1
 97
        1
330
16D
 75
         0
 76
         1
 98
        1
 10
0.0
 20
0.0
  0
CIRCLE
  5
16F
100
AcDbEntity
  8
ASSEMBLY_OUTLINES_TOP
100
AcDbCircle
 10
-21.22544
 20
60.141774
 30
0.0
 40
0.45
  0
HATCH
  5
170
100
AcDbEntity
  8
ASSEMBLY_OUTLINES_TOP
100
AcDbHatch
 10
0.0
 20
0.0
 30
0.0
210
0.0
220
0.0
230
1.0
  2
SOLID
 70
         1
 71
         1
 91
        1
 92
        1
 93
        1
 72
         2
 10
-21.225439999999999
 20
60.141773999999998
 40
0.45
 50
0.0
 51
360.0
 73
         1
 97
        1
330
16F
 75
         0
 76
         1
 98
        1
 10
0.0
 20
0.0
  0
CIRCLE
  5
171
100
AcDbEntity
  8
ASSEMBLY_OUTLINES_TOP
100
AcDbCircle
 10
-21.22544
 20
62.681774
 30
0.0
 40
0.45
  0
HATCH
  5
172
100
AcDbEntity
  8
ASSEMBLY_OUTLINES_TOP
100
AcDbHatch
 10
0.0
 20
0.0
 30
0.0
210
0.0
220
0.0
230
1.0
  2
SOLID
 70
         1
 71
         1
 91
        1
 92
        1
 93
        1
 72
         2
 10
-21.225439999999999
 20
62.681773999999997
 40
0.45
 50
0.0
 51
360.0
 73
         1
 97
        1
330
171
 75
         0
 76
         1
 98
        1
 10
0.0
 20
0.0
  0
CIRCLE
  5
173
100
AcDbEntity
  8
ASSEMBLY_OUTLINES_TOP
100
AcDbCircle
 10
-23.77
 20
14.42
 30
0.0
 40
0.45
  0
HATCH
  5
174
100
AcDbEntity
  8
ASSEMBLY_OUTLINES_TOP
100
AcDbHatch
 10
0.0
 20
0.0
 30
0.0
210
0.0
220
0.0
230
1.0
  2
SOLID
 70
         1
 71
         1
 91
        1
 92
        1
 93
        1
 72
         2
 10
-23.77
 20
14.42
 40
0.45
 50
0.0
 51
360.0
 73
         1
 97
        1
330
173
 75
         0
 76
         1
 98
        1
 10
0.0
 20
0.0
  0
CIRCLE
  5
175
100
AcDbEntity
  8
ASSEMBLY_OUTLINES_TOP
100
AcDbCircle
 10
-23.77
 20
16.96
 30
0.0
 40
0.45
  0
HATCH
  5
176
100
AcDbEntity
  8
ASSEMBLY_OUTLINES_TOP
100
AcDbHatch
 10
0.0
 20
0.0
 30
0.0
210
0.0
220
0.0
230
1.0
  2
SOLID
 70
         1
 71
         1
 91
        1
 92
        1
 93
        1
 72
         2
 10
-23.77
 20
16.960000000000001
 40
0.45
 50
0.0
 51
360.0
 73
         1
 97
        1
330
175
 75
         0
 76
         1
 98
        1
 10
0.0
 20
0.0
  0
CIRCLE
  5
177
100
AcDbEntity
  8
ASSEMBLY_OUTLINES_TOP
100
AcDbCircle
 10
-23.77
 20
19.5
 30
0.0
 40
0.45
  0
HATCH
  5
178
100
AcDbEntity
  8
ASSEMBLY_OUTLINES_TOP
100
AcDbHatch
 10
0.0
 20
0.0
 30
0.0
210
0.0
220
0.0
230
1.0
  2
SOLID
 70
         1
 71
         1
 91
        1
 92
        1
 93
        1
 72
         2
 10
-23.77
 20
19.5
 40
0.45
 50
0.0
 51
360.0
 73
         1
 97
        1
330
177
 75
         0
 76
         1
 98
        1
 10
0.0
 20
0.0
  0
CIRCLE
  5
179
100
AcDbEntity
  8
ASSEMBLY_OUTLINES_TOP
100
AcDbCircle
 10
-23.77
 20
22.04
 30
0.0
 40
0.45
  0
HATCH
  5
17A
100
AcDbEntity
  8
ASSEMBLY_OUTLINES_TOP
100
AcDbHatch
 10
0.0
 20
0.0
 30
0.0
210
0.0
220
0.0
230
1.0
  2
SOLID
 70
         1
 71
         1
 91
        1
 92
        1
 93
        1
 72
         2
 10
-23.77
 20
22.039999999999999
 40
0.45
 50
0.0
 51
360.0
 73
         1
 97
        1
330
179
 75
         0
 76
         1
 98
        1
 10
0.0
 20
0.0
  0
CIRCLE
  5
17B
100
AcDbEntity
  8
ASSEMBLY_OUTLINES_TOP
100
AcDbCircle
 10
-23.77
 20
24.58
 30
0.0
 40
0.45
  0
HATCH
  5
17C
100
AcDbEntity
  8
ASSEMBLY_OUTLINES_TOP
100
AcDbHatch
 10
0.0
 20
0.0
 30
0.0
210
0.0
220
0.0
230
1.0
  2
SOLID
 70
         1
 71
         1
 91
        1
 92
        1
 93
        1
 72
         2
 10
-23.77
 20
24.579999999999998
 40
0.45
 50
0.0
 51
360.0
 73
         1
 97
        1
330
17B
 75
         0
 76
         1
 98
        1
 10
0.0
 20
0.0
  0
CIRCLE
  5
17D
100
AcDbEntity
  8
ASSEMBLY_OUTLINES_TOP
100
AcDbCircle
 10
-23.77
 20
27.12
 30
0.0
 40
0.45
  0
HATCH
  5
17E
100
AcDbEntity
  8
ASSEMBLY_OUTLINES_TOP
100
AcDbHatch
 10
0.0
 20
0.0
 30
0.0
210
0.0
220
0.0
230
1.0
  2
SOLID
 70
         1
 71
         1
 91
        1
 92
        1
 93
        1
 72
         2
 10
-23.77
 20
27.120000000000001
 40
0.45
 50
0.0
 51
360.0
 73
         1
 97
        1
330
17D
 75
         0
 76
         1
 98
        1
 10
0.0
 20
0.0
  0
CIRCLE
  5
17F
100
AcDbEntity
  8
ASSEMBLY_OUTLINES_TOP
100
AcDbCircle
 10
-23.77
 20
29.66
 30
0.0
 40
0.45
  0
HATCH
  5
180
100
AcDbEntity
  8
ASSEMBLY_OUTLINES_TOP
100
AcDbHatch
 10
0.0
 20
0.0
 30
0.0
210
0.0
220
0.0
230
1.0
  2
SOLID
 70
         1
 71
         1
 91
        1
 92
        1
 93
        1
 72
         2
 10
-23.77
 20
29.66
 40
0.45
 50
0.0
 51
360.0
 73
         1
 97
        1
330
17F
 75
         0
 76
         1
 98
        1
 10
0.0
 20
0.0
  0
CIRCLE
  5
181
100
AcDbEntity
  8
ASSEMBLY_OUTLINES_TOP
100
AcDbCircle
 10
-23.77
 20
32.2
 30
0.0
 40
0.45
  0
HATCH
  5
182
100
AcDbEntity
  8
ASSEMBLY_OUTLINES_TOP
100
AcDbHatch
 10
0.0
 20
0.0
 30
0.0
210
0.0
220
0.0
230
1.0
  2
SOLID
 70
         1
 71
         1
 91
        1
 92
        1
 93
        1
 72
         2
 10
-23.77
 20
32.200000000000003
 40
0.45
 50
0.0
 51
360.0
 73
         1
 97
        1
330
181
 75
         0
 76
         1
 98
        1
 10
0.0
 20
0.0
  0
CIRCLE
  5
183
100
AcDbEntity
  8
ASSEMBLY_OUTLINES_TOP
100
AcDbCircle
 10
-23.77
 20
34.74
 30
0.0
 40
0.45
  0
HATCH
  5
184
100
AcDbEntity
  8
ASSEMBLY_OUTLINES_TOP
100
AcDbHatch
 10
0.0
 20
0.0
 30
0.0
210
0.0
220
0.0
230
1.0
  2
SOLID
 70
         1
 71
         1
 91
        1
 92
        1
 93
        1
 72
         2
 10
-23.77
 20
34.740000000000002
 40
0.45
 50
0.0
 51
360.0
 73
         1
 97
        1
330
183
 75
         0
 76
         1
 98
        1
 10
0.0
 20
0.0
  0
CIRCLE
  5
185
100
AcDbEntity
  8
ASSEMBLY_OUTLINES_TOP
100
AcDbCircle
 10
-23.77
 20
37.28
 30
0.0
 40
0.45
  0
HATCH
  5
186
100
AcDbEntity
  8
ASSEMBLY_OUTLINES_TOP
100
AcDbHatch
 10
0.0
 20
0.0
 30
0.0
210
0.0
220
0.0
230
1.0
  2
SOLID
 70
         1
 71
         1
 91
        1
 92
        1
 93
        1
 72
         2
 10
-23.77
 20
37.280000000000001
 40
0.45
 50
0.0
 51
360.0
 73
         1
 97
        1
330
185
 75
         0
 76
         1
 98
        1
 10
0.0
 20
0.0
  0
CIRCLE
  5
187
100
AcDbEntity
  8
ASSEMBLY_OUTLINES_TOP
100
AcDbCircle
 10
-23.77088
 20
39.823549
 30
0.0
 40
0.45
  0
HATCH
  5
188
100
AcDbEntity
  8
ASSEMBLY_OUTLINES_TOP
100
AcDbHatch
 10
0.0
 20
0.0
 30
0.0
210
0.0
220
0.0
230
1.0
  2
SOLID
 70
         1
 71
         1
 91
        1
 92
        1
 93
        1
 72
         2
 10
-23.770879999999998
 20
39.823549
 40
0.45
 50
0.0
 51
360.0
 73
         1
 97
        1
330
187
 75
         0
 76
         1
 98
        1
 10
0.0
 20
0.0
  0
CIRCLE
  5
189
100
AcDbEntity
  8
ASSEMBLY_OUTLINES_TOP
100
AcDbCircle
 10
-23.77088
 20
42.363549
 30
0.0
 40
0.45
  0
HATCH
  5
18A
100
AcDbEntity
  8
ASSEMBLY_OUTLINES_TOP
100
AcDbHatch
 10
0.0
 20
0.0
 30
0.0
210
0.0
220
0.0
230
1.0
  2
SOLID
 70
         1
 71
         1
 91
        1
 92
        1
 93
        1
 72
         2
 10
-23.770879999999998
 20
42.363548999999999
 40
0.45
 50
0.0
 51
360.0
 73
         1
 97
        1
330
189
 75
         0
 76
         1
 98
        1
 10
0.0
 20
0.0
  0
CIRCLE
  5
18B
100
AcDbEntity
  8
ASSEMBLY_OUTLINES_TOP
100
AcDbCircle
 10
-23.77088
 20
44.903549
 30
0.0
 40
0.45
  0
HATCH
  5
18C
100
AcDbEntity
  8
ASSEMBLY_OUTLINES_TOP
100
AcDbHatch
 10
0.0
 20
0.0
 30
0.0
210
0.0
220
0.0
230
1.0
  2
SOLID
 70
         1
 71
         1
 91
        1
 92
        1
 93
        1
 72
         2
 10
-23.770879999999998
 20
44.903548999999998
 40
0.45
 50
0.0
 51
360.0
 73
         1
 97
        1
330
18B
 75
         0
 76
         1
 98
        1
 10
0.0
 20
0.0
  0
CIRCLE
  5
18D
100
AcDbEntity
  8
ASSEMBLY_OUTLINES_TOP
100
AcDbCircle
 10
-23.77088
 20
47.443549
 30
0.0
 40
0.45
  0
HATCH
  5
18E
100
AcDbEntity
  8
ASSEMBLY_OUTLINES_TOP
100
AcDbHatch
 10
0.0
 20
0.0
 30
0.0
210
0.0
220
0.0
230
1.0
  2
SOLID
 70
         1
 71
         1
 91
        1
 92
        1
 93
        1
 72
         2
 10
-23.770879999999998
 20
47.443548999999997
 40
0.45
 50
0.0
 51
360.0
 73
         1
 97
        1
330
18D
 75
         0
 76
         1
 98
        1
 10
0.0
 20
0.0
  0
CIRCLE
  5
18F
100
AcDbEntity
  8
ASSEMBLY_OUTLINES_TOP
100
AcDbCircle
 10
-23.77088
 20
49.983549
 30
0.0
 40
0.45
  0
HATCH
  5
190
100
AcDbEntity
  8
ASSEMBLY_OUTLINES_TOP
100
AcDbHatch
 10
0.0
 20
0.0
 30
0.0
210
0.0
220
0.0
230
1.0
  2
SOLID
 70
         1
 71
         1
 91
        1
 92
        1
 93
        1
 72
         2
 10
-23.770879999999998
 20
49.983548999999996
 40
0.45
 50
0.0
 51
360.0
 73
         1
 97
        1
330
18F
 75
         0
 76
         1
 98
        1
 10
0.0
 20
0.0
  0
CIRCLE
  5
191
100
AcDbEntity
  8
ASSEMBLY_OUTLINES_TOP
100
AcDbCircle
 10
-23.77088
 20
52.523549
 30
0.0
 40
0.45
  0
HATCH
  5
192
100
AcDbEntity
  8
ASSEMBLY_OUTLINES_TOP
100
AcDbHatch
 10
0.0
 20
0.0
 30
0.0
210
0.0
220
0.0
230
1.0
  2
SOLID
 70
         1
 71
         1
 91
        1
 92
        1
 93
        1
 72
         2
 10
-23.770879999999998
 20
52.523549000000003
 40
0.45
 50
0.0
 51
360.0
 73
         1
 97
        1
330
191
 75
         0
 76
         1
 98
        1
 10
0.0
 20
0.0
  0
CIRCLE
  5
193
100
AcDbEntity
  8
ASSEMBLY_OUTLINES_TOP
100
AcDbCircle
 10
-23.77088
 20
55.063549
 30
0.0
 40
0.45
  0
HATCH
  5
194
100
AcDbEntity
  8
ASSEMBLY_OUTLINES_TOP
100
AcDbHatch
 10
0.0
 20
0.0
 30
0.0
210
0.0
220
0.0
230
1.0
  2
SOLID
 70
         1
 71
         1
 91
        1
 92
        1
 93
        1
 72
         2
 10
-23.770879999999998
 20
55.063549000000002
 40
0.45
 50
0.0
 51
360.0
 73
         1
 97
        1
330
193
 75
         0
 76
         1
 98
        1
 10
0.0
 20
0.0
  0
CIRCLE
  5
195
100
AcDbEntity
  8
ASSEMBLY_OUTLINES_TOP
100
AcDbCircle
 10
-23.77088
 20
57.603549
 30
0.0
 40
0.45
  0
HATCH
  5
196
100
AcDbEntity
  8
ASSEMBLY_OUTLINES_TOP
100
AcDbHatch
 10
0.0
 20
0.0
 30
0.0
210
0.0
220
0.0
230
1.0
  2
SOLID
 70
         1
 71
         1
 91
        1
 92
        1
 93
        1
 72
         2
 10
-23.770879999999998
 20
57.603549000000001
 40
0.45
 50
0.0
 51
360.0
 73
         1
 97
        1
330
195
 75
         0
 76
         1
 98
        1
 10
0.0
 20
0.0
  0
CIRCLE
  5
197
100
AcDbEntity
  8
ASSEMBLY_OUTLINES_TOP
100
AcDbCircle
 10
-23.77088
 20
60.143549
 30
0.0
 40
0.45
  0
HATCH
  5
198
100
AcDbEntity
  8
ASSEMBLY_OUTLINES_TOP
100
AcDbHatch
 10
0.0
 20
0.0
 30
0.0
210
0.0
220
0.0
230
1.0
  2
SOLID
 70
         1
 71
         1
 91
        1
 92
        1
 93
        1
 72
         2
 10
-23.770879999999998
 20
60.143549
 40
0.45
 50
0.0
 51
360.0
 73
         1
 97
        1
330
197
 75
         0
 76
         1
 98
        1
 10
0.0
 20
0.0
  0
CIRCLE
  5
199
100
AcDbEntity
  8
ASSEMBLY_OUTLINES_TOP
100
AcDbCircle
 10
-23.77088
 20
62.683549
 30
0.0
 40
0.45
  0
HATCH
  5
19A
100
AcDbEntity
  8
ASSEMBLY_OUTLINES_TOP
100
AcDbHatch
 10
0.0
 20
0.0
 30
0.0
210
0.0
220
0.0
230
1.0
  2
SOLID
 70
         1
 71
         1
 91
        1
 92
        1
 93
        1
 72
         2
 10
-23.770879999999998
 20
62.683548999999999
 40
0.45
 50
0.0
 51
360.0
 73
         1
 97
        1
330
199
 75
         0
 76
         1
 98
        1
 10
0.0
 20
0.0
  0
LWPOLYLINE
  5
19B
100
AcDbEntity
  8
ASSEMBLY_OUTLINES_TOP
100
AcDbPolyline
 90
        4
 70
         1
 10
42.83
 20
53.71
 10
42.83
 20
61.21
 10
45.37
 20
61.21
 10
45.37
 20
53.71
  0
LWPOLYLINE
  5
19C
100
AcDbEntity
  8
ASSEMBLY_OUTLINES_TOP
100
AcDbPolyline
 90
        4
 70
         1
 10
-25.95
 20
66.775
 10
-25.95
 20
71.855
 10
24.85
 20
71.855
 10
24.85
 20
66.775
  0
CIRCLE
  5
19D
100
AcDbEntity
  8
ASSEMBLY_OUTLINES_TOP
100
AcDbCircle
 10
-24.681775
 20
68.03456
 30
0.0
 40
0.45
  0
HATCH
  5
19E
100
AcDbEntity
  8
ASSEMBLY_OUTLINES_TOP
100
AcDbHatch
 10
0.0
 20
0.0
 30
0.0
210
0.0
220
0.0
230
1.0
  2
SOLID
 70
         1
 71
         1
 91
        1
 92
        1
 93
        1
 72
         2
 10
-24.681774999999998
 20
68.034559999999999
 40
0.45
 50
0.0
 51
360.0
 73
         1
 97
        1
330
19D
 75
         0
 76
         1
 98
        1
 10
0.0
 20
0.0
  0
CIRCLE
  5
19F
100
AcDbEntity
  8
ASSEMBLY_OUTLINES_TOP
100
AcDbCircle
 10
-22.141775
 20
68.03456
 30
0.0
 40
0.45
  0
HATCH
  5
1A0
100
AcDbEntity
  8
ASSEMBLY_OUTLINES_TOP
100
AcDbHatch
 10
0.0
 20
0.0
 30
0.0
210
0.0
220
0.0
230
1.0
  2
SOLID
 70
         1
 71
         1
 91
        1
 92
        1
 93
        1
 72
         2
 10
-22.141774999999999
 20
68.034559999999999
 40
0.45
 50
0.0
 51
360.0
 73
         1
 97
        1
330
19F
 75
         0
 76
         1
 98
        1
 10
0.0
 20
0.0
  0
CIRCLE
  5
1A1
100
AcDbEntity
  8
ASSEMBLY_OUTLINES_TOP
100
AcDbCircle
 10
-19.601775
 20
68.03456
 30
0.0
 40
0.45
  0
HATCH
  5
1A2
100
AcDbEntity
  8
ASSEMBLY_OUTLINES_TOP
100
AcDbHatch
 10
0.0
 20
0.0
 30
0.0
210
0.0
220
0.0
230
1.0
  2
SOLID
 70
         1
 71
         1
 91
        1
 92
        1
 93
        1
 72
         2
 10
-19.601775
 20
68.034559999999999
 40
0.45
 50
0.0
 51
360.0
 73
         1
 97
        1
330
1A1
 75
         0
 76
         1
 98
        1
 10
0.0
 20
0.0
  0
CIRCLE
  5
1A3
100
AcDbEntity
  8
ASSEMBLY_OUTLINES_TOP
100
AcDbCircle
 10
-17.061775
 20
68.03456
 30
0.0
 40
0.45
  0
HATCH
  5
1A4
100
AcDbEntity
  8
ASSEMBLY_OUTLINES_TOP
100
AcDbHatch
 10
0.0
 20
0.0
 30
0.0
210
0.0
220
0.0
230
1.0
  2
SOLID
 70
         1
 71
         1
 91
        1
 92
        1
 93
        1
 72
         2
 10
-17.061775000000001
 20
68.034559999999999
 40
0.45
 50
0.0
 51
360.0
 73
         1
 97
        1
330
1A3
 75
         0
 76
         1
 98
        1
 10
0.0
 20
0.0
  0
CIRCLE
  5
1A5
100
AcDbEntity
  8
ASSEMBLY_OUTLINES_TOP
100
AcDbCircle
 10
-14.521775
 20
68.03456
 30
0.0
 40
0.45
  0
HATCH
  5
1A6
100
AcDbEntity
  8
ASSEMBLY_OUTLINES_TOP
100
AcDbHatch
 10
0.0
 20
0.0
 30
0.0
210
0.0
220
0.0
230
1.0
  2
SOLID
 70
         1
 71
         1
 91
        1
 92
        1
 93
        1
 72
         2
 10
-14.521775
 20
68.034559999999999
 40
0.45
 50
0.0
 51
360.0
 73
         1
 97
        1
330
1A5
 75
         0
 76
         1
 98
        1
 10
0.0
 20
0.0
  0
CIRCLE
  5
1A7
100
AcDbEntity
  8
ASSEMBLY_OUTLINES_TOP
100
AcDbCircle
 10
-11.981775
 20
68.03456
 30
0.0
 40
0.45
  0
HATCH
  5
1A8
100
AcDbEntity
  8
ASSEMBLY_OUTLINES_TOP
100
AcDbHatch
 10
0.0
 20
0.0
 30
0.0
210
0.0
220
0.0
230
1.0
  2
SOLID
 70
         1
 71
         1
 91
        1
 92
        1
 93
        1
 72
         2
 10
-11.981775000000001
 20
68.034559999999999
 40
0.45
 50
0.0
 51
360.0
 73
         1
 97
        1
330
1A7
 75
         0
 76
         1
 98
        1
 10
0.0
 20
0.0
  0
CIRCLE
  5
1A9
100
AcDbEntity
  8
ASSEMBLY_OUTLINES_TOP
100
AcDbCircle
 10
-9.441775
 20
68.03456
 30
0.0
 40
0.45
  0
HATCH
  5
1AA
100
AcDbEntity
  8
ASSEMBLY_OUTLINES_TOP
100
AcDbHatch
 10
0.0
 20
0.0
 30
0.0
210
0.0
220
0.0
230
1.0
  2
SOLID
 70
         1
 71
         1
 91
        1
 92
        1
 93
        1
 72
         2
 10
-9.4417749999999998
 20
68.034559999999999
 40
0.45
 50
0.0
 51
360.0
 73
         1
 97
        1
330
1A9
 75
         0
 76
         1
 98
        1
 10
0.0
 20
0.0
  0
CIRCLE
  5
1AB
100
AcDbEntity
  8
ASSEMBLY_OUTLINES_TOP
100
AcDbCircle
 10
-6.901775
 20
68.03456
 30
0.0
 40
0.45
  0
HATCH
  5
1AC
100
AcDbEntity
  8
ASSEMBLY_OUTLINES_TOP
100
AcDbHatch
 10
0.0
 20
0.0
 30
0.0
210
0.0
220
0.0
230
1.0
  2
SOLID
 70
         1
 71
         1
 91
        1
 92
        1
 93
        1
 72
         2
 10
-6.9017749999999998
 20
68.034559999999999
 40
0.45
 50
0.0
 51
360.0
 73
         1
 97
        1
330
1AB
 75
         0
 76
         1
 98
        1
 10
0.0
 20
0.0
  0
CIRCLE
  5
1AD
100
AcDbEntity
  8
ASSEMBLY_OUTLINES_TOP
100
AcDbCircle
 10
-4.361775
 20
68.03456
 30
0.0
 40
0.45
  0
HATCH
  5
1AE
100
AcDbEntity
  8
ASSEMBLY_OUTLINES_TOP
100
AcDbHatch
 10
0.0
 20
0.0
 30
0.0
210
0.0
220
0.0
230
1.0
  2
SOLID
 70
         1
 71
         1
 91
        1
 92
        1
 93
        1
 72
         2
 10
-4.3617749999999997
 20
68.034559999999999
 40
0.45
 50
0.0
 51
360.0
 73
         1
 97
        1
330
1AD
 75
         0
 76
         1
 98
        1
 10
0.0
 20
0.0
  0
CIRCLE
  5
1AF
100
AcDbEntity
  8
ASSEMBLY_OUTLINES_TOP
100
AcDbCircle
 10
-1.821775
 20
68.03456
 30
0.0
 40
0.45
  0
HATCH
  5
1B0
100
AcDbEntity
  8
ASSEMBLY_OUTLINES_TOP
100
AcDbHatch
 10
0.0
 20
0.0
 30
0.0
210
0.0
220
0.0
230
1.0
  2
SOLID
 70
         1
 71
         1
 91
        1
 92
        1
 93
        1
 72
         2
 10
-1.8217749999999999
 20
68.034559999999999
 40
0.45
 50
0.0
 51
360.0
 73
         1
 97
        1
330
1AF
 75
         0
 76
         1
 98
        1
 10
0.0
 20
0.0
  0
CIRCLE
  5
1B1
100
AcDbEntity
  8
ASSEMBLY_OUTLINES_TOP
100
AcDbCircle
 10
0.721774
 20
68.02544
 30
0.0
 40
0.45
  0
HATCH
  5
1B2
100
AcDbEntity
  8
ASSEMBLY_OUTLINES_TOP
100
AcDbHatch
 10
0.0
 20
0.0
 30
0.0
210
0.0
220
0.0
230
1.0
  2
SOLID
 70
         1
 71
         1
 91
        1
 92
        1
 93
        1
 72
         2
 10
0.721774
 20
68.025440000000003
 40
0.45
 50
0.0
 51
360.0
 73
         1
 97
        1
330
1B1
 75
         0
 76
         1
 98
        1
 10
0.0
 20
0.0
  0
CIRCLE
  5
1B3
100
AcDbEntity
  8
ASSEMBLY_OUTLINES_TOP
100
AcDbCircle
 10
3.261774
 20
68.02544
 30
0.0
 40
0.45
  0
HATCH
  5
1B4
100
AcDbEntity
  8
ASSEMBLY_OUTLINES_TOP
100
AcDbHatch
 10
0.0
 20
0.0
 30
0.0
210
0.0
220
0.0
230
1.0
  2
SOLID
 70
         1
 71
         1
 91
        1
 92
        1
 93
        1
 72
         2
 10
3.261774
 20
68.025440000000003
 40
0.45
 50
0.0
 51
360.0
 73
         1
 97
        1
330
1B3
 75
         0
 76
         1
 98
        1
 10
0.0
 20
0.0
  0
CIRCLE
  5
1B5
100
AcDbEntity
  8
ASSEMBLY_OUTLINES_TOP
100
AcDbCircle
 10
5.801774
 20
68.02544
 30
0.0
 40
0.45
  0
HATCH
  5
1B6
100
AcDbEntity
  8
ASSEMBLY_OUTLINES_TOP
100
AcDbHatch
 10
0.0
 20
0.0
 30
0.0
210
0.0
220
0.0
230
1.0
  2
SOLID
 70
         1
 71
         1
 91
        1
 92
        1
 93
        1
 72
         2
 10
5.801774
 20
68.025440000000003
 40
0.45
 50
0.0
 51
360.0
 73
         1
 97
        1
330
1B5
 75
         0
 76
         1
 98
        1
 10
0.0
 20
0.0
  0
CIRCLE
  5
1B7
100
AcDbEntity
  8
ASSEMBLY_OUTLINES_TOP
100
AcDbCircle
 10
8.341774
 20
68.02544
 30
0.0
 40
0.45
  0
HATCH
  5
1B8
100
AcDbEntity
  8
ASSEMBLY_OUTLINES_TOP
100
AcDbHatch
 10
0.0
 20
0.0
 30
0.0
210
0.0
220
0.0
230
1.0
  2
SOLID
 70
         1
 71
         1
 91
        1
 92
        1
 93
        1
 72
         2
 10
8.3417739999999991
 20
68.025440000000003
 40
0.45
 50
0.0
 51
360.0
 73
         1
 97
        1
330
1B7
 75
         0
 76
         1
 98
        1
 10
0.0
 20
0.0
  0
CIRCLE
  5
1B9
100
AcDbEntity
  8
ASSEMBLY_OUTLINES_TOP
100
AcDbCircle
 10
10.881774
 20
68.02544
 30
0.0
 40
0.45
  0
HATCH
  5
1BA
100
AcDbEntity
  8
ASSEMBLY_OUTLINES_TOP
100
AcDbHatch
 10
0.0
 20
0.0
 30
0.0
210
0.0
220
0.0
230
1.0
  2
SOLID
 70
         1
 71
         1
 91
        1
 92
        1
 93
        1
 72
         2
 10
10.881774
 20
68.025440000000003
 40
0.45
 50
0.0
 51
360.0
 73
         1
 97
        1
330
1B9
 75
         0
 76
         1
 98
        1
 10
0.0
 20
0.0
  0
CIRCLE
  5
1BB
100
AcDbEntity
  8
ASSEMBLY_OUTLINES_TOP
100
AcDbCircle
 10
13.421774
 20
68.02544
 30
0.0
 40
0.45
  0
HATCH
  5
1BC
100
AcDbEntity
  8
ASSEMBLY_OUTLINES_TOP
100
AcDbHatch
 10
0.0
 20
0.0
 30
0.0
210
0.0
220
0.0
230
1.0
  2
SOLID
 70
         1
 71
         1
 91
        1
 92
        1
 93
        1
 72
         2
 10
13.421773999999999
 20
68.025440000000003
 40
0.45
 50
0.0
 51
360.0
 73
         1
 97
        1
330
1BB
 75
         0
 76
         1
 98
        1
 10
0.0
 20
0.0
  0
CIRCLE
  5
1BD
100
AcDbEntity
  8
ASSEMBLY_OUTLINES_TOP
100
AcDbCircle
 10
15.961774
 20
68.02544
 30
0.0
 40
0.45
  0
HATCH
  5
1BE
100
AcDbEntity
  8
ASSEMBLY_OUTLINES_TOP
100
AcDbHatch
 10
0.0
 20
0.0
 30
0.0
210
0.0
220
0.0
230
1.0
  2
SOLID
 70
         1
 71
         1
 91
        1
 92
        1
 93
        1
 72
         2
 10
15.961774
 20
68.025440000000003
 40
0.45
 50
0.0
 51
360.0
 73
         1
 97
        1
330
1BD
 75
         0
 76
         1
 98
        1
 10
0.0
 20
0.0
  0
CIRCLE
  5
1BF
100
AcDbEntity
  8
ASSEMBLY_OUTLINES_TOP
100
AcDbCircle
 10
18.501774
 20
68.02544
 30
0.0
 40
0.45
  0
HATCH
  5
1C0
100
AcDbEntity
  8
ASSEMBLY_OUTLINES_TOP
100
AcDbHatch
 10
0.0
 20
0.0
 30
0.0
210
0.0
220
0.0
230
1.0
  2
SOLID
 70
         1
 71
         1
 91
        1
 92
        1
 93
        1
 72
         2
 10
18.501774000000001
 20
68.025440000000003
 40
0.45
 50
0.0
 51
360.0
 73
         1
 97
        1
330
1BF
 75
         0
 76
         1
 98
        1
 10
0.0
 20
0.0
  0
CIRCLE
  5
1C1
100
AcDbEntity
  8
ASSEMBLY_OUTLINES_TOP
100
AcDbCircle
 10
21.041774
 20
68.02544
 30
0.0
 40
0.45
  0
HATCH
  5
1C2
100
AcDbEntity
  8
ASSEMBLY_OUTLINES_TOP
100
AcDbHatch
 10
0.0
 20
0.0
 30
0.0
210
0.0
220
0.0
230
1.0
  2
SOLID
 70
         1
 71
         1
 91
        1
 92
        1
 93
        1
 72
         2
 10
21.041774
 20
68.025440000000003
 40
0.45
 50
0.0
 51
360.0
 73
         1
 97
        1
330
1C1
 75
         0
 76
         1
 98
        1
 10
0.0
 20
0.0
  0
CIRCLE
  5
1C3
100
AcDbEntity
  8
ASSEMBLY_OUTLINES_TOP
100
AcDbCircle
 10
23.581774
 20
68.02544
 30
0.0
 40
0.45
  0
HATCH
  5
1C4
100
AcDbEntity
  8
ASSEMBLY_OUTLINES_TOP
100
AcDbHatch
 10
0.0
 20
0.0
 30
0.0
210
0.0
220
0.0
230
1.0
  2
SOLID
 70
         1
 71
         1
 91
        1
 92
        1
 93
        1
 72
         2
 10
23.581773999999999
 20
68.025440000000003
 40
0.45
 50
0.0
 51
360.0
 73
         1
 97
        1
330
1C3
 75
         0
 76
         1
 98
        1
 10
0.0
 20
0.0
  0
CIRCLE
  5
1C5
100
AcDbEntity
  8
ASSEMBLY_OUTLINES_TOP
100
AcDbCircle
 10
-24.68
 20
70.57
 30
0.0
 40
0.45
  0
HATCH
  5
1C6
100
AcDbEntity
  8
ASSEMBLY_OUTLINES_TOP
100
AcDbHatch
 10
0.0
 20
0.0
 30
0.0
210
0.0
220
0.0
230
1.0
  2
SOLID
 70
         1
 71
         1
 91
        1
 92
        1
 93
        1
 72
         2
 10
-24.68
 20
70.569999999999993
 40
0.45
 50
0.0
 51
360.0
 73
         1
 97
        1
330
1C5
 75
         0
 76
         1
 98
        1
 10
0.0
 20
0.0
  0
CIRCLE
  5
1C7
100
AcDbEntity
  8
ASSEMBLY_OUTLINES_TOP
100
AcDbCircle
 10
-22.14
 20
70.57
 30
0.0
 40
0.45
  0
HATCH
  5
1C8
100
AcDbEntity
  8
ASSEMBLY_OUTLINES_TOP
100
AcDbHatch
 10
0.0
 20
0.0
 30
0.0
210
0.0
220
0.0
230
1.0
  2
SOLID
 70
         1
 71
         1
 91
        1
 92
        1
 93
        1
 72
         2
 10
-22.140000000000001
 20
70.569999999999993
 40
0.45
 50
0.0
 51
360.0
 73
         1
 97
        1
330
1C7
 75
         0
 76
         1
 98
        1
 10
0.0
 20
0.0
  0
CIRCLE
  5
1C9
100
AcDbEntity
  8
ASSEMBLY_OUTLINES_TOP
100
AcDbCircle
 10
-19.6
 20
70.57
 30
0.0
 40
0.45
  0
HATCH
  5
1CA
100
AcDbEntity
  8
ASSEMBLY_OUTLINES_TOP
100
AcDbHatch
 10
0.0
 20
0.0
 30
0.0
210
0.0
220
0.0
230
1.0
  2
SOLID
 70
         1
 71
         1
 91
        1
 92
        1
 93
        1
 72
         2
 10
-19.600000000000001
 20
70.569999999999993
 40
0.45
 50
0.0
 51
360.0
 73
         1
 97
        1
330
1C9
 75
         0
 76
         1
 98
        1
 10
0.0
 20
0.0
  0
CIRCLE
  5
1CB
100
AcDbEntity
  8
ASSEMBLY_OUTLINES_TOP
100
AcDbCircle
 10
-17.06
 20
70.57
 30
0.0
 40
0.45
  0
HATCH
  5
1CC
100
AcDbEntity
  8
ASSEMBLY_OUTLINES_TOP
100
AcDbHatch
 10
0.0
 20
0.0
 30
0.0
210
0.0
220
0.0
230
1.0
  2
SOLID
 70
         1
 71
         1
 91
        1
 92
        1
 93
        1
 72
         2
 10
-17.059999999999999
 20
70.569999999999993
 40
0.45
 50
0.0
 51
360.0
 73
         1
 97
        1
330
1CB
 75
         0
 76
         1
 98
        1
 10
0.0
 20
0.0
  0
CIRCLE
  5
1CD
100
AcDbEntity
  8
ASSEMBLY_OUTLINES_TOP
100
AcDbCircle
 10
-14.52
 20
70.57
 30
0.0
 40
0.45
  0
HATCH
  5
1CE
100
AcDbEntity
  8
ASSEMBLY_OUTLINES_TOP
100
AcDbHatch
 10
0.0
 20
0.0
 30
0.0
210
0.0
220
0.0
230
1.0
  2
SOLID
 70
         1
 71
         1
 91
        1
 92
        1
 93
        1
 72
         2
 10
-14.52
 20
70.569999999999993
 40
0.45
 50
0.0
 51
360.0
 73
         1
 97
        1
330
1CD
 75
         0
 76
         1
 98
        1
 10
0.0
 20
0.0
  0
CIRCLE
  5
1CF
100
AcDbEntity
  8
ASSEMBLY_OUTLINES_TOP
100
AcDbCircle
 10
-11.98
 20
70.57
 30
0.0
 40
0.45
  0
HATCH
  5
1D0
100
AcDbEntity
  8
ASSEMBLY_OUTLINES_TOP
100
AcDbHatch
 10
0.0
 20
0.0
 30
0.0
210
0.0
220
0.0
230
1.0
  2
SOLID
 70
         1
 71
         1
 91
        1
 92
        1
 93
        1
 72
         2
 10
-11.98
 20
70.569999999999993
 40
0.45
 50
0.0
 51
360.0
 73
         1
 97
        1
330
1CF
 75
         0
 76
         1
 98
        1
 10
0.0
 20
0.0
  0
CIRCLE
  5
1D1
100
AcDbEntity
  8
ASSEMBLY_OUTLINES_TOP
100
AcDbCircle
 10
-9.44
 20
70.57
 30
0.0
 40
0.45
  0
HATCH
  5
1D2
100
AcDbEntity
  8
ASSEMBLY_OUTLINES_TOP
100
AcDbHatch
 10
0.0
 20
0.0
 30
0.0
210
0.0
220
0.0
230
1.0
  2
SOLID
 70
         1
 71
         1
 91
        1
 92
        1
 93
        1
 72
         2
 10
-9.4399999999999995
 20
70.569999999999993
 40
0.45
 50
0.0
 51
360.0
 73
         1
 97
        1
330
1D1
 75
         0
 76
         1
 98
        1
 10
0.0
 20
0.0
  0
CIRCLE
  5
1D3
100
AcDbEntity
  8
ASSEMBLY_OUTLINES_TOP
100
AcDbCircle
 10
-6.9
 20
70.57
 30
0.0
 40
0.45
  0
HATCH
  5
1D4
100
AcDbEntity
  8
ASSEMBLY_OUTLINES_TOP
100
AcDbHatch
 10
0.0
 20
0.0
 30
0.0
210
0.0
220
0.0
230
1.0
  2
SOLID
 70
         1
 71
         1
 91
        1
 92
        1
 93
        1
 72
         2
 10
-6.9000000000000004
 20
70.569999999999993
 40
0.45
 50
0.0
 51
360.0
 73
         1
 97
        1
330
1D3
 75
         0
 76
         1
 98
        1
 10
0.0
 20
0.0
  0
CIRCLE
  5
1D5
100
AcDbEntity
  8
ASSEMBLY_OUTLINES_TOP
100
AcDbCircle
 10
-4.36
 20
70.57
 30
0.0
 40
0.45
  0
HATCH
  5
1D6
100
AcDbEntity
  8
ASSEMBLY_OUTLINES_TOP
100
AcDbHatch
 10
0.0
 20
0.0
 30
0.0
210
0.0
220
0.0
230
1.0
  2
SOLID
 70
         1
 71
         1
 91
        1
 92
        1
 93
        1
 72
         2
 10
-4.3600000000000003
 20
70.569999999999993
 40
0.45
 50
0.0
 51
360.0
 73
         1
 97
        1
330
1D5
 75
         0
 76
         1
 98
        1
 10
0.0
 20
0.0
  0
CIRCLE
  5
1D7
100
AcDbEntity
  8
ASSEMBLY_OUTLINES_TOP
100
AcDbCircle
 10
-1.82
 20
70.57
 30
0.0
 40
0.45
  0
HATCH
  5
1D8
100
AcDbEntity
  8
ASSEMBLY_OUTLINES_TOP
100
AcDbHatch
 10
0.0
 20
0.0
 30
0.0
210
0.0
220
0.0
230
1.0
  2
SOLID
 70
         1
 71
         1
 91
        1
 92
        1
 93
        1
 72
         2
 10
-1.8200000000000001
 20
70.569999999999993
 40
0.45
 50
0.0
 51
360.0
 73
         1
 97
        1
330
1D7
 75
         0
 76
         1
 98
        1
 10
0.0
 20
0.0
  0
CIRCLE
  5
1D9
100
AcDbEntity
  8
ASSEMBLY_OUTLINES_TOP
100
AcDbCircle
 10
0.723549
 20
70.57088
 30
0.0
 40
0.45
  0
HATCH
  5
1DA
100
AcDbEntity
  8
ASSEMBLY_OUTLINES_TOP
100
AcDbHatch
 10
0.0
 20
0.0
 30
0.0
210
0.0
220
0.0
230
1.0
  2
SOLID
 70
         1
 71
         1
 91
        1
 92
        1
 93
        1
 72
         2
 10
0.723549
 20
70.570880000000002
 40
0.45
 50
0.0
 51
360.0
 73
         1
 97
        1
330
1D9
 75
         0
 76
         1
 98
        1
 10
0.0
 20
0.0
  0
CIRCLE
  5
1DB
100
AcDbEntity
  8
ASSEMBLY_OUTLINES_TOP
100
AcDbCircle
 10
3.263549
 20
70.57088
 30
0.0
 40
0.45
  0
HATCH
  5
1DC
100
AcDbEntity
  8
ASSEMBLY_OUTLINES_TOP
100
AcDbHatch
 10
0.0
 20
0.0
 30
0.0
210
0.0
220
0.0
230
1.0
  2
SOLID
 70
         1
 71
         1
 91
        1
 92
        1
 93
        1
 72
         2
 10
3.2635489999999998
 20
70.570880000000002
 40
0.45
 50
0.0
 51
360.0
 73
         1
 97
        1
330
1DB
 75
         0
 76
         1
 98
        1
 10
0.0
 20
0.0
  0
CIRCLE
  5
1DD
100
AcDbEntity
  8
ASSEMBLY_OUTLINES_TOP
100
AcDbCircle
 10
5.803549
 20
70.57088
 30
0.0
 40
0.45
  0
HATCH
  5
1DE
100
AcDbEntity
  8
ASSEMBLY_OUTLINES_TOP
100
AcDbHatch
 10
0.0
 20
0.0
 30
0.0
210
0.0
220
0.0
230
1.0
  2
SOLID
 70
         1
 71
         1
 91
        1
 92
        1
 93
        1
 72
         2
 10
5.8035490000000003
 20
70.570880000000002
 40
0.45
 50
0.0
 51
360.0
 73
         1
 97
        1
330
1DD
 75
         0
 76
         1
 98
        1
 10
0.0
 20
0.0
  0
CIRCLE
  5
1DF
100
AcDbEntity
  8
ASSEMBLY_OUTLINES_TOP
100
AcDbCircle
 10
8.343549
 20
70.57088
 30
0.0
 40
0.45
  0
HATCH
  5
1E0
100
AcDbEntity
  8
ASSEMBLY_OUTLINES_TOP
100
AcDbHatch
 10
0.0
 20
0.0
 30
0.0
210
0.0
220
0.0
230
1.0
  2
SOLID
 70
         1
 71
         1
 91
        1
 92
        1
 93
        1
 72
         2
 10
8.3435489999999994
 20
70.570880000000002
 40
0.45
 50
0.0
 51
360.0
 73
         1
 97
        1
330
1DF
 75
         0
 76
         1
 98
        1
 10
0.0
 20
0.0
  0
CIRCLE
  5
1E1
100
AcDbEntity
  8
ASSEMBLY_OUTLINES_TOP
100
AcDbCircle
 10
10.883549
 20
70.57088
 30
0.0
 40
0.45
  0
HATCH
  5
1E2
100
AcDbEntity
  8
ASSEMBLY_OUTLINES_TOP
100
AcDbHatch
 10
0.0
 20
0.0
 30
0.0
210
0.0
220
0.0
230
1.0
  2
SOLID
 70
         1
 71
         1
 91
        1
 92
        1
 93
        1
 72
         2
 10
10.883549
 20
70.570880000000002
 40
0.45
 50
0.0
 51
360.0
 73
         1
 97
        1
330
1E1
 75
         0
 76
         1
 98
        1
 10
0.0
 20
0.0
  0
CIRCLE
  5
1E3
100
AcDbEntity
  8
ASSEMBLY_OUTLINES_TOP
100
AcDbCircle
 10
13.423549
 20
70.57088
 30
0.0
 40
0.45
  0
HATCH
  5
1E4
100
AcDbEntity
  8
ASSEMBLY_OUTLINES_TOP
100
AcDbHatch
 10
0.0
 20
0.0
 30
0.0
210
0.0
220
0.0
230
1.0
  2
SOLID
 70
         1
 71
         1
 91
        1
 92
        1
 93
        1
 72
         2
 10
13.423549
 20
70.570880000000002
 40
0.45
 50
0.0
 51
360.0
 73
         1
 97
        1
330
1E3
 75
         0
 76
         1
 98
        1
 10
0.0
 20
0.0
  0
CIRCLE
  5
1E5
100
AcDbEntity
  8
ASSEMBLY_OUTLINES_TOP
100
AcDbCircle
 10
15.963549
 20
70.57088
 30
0.0
 40
0.45
  0
HATCH
  5
1E6
100
AcDbEntity
  8
ASSEMBLY_OUTLINES_TOP
100
AcDbHatch
 10
0.0
 20
0.0
 30
0.0
210
0.0
220
0.0
230
1.0
  2
SOLID
 70
         1
 71
         1
 91
        1
 92
        1
 93
        1
 72
         2
 10
15.963549
 20
70.570880000000002
 40
0.45
 50
0.0
 51
360.0
 73
         1
 97
        1
330
1E5
 75
         0
 76
         1
 98
        1
 10
0.0
 20
0.0
  0
CIRCLE
  5
1E7
100
AcDbEntity
  8
ASSEMBLY_OUTLINES_TOP
100
AcDbCircle
 10
18.503549
 20
70.57088
 30
0.0
 40
0.45
  0
HATCH
  5
1E8
100
AcDbEntity
  8
ASSEMBLY_OUTLINES_TOP
100
AcDbHatch
 10
0.0
 20
0.0
 30
0.0
210
0.0
220
0.0
230
1.0
  2
SOLID
 70
         1
 71
         1
 91
        1
 92
        1
 93
        1
 72
         2
 10
18.503549
 20
70.570880000000002
 40
0.45
 50
0.0
 51
360.0
 73
         1
 97
        1
330
1E7
 75
         0
 76
         1
 98
        1
 10
0.0
 20
0.0
  0
CIRCLE
  5
1E9
100
AcDbEntity
  8
ASSEMBLY_OUTLINES_TOP
100
AcDbCircle
 10
21.043549
 20
70.57088
 30
0.0
 40
0.45
  0
HATCH
  5
1EA
100
AcDbEntity
  8
ASSEMBLY_OUTLINES_TOP
100
AcDbHatch
 10
0.0
 20
0.0
 30
0.0
210
0.0
220
0.0
230
1.0
  2
SOLID
 70
         1
 71
         1
 91
        1
 92
        1
 93
        1
 72
         2
 10
21.043548999999999
 20
70.570880000000002
 40
0.45
 50
0.0
 51
360.0
 73
         1
 97
        1
330
1E9
 75
         0
 76
         1
 98
        1
 10
0.0
 20
0.0
  0
CIRCLE
  5
1EB
100
AcDbEntity
  8
ASSEMBLY_OUTLINES_TOP
100
AcDbCircle
 10
23.583549
 20
70.57088
 30
0.0
 40
0.45
  0
HATCH
  5
1EC
100
AcDbEntity
  8
ASSEMBLY_OUTLINES_TOP
100
AcDbHatch
 10
0.0
 20
0.0
 30
0.0
210
0.0
220
0.0
230
1.0
  2
SOLID
 70
         1
 71
         1
 91
        1
 92
        1
 93
        1
 72
         2
 10
23.583549000000001
 20
70.570880000000002
 40
0.45
 50
0.0
 51
360.0
 73
         1
 97
        1
330
1EB
 75
         0
 76
         1
 98
        1
 10
0.0
 20
0.0
  0
LWPOLYLINE
  5
1ED
100
AcDbEntity
  8
ASSEMBLY_OUTLINES_TOP
100
AcDbPolyline
 90
        4
 70
         1
 10
63.43
 20
0.89
 10
63.43
 20
5.97
 10
65.97
 20
5.97
 10
65.97
 20
0.89
  0
LWPOLYLINE
  5
1EE
100
AcDbEntity
  8
ASSEMBLY_OUTLINES_TOP
100
AcDbPolyline
 90
        4
 70
         1
 10
-7.56
 20
26.98
 10
-7.56
 20
29.52
 10
-2.48
 20
29.52
 10
-2.48
 20
26.98
  0
LWPOLYLINE
  5
1EF
100
AcDbEntity
  8
ASSEMBLY_OUTLINES_TOP
100
AcDbPolyline
 90
        4
 70
         1
 43
0.1
 10
8.6
 20
57.01
 10
8.6
 20
62.29
 10
16.3
 20
62.29
 10
16.3
 20
57.01
  0
LWPOLYLINE
  5
1F0
100
AcDbEntity
  8
ASSEMBLY_OUTLINES_TOP
100
AcDbPolyline
 90
        2
 70
         0
 43
0.1
 10
16.2
 20
62.29
 10
16.3
 20
62.19
  0
LWPOLYLINE
  5
1F1
100
AcDbEntity
  8
ASSEMBLY_OUTLINES_TOP
100
AcDbPolyline
 90
        2
 70
         0
 43
0.1
 10
16.1
 20
62.29
 10
16.3
 20
62.09
  0
LWPOLYLINE
  5
1F2
100
AcDbEntity
  8
ASSEMBLY_OUTLINES_TOP
100
AcDbPolyline
 90
        2
 70
         0
 43
0.1
 10
16.0
 20
62.29
 10
16.3
 20
61.99
  0
LWPOLYLINE
  5
1F3
100
AcDbEntity
  8
ASSEMBLY_OUTLINES_TOP
100
AcDbPolyline
 90
        2
 70
         0
 43
0.1
 10
15.9
 20
62.29
 10
16.3
 20
61.89
  0
LWPOLYLINE
  5
1F4
100
AcDbEntity
  8
ASSEMBLY_OUTLINES_TOP
100
AcDbPolyline
 90
        2
 70
         0
 43
0.1
 10
15.8
 20
62.29
 10
16.3
 20
61.79
  0
LWPOLYLINE
  5
1F5
100
AcDbEntity
  8
ASSEMBLY_OUTLINES_TOP
100
AcDbPolyline
 90
        2
 70
         0
 43
0.1
 10
15.7
 20
62.29
 10
16.3
 20
61.69
  0
LWPOLYLINE
  5
1F6
100
AcDbEntity
  8
ASSEMBLY_OUTLINES_TOP
100
AcDbPolyline
 90
        4
 70
         1
 10
92.38
 20
-3.0
 10
92.38
 20
22.4
 10
108.38
 20
22.4
 10
108.38
 20
-3.0
  0
LWPOLYLINE
  5
1F7
100
AcDbEntity
  8
ASSEMBLY_OUTLINES_TOP
100
AcDbPolyline
 90
        4
 70
         1
 43
0.1
 10
6.4
 20
33.9
 10
6.4
 20
37.6
 10
9.4
 20
37.6
 10
9.4
 20
33.9
  0
LWPOLYLINE
  5
1F8
100
AcDbEntity
  8
ASSEMBLY_OUTLINES_TOP
100
AcDbPolyline
 90
        2
 70
         0
 43
0.1
 10
9.4
 20
34.0
 10
6.4
 20
34.0
  0
LWPOLYLINE
  5
1F9
100
AcDbEntity
  8
ASSEMBLY_OUTLINES_TOP
100
AcDbPolyline
 90
        2
 70
         0
 43
0.1
 10
9.4
 20
34.1
 10
6.4
 20
34.1
  0
LWPOLYLINE
  5
1FA
100
AcDbEntity
  8
ASSEMBLY_OUTLINES_TOP
100
AcDbPolyline
 90
        2
 70
         0
 43
0.1
 10
9.4
 20
34.2
 10
6.4
 20
34.2
  0
LWPOLYLINE
  5
1FB
100
AcDbEntity
  8
ASSEMBLY_OUTLINES_TOP
100
AcDbPolyline
 90
        2
 70
         0
 43
0.1
 10
9.4
 20
34.3
 10
6.4
 20
34.3
  0
LWPOLYLINE
  5
1FC
100
AcDbEntity
  8
ASSEMBLY_OUTLINES_TOP
100
AcDbPolyline
 90
        2
 70
         0
 43
0.1
 10
9.4
 20
34.4
 10
6.4
 20
34.4
  0
LWPOLYLINE
  5
1FD
100
AcDbEntity
  8
ASSEMBLY_OUTLINES_TOP
100
AcDbPolyline
 90
        2
 70
         0
 43
0.1
 10
9.4
 20
34.5
 10
6.4
 20
34.5
  0
LWPOLYLINE
  5
1FE
100
AcDbEntity
  8
ASSEMBLY_OUTLINES_TOP
100
AcDbPolyline
 90
        2
 70
         0
 43
0.1
 10
9.4
 20
34.6
 10
6.4
 20
34.6
  0
LWPOLYLINE
  5
1FF
100
AcDbEntity
  8
ASSEMBLY_OUTLINES_TOP
100
AcDbPolyline
 90
        2
 70
         0
 43
0.1
 10
9.4
 20
34.7
 10
6.4
 20
34.7
  0
LWPOLYLINE
  5
200
100
AcDbEntity
  8
ASSEMBLY_OUTLINES_TOP
100
AcDbPolyline
 90
        4
 70
         1
 43
0.1
 10
79.9
 20
16.75
 10
79.9
 20
20.45
 10
82.9
 20
20.45
 10
82.9
 20
16.75
  0
LWPOLYLINE
  5
201
100
AcDbEntity
  8
ASSEMBLY_OUTLINES_TOP
100
AcDbPolyline
 90
        2
 70
         0
 43
0.1
 10
79.9
 20
20.35
 10
82.9
 20
20.35
  0
LWPOLYLINE
  5
202
100
AcDbEntity
  8
ASSEMBLY_OUTLINES_TOP
100
AcDbPolyline
 90
        2
 70
         0
 43
0.1
 10
79.9
 20
20.25
 10
82.9
 20
20.25
  0
LWPOLYLINE
  5
203
100
AcDbEntity
  8
ASSEMBLY_OUTLINES_TOP
100
AcDbPolyline
 90
        2
 70
         0
 43
0.1
 10
79.9
 20
20.15
 10
82.9
 20
20.15
  0
LWPOLYLINE
  5
204
100
AcDbEntity
  8
ASSEMBLY_OUTLINES_TOP
100
AcDbPolyline
 90
        2
 70
         0
 43
0.1
 10
79.9
 20
20.05
 10
82.9
 20
20.05
  0
LWPOLYLINE
  5
205
100
AcDbEntity
  8
ASSEMBLY_OUTLINES_TOP
100
AcDbPolyline
 90
        2
 70
         0
 43
0.1
 10
79.9
 20
19.95
 10
82.9
 20
19.95
  0
LWPOLYLINE
  5
206
100
AcDbEntity
  8
ASSEMBLY_OUTLINES_TOP
100
AcDbPolyline
 90
        2
 70
         0
 43
0.1
 10
79.9
 20
19.85
 10
82.9
 20
19.85
  0
LWPOLYLINE
  5
207
100
AcDbEntity
  8
ASSEMBLY_OUTLINES_TOP
100
AcDbPolyline
 90
        2
 70
         0
 43
0.1
 10
79.9
 20
19.75
 10
82.9
 20
19.75
  0
LWPOLYLINE
  5
208
100
AcDbEntity
  8
ASSEMBLY_OUTLINES_TOP
100
AcDbPolyline
 90
        2
 70
         0
 43
0.1
 10
79.9
 20
19.65
 10
82.9
 20
19.65
  0
LWPOLYLINE
  5
209
100
AcDbEntity
  8
ASSEMBLY_OUTLINES_TOP
100
AcDbPolyline
 90
        4
 70
         1
 43
0.1
 10
12.8
 20
13.2
 10
12.8
 20
16.2
 10
15.8
 20
16.2
 10
15.8
 20
13.2
  0
LWPOLYLINE
  5
20A
100
AcDbEntity
  8
ASSEMBLY_OUTLINES_TOP
100
AcDbPolyline
 90
        2
 70
         0
 43
0.1
 10
15.7
 20
16.2
 10
15.8
 20
16.1
  0
LWPOLYLINE
  5
20B
100
AcDbEntity
  8
ASSEMBLY_OUTLINES_TOP
100
AcDbPolyline
 90
        2
 70
         0
 43
0.1
 10
15.6
 20
16.2
 10
15.8
 20
16.0
  0
LWPOLYLINE
  5
20C
100
AcDbEntity
  8
ASSEMBLY_OUTLINES_TOP
100
AcDbPolyline
 90
        2
 70
         0
 43
0.1
 10
15.5
 20
16.2
 10
15.8
 20
15.9
  0
LWPOLYLINE
  5
20D
100
AcDbEntity
  8
ASSEMBLY_OUTLINES_TOP
100
AcDbPolyline
 90
        2
 70
         0
 43
0.1
 10
15.4
 20
16.2
 10
15.8
 20
15.8
  0
LWPOLYLINE
  5
20E
100
AcDbEntity
  8
ASSEMBLY_OUTLINES_TOP
100
AcDbPolyline
 90
        2
 70
         0
 43
0.1
 10
15.3
 20
16.2
 10
15.8
 20
15.7
  0
LWPOLYLINE
  5
20F
100
AcDbEntity
  8
ASSEMBLY_OUTLINES_TOP
100
AcDbPolyline
 90
        2
 70
         0
 43
0.1
 10
15.2
 20
16.2
 10
15.8
 20
15.6
  0
LWPOLYLINE
  5
210
100
AcDbEntity
  8
ASSEMBLY_OUTLINES_TOP
100
AcDbPolyline
 90
        4
 70
         1
 10
53.13
 20
76.925
 10
53.13
 20
82.005
 10
103.93
 20
82.005
 10
103.93
 20
76.925
  0
CIRCLE
  5
211
100
AcDbEntity
  8
ASSEMBLY_OUTLINES_TOP
100
AcDbCircle
 10
54.398225
 20
78.18456
 30
0.0
 40
0.45
  0
HATCH
  5
212
100
AcDbEntity
  8
ASSEMBLY_OUTLINES_TOP
100
AcDbHatch
 10
0.0
 20
0.0
 30
0.0
210
0.0
220
0.0
230
1.0
  2
SOLID
 70
         1
 71
         1
 91
        1
 92
        1
 93
        1
 72
         2
 10
54.398224999999996
 20
78.184560000000005
 40
0.45
 50
0.0
 51
360.0
 73
         1
 97
        1
330
211
 75
         0
 76
         1
 98
        1
 10
0.0
 20
0.0
  0
CIRCLE
  5
213
100
AcDbEntity
  8
ASSEMBLY_OUTLINES_TOP
100
AcDbCircle
 10
56.938225
 20
78.18456
 30
0.0
 40
0.45
  0
HATCH
  5
214
100
AcDbEntity
  8
ASSEMBLY_OUTLINES_TOP
100
AcDbHatch
 10
0.0
 20
0.0
 30
0.0
210
0.0
220
0.0
230
1.0
  2
SOLID
 70
         1
 71
         1
 91
        1
 92
        1
 93
        1
 72
         2
 10
56.938225000000003
 20
78.184560000000005
 40
0.45
 50
0.0
 51
360.0
 73
         1
 97
        1
330
213
 75
         0
 76
         1
 98
        1
 10
0.0
 20
0.0
  0
CIRCLE
  5
215
100
AcDbEntity
  8
ASSEMBLY_OUTLINES_TOP
100
AcDbCircle
 10
59.478225
 20
78.18456
 30
0.0
 40
0.45
  0
HATCH
  5
216
100
AcDbEntity
  8
ASSEMBLY_OUTLINES_TOP
100
AcDbHatch
 10
0.0
 20
0.0
 30
0.0
210
0.0
220
0.0
230
1.0
  2
SOLID
 70
         1
 71
         1
 91
        1
 92
        1
 93
        1
 72
         2
 10
59.478225000000002
 20
78.184560000000005
 40
0.45
 50
0.0
 51
360.0
 73
         1
 97
        1
330
215
 75
         0
 76
         1
 98
        1
 10
0.0
 20
0.0
  0
CIRCLE
  5
217
100
AcDbEntity
  8
ASSEMBLY_OUTLINES_TOP
100
AcDbCircle
 10
62.018225
 20
78.18456
 30
0.0
 40
0.45
  0
HATCH
  5
218
100
AcDbEntity
  8
ASSEMBLY_OUTLINES_TOP
100
AcDbHatch
 10
0.0
 20
0.0
 30
0.0
210
0.0
220
0.0
230
1.0
  2
SOLID
 70
         1
 71
         1
 91
        1
 92
        1
 93
        1
 72
         2
 10
62.018225000000001
 20
78.184560000000005
 40
0.45
 50
0.0
 51
360.0
 73
         1
 97
        1
330
217
 75
         0
 76
         1
 98
        1
 10
0.0
 20
0.0
  0
CIRCLE
  5
219
100
AcDbEntity
  8
ASSEMBLY_OUTLINES_TOP
100
AcDbCircle
 10
64.558225
 20
78.18456
 30
0.0
 40
0.45
  0
HATCH
  5
21A
100
AcDbEntity
  8
ASSEMBLY_OUTLINES_TOP
100
AcDbHatch
 10
0.0
 20
0.0
 30
0.0
210
0.0
220
0.0
230
1.0
  2
SOLID
 70
         1
 71
         1
 91
        1
 92
        1
 93
        1
 72
         2
 10
64.558224999999993
 20
78.184560000000005
 40
0.45
 50
0.0
 51
360.0
 73
         1
 97
        1
330
219
 75
         0
 76
         1
 98
        1
 10
0.0
 20
0.0
  0
CIRCLE
  5
21B
100
AcDbEntity
  8
ASSEMBLY_OUTLINES_TOP
100
AcDbCircle
 10
67.098225
 20
78.18456
 30
0.0
 40
0.45
  0
HATCH
  5
21C
100
AcDbEntity
  8
ASSEMBLY_OUTLINES_TOP
100
AcDbHatch
 10
0.0
 20
0.0
 30
0.0
210
0.0
220
0.0
230
1.0
  2
SOLID
 70
         1
 71
         1
 91
        1
 92
        1
 93
        1
 72
         2
 10
67.098224999999999
 20
78.184560000000005
 40
0.45
 50
0.0
 51
360.0
 73
         1
 97
        1
330
21B
 75
         0
 76
         1
 98
        1
 10
0.0
 20
0.0
  0
CIRCLE
  5
21D
100
AcDbEntity
  8
ASSEMBLY_OUTLINES_TOP
100
AcDbCircle
 10
69.638225
 20
78.18456
 30
0.0
 40
0.45
  0
HATCH
  5
21E
100
AcDbEntity
  8
ASSEMBLY_OUTLINES_TOP
100
AcDbHatch
 10
0.0
 20
0.0
 30
0.0
210
0.0
220
0.0
230
1.0
  2
SOLID
 70
         1
 71
         1
 91
        1
 92
        1
 93
        1
 72
         2
 10
69.638225000000006
 20
78.184560000000005
 40
0.45
 50
0.0
 51
360.0
 73
         1
 97
        1
330
21D
 75
         0
 76
         1
 98
        1
 10
0.0
 20
0.0
  0
CIRCLE
  5
21F
100
AcDbEntity
  8
ASSEMBLY_OUTLINES_TOP
100
AcDbCircle
 10
72.178225
 20
78.18456
 30
0.0
 40
0.45
  0
HATCH
  5
220
100
AcDbEntity
  8
ASSEMBLY_OUTLINES_TOP
100
AcDbHatch
 10
0.0
 20
0.0
 30
0.0
210
0.0
220
0.0
230
1.0
  2
SOLID
 70
         1
 71
         1
 91
        1
 92
        1
 93
        1
 72
         2
 10
72.178224999999998
 20
78.184560000000005
 40
0.45
 50
0.0
 51
360.0
 73
         1
 97
        1
330
21F
 75
         0
 76
         1
 98
        1
 10
0.0
 20
0.0
  0
CIRCLE
  5
221
100
AcDbEntity
  8
ASSEMBLY_OUTLINES_TOP
100
AcDbCircle
 10
74.718225
 20
78.18456
 30
0.0
 40
0.45
  0
HATCH
  5
222
100
AcDbEntity
  8
ASSEMBLY_OUTLINES_TOP
100
AcDbHatch
 10
0.0
 20
0.0
 30
0.0
210
0.0
220
0.0
230
1.0
  2
SOLID
 70
         1
 71
         1
 91
        1
 92
        1
 93
        1
 72
         2
 10
74.718225000000004
 20
78.184560000000005
 40
0.45
 50
0.0
 51
360.0
 73
         1
 97
        1
330
221
 75
         0
 76
         1
 98
        1
 10
0.0
 20
0.0
  0
CIRCLE
  5
223
100
AcDbEntity
  8
ASSEMBLY_OUTLINES_TOP
100
AcDbCircle
 10
77.258225
 20
78.18456
 30
0.0
 40
0.45
  0
HATCH
  5
224
100
AcDbEntity
  8
ASSEMBLY_OUTLINES_TOP
100
AcDbHatch
 10
0.0
 20
0.0
 30
0.0
210
0.0
220
0.0
230
1.0
  2
SOLID
 70
         1
 71
         1
 91
        1
 92
        1
 93
        1
 72
         2
 10
77.258224999999996
 20
78.184560000000005
 40
0.45
 50
0.0
 51
360.0
 73
         1
 97
        1
330
223
 75
         0
 76
         1
 98
        1
 10
0.0
 20
0.0
  0
CIRCLE
  5
225
100
AcDbEntity
  8
ASSEMBLY_OUTLINES_TOP
100
AcDbCircle
 10
79.801774
 20
78.17544
 30
0.0
 40
0.45
  0
HATCH
  5
226
100
AcDbEntity
  8
ASSEMBLY_OUTLINES_TOP
100
AcDbHatch
 10
0.0
 20
0.0
 30
0.0
210
0.0
220
0.0
230
1.0
  2
SOLID
 70
         1
 71
         1
 91
        1
 92
        1
 93
        1
 72
         2
 10
79.801773999999995
 20
78.175439999999995
 40
0.45
 50
0.0
 51
360.0
 73
         1
 97
        1
330
225
 75
         0
 76
         1
 98
        1
 10
0.0
 20
0.0
  0
CIRCLE
  5
227
100
AcDbEntity
  8
ASSEMBLY_OUTLINES_TOP
100
AcDbCircle
 10
82.341774
 20
78.17544
 30
0.0
 40
0.45
  0
HATCH
  5
228
100
AcDbEntity
  8
ASSEMBLY_OUTLINES_TOP
100
AcDbHatch
 10
0.0
 20
0.0
 30
0.0
210
0.0
220
0.0
230
1.0
  2
SOLID
 70
         1
 71
         1
 91
        1
 92
        1
 93
        1
 72
         2
 10
82.341774000000001
 20
78.175439999999995
 40
0.45
 50
0.0
 51
360.0
 73
         1
 97
        1
330
227
 75
         0
 76
         1
 98
        1
 10
0.0
 20
0.0
  0
CIRCLE
  5
229
100
AcDbEntity
  8
ASSEMBLY_OUTLINES_TOP
100
AcDbCircle
 10
84.881774
 20
78.17544
 30
0.0
 40
0.45
  0
HATCH
  5
22A
100
AcDbEntity
  8
ASSEMBLY_OUTLINES_TOP
100
AcDbHatch
 10
0.0
 20
0.0
 30
0.0
210
0.0
220
0.0
230
1.0
  2
SOLID
 70
         1
 71
         1
 91
        1
 92
        1
 93
        1
 72
         2
 10
84.881773999999993
 20
78.175439999999995
 40
0.45
 50
0.0
 51
360.0
 73
         1
 97
        1
330
229
 75
         0
 76
         1
 98
        1
 10
0.0
 20
0.0
  0
CIRCLE
  5
22B
100
AcDbEntity
  8
ASSEMBLY_OUTLINES_TOP
100
AcDbCircle
 10
87.421774
 20
78.17544
 30
0.0
 40
0.45
  0
HATCH
  5
22C
100
AcDbEntity
  8
ASSEMBLY_OUTLINES_TOP
100
AcDbHatch
 10
0.0
 20
0.0
 30
0.0
210
0.0
220
0.0
230
1.0
  2
SOLID
 70
         1
 71
         1
 91
        1
 92
        1
 93
        1
 72
         2
 10
87.421773999999999
 20
78.175439999999995
 40
0.45
 50
0.0
 51
360.0
 73
         1
 97
        1
330
22B
 75
         0
 76
         1
 98
        1
 10
0.0
 20
0.0
  0
CIRCLE
  5
22D
100
AcDbEntity
  8
ASSEMBLY_OUTLINES_TOP
100
AcDbCircle
 10
89.961774
 20
78.17544
 30
0.0
 40
0.45
  0
HATCH
  5
22E
100
AcDbEntity
  8
ASSEMBLY_OUTLINES_TOP
100
AcDbHatch
 10
0.0
 20
0.0
 30
0.0
210
0.0
220
0.0
230
1.0
  2
SOLID
 70
         1
 71
         1
 91
        1
 92
        1
 93
        1
 72
         2
 10
89.961774000000005
 20
78.175439999999995
 40
0.45
 50
0.0
 51
360.0
 73
         1
 97
        1
330
22D
 75
         0
 76
         1
 98
        1
 10
0.0
 20
0.0
  0
CIRCLE
  5
22F
100
AcDbEntity
  8
ASSEMBLY_OUTLINES_TOP
100
AcDbCircle
 10
92.501774
 20
78.17544
 30
0.0
 40
0.45
  0
HATCH
  5
230
100
AcDbEntity
  8
ASSEMBLY_OUTLINES_TOP
100
AcDbHatch
 10
0.0
 20
0.0
 30
0.0
210
0.0
220
0.0
230
1.0
  2
SOLID
 70
         1
 71
         1
 91
        1
 92
        1
 93
        1
 72
         2
 10
92.501773999999997
 20
78.175439999999995
 40
0.45
 50
0.0
 51
360.0
 73
         1
 97
        1
330
22F
 75
         0
 76
         1
 98
        1
 10
0.0
 20
0.0
  0
CIRCLE
  5
231
100
AcDbEntity
  8
ASSEMBLY_OUTLINES_TOP
100
AcDbCircle
 10
95.041774
 20
78.17544
 30
0.0
 40
0.45
  0
HATCH
  5
232
100
AcDbEntity
  8
ASSEMBLY_OUTLINES_TOP
100
AcDbHatch
 10
0.0
 20
0.0
 30
0.0
210
0.0
220
0.0
230
1.0
  2
SOLID
 70
         1
 71
         1
 91
        1
 92
        1
 93
        1
 72
         2
 10
95.041774000000004
 20
78.175439999999995
 40
0.45
 50
0.0
 51
360.0
 73
         1
 97
        1
330
231
 75
         0
 76
         1
 98
        1
 10
0.0
 20
0.0
  0
CIRCLE
  5
233
100
AcDbEntity
  8
ASSEMBLY_OUTLINES_TOP
100
AcDbCircle
 10
97.581774
 20
78.17544
 30
0.0
 40
0.45
  0
HATCH
  5
234
100
AcDbEntity
  8
ASSEMBLY_OUTLINES_TOP
100
AcDbHatch
 10
0.0
 20
0.0
 30
0.0
210
0.0
220
0.0
230
1.0
  2
SOLID
 70
         1
 71
         1
 91
        1
 92
        1
 93
        1
 72
         2
 10
97.581773999999996
 20
78.175439999999995
 40
0.45
 50
0.0
 51
360.0
 73
         1
 97
        1
330
233
 75
         0
 76
         1
 98
        1
 10
0.0
 20
0.0
  0
CIRCLE
  5
235
100
AcDbEntity
  8
ASSEMBLY_OUTLINES_TOP
100
AcDbCircle
 10
100.121774
 20
78.17544
 30
0.0
 40
0.45
  0
HATCH
  5
236
100
AcDbEntity
  8
ASSEMBLY_OUTLINES_TOP
100
AcDbHatch
 10
0.0
 20
0.0
 30
0.0
210
0.0
220
0.0
230
1.0
  2
SOLID
 70
         1
 71
         1
 91
        1
 92
        1
 93
        1
 72
         2
 10
100.121774
 20
78.175439999999995
 40
0.45
 50
0.0
 51
360.0
 73
         1
 97
        1
330
235
 75
         0
 76
         1
 98
        1
 10
0.0
 20
0.0
  0
CIRCLE
  5
237
100
AcDbEntity
  8
ASSEMBLY_OUTLINES_TOP
100
AcDbCircle
 10
102.661774
 20
78.17544
 30
0.0
 40
0.45
  0
HATCH
  5
238
100
AcDbEntity
  8
ASSEMBLY_OUTLINES_TOP
100
AcDbHatch
 10
0.0
 20
0.0
 30
0.0
210
0.0
220
0.0
230
1.0
  2
SOLID
 70
         1
 71
         1
 91
        1
 92
        1
 93
        1
 72
         2
 10
102.66177399999999
 20
78.175439999999995
 40
0.45
 50
0.0
 51
360.0
 73
         1
 97
        1
330
237
 75
         0
 76
         1
 98
        1
 10
0.0
 20
0.0
  0
CIRCLE
  5
239
100
AcDbEntity
  8
ASSEMBLY_OUTLINES_TOP
100
AcDbCircle
 10
54.4
 20
80.72
 30
0.0
 40
0.45
  0
HATCH
  5
23A
100
AcDbEntity
  8
ASSEMBLY_OUTLINES_TOP
100
AcDbHatch
 10
0.0
 20
0.0
 30
0.0
210
0.0
220
0.0
230
1.0
  2
SOLID
 70
         1
 71
         1
 91
        1
 92
        1
 93
        1
 72
         2
 10
54.399999999999999
 20
80.719999999999999
 40
0.45
 50
0.0
 51
360.0
 73
         1
 97
        1
330
239
 75
         0
 76
         1
 98
        1
 10
0.0
 20
0.0
  0
CIRCLE
  5
23B
100
AcDbEntity
  8
ASSEMBLY_OUTLINES_TOP
100
AcDbCircle
 10
56.94
 20
80.72
 30
0.0
 40
0.45
  0
HATCH
  5
23C
100
AcDbEntity
  8
ASSEMBLY_OUTLINES_TOP
100
AcDbHatch
 10
0.0
 20
0.0
 30
0.0
210
0.0
220
0.0
230
1.0
  2
SOLID
 70
         1
 71
         1
 91
        1
 92
        1
 93
        1
 72
         2
 10
56.939999999999998
 20
80.719999999999999
 40
0.45
 50
0.0
 51
360.0
 73
         1
 97
        1
330
23B
 75
         0
 76
         1
 98
        1
 10
0.0
 20
0.0
  0
CIRCLE
  5
23D
100
AcDbEntity
  8
ASSEMBLY_OUTLINES_TOP
100
AcDbCircle
 10
59.48
 20
80.72
 30
0.0
 40
0.45
  0
HATCH
  5
23E
100
AcDbEntity
  8
ASSEMBLY_OUTLINES_TOP
100
AcDbHatch
 10
0.0
 20
0.0
 30
0.0
210
0.0
220
0.0
230
1.0
  2
SOLID
 70
         1
 71
         1
 91
        1
 92
        1
 93
        1
 72
         2
 10
59.479999999999997
 20
80.719999999999999
 40
0.45
 50
0.0
 51
360.0
 73
         1
 97
        1
330
23D
 75
         0
 76
         1
 98
        1
 10
0.0
 20
0.0
  0
CIRCLE
  5
23F
100
AcDbEntity
  8
ASSEMBLY_OUTLINES_TOP
100
AcDbCircle
 10
62.02
 20
80.72
 30
0.0
 40
0.45
  0
HATCH
  5
240
100
AcDbEntity
  8
ASSEMBLY_OUTLINES_TOP
100
AcDbHatch
 10
0.0
 20
0.0
 30
0.0
210
0.0
220
0.0
230
1.0
  2
SOLID
 70
         1
 71
         1
 91
        1
 92
        1
 93
        1
 72
         2
 10
62.020000000000003
 20
80.719999999999999
 40
0.45
 50
0.0
 51
360.0
 73
         1
 97
        1
330
23F
 75
         0
 76
         1
 98
        1
 10
0.0
 20
0.0
  0
CIRCLE
  5
241
100
AcDbEntity
  8
ASSEMBLY_OUTLINES_TOP
100
AcDbCircle
 10
64.56
 20
80.72
 30
0.0
 40
0.45
  0
HATCH
  5
242
100
AcDbEntity
  8
ASSEMBLY_OUTLINES_TOP
100
AcDbHatch
 10
0.0
 20
0.0
 30
0.0
210
0.0
220
0.0
230
1.0
  2
SOLID
 70
         1
 71
         1
 91
        1
 92
        1
 93
        1
 72
         2
 10
64.560000000000002
 20
80.719999999999999
 40
0.45
 50
0.0
 51
360.0
 73
         1
 97
        1
330
241
 75
         0
 76
         1
 98
        1
 10
0.0
 20
0.0
  0
CIRCLE
  5
243
100
AcDbEntity
  8
ASSEMBLY_OUTLINES_TOP
100
AcDbCircle
 10
67.1
 20
80.72
 30
0.0
 40
0.45
  0
HATCH
  5
244
100
AcDbEntity
  8
ASSEMBLY_OUTLINES_TOP
100
AcDbHatch
 10
0.0
 20
0.0
 30
0.0
210
0.0
220
0.0
230
1.0
  2
SOLID
 70
         1
 71
         1
 91
        1
 92
        1
 93
        1
 72
         2
 10
67.099999999999994
 20
80.719999999999999
 40
0.45
 50
0.0
 51
360.0
 73
         1
 97
        1
330
243
 75
         0
 76
         1
 98
        1
 10
0.0
 20
0.0
  0
CIRCLE
  5
245
100
AcDbEntity
  8
ASSEMBLY_OUTLINES_TOP
100
AcDbCircle
 10
69.64
 20
80.72
 30
0.0
 40
0.45
  0
HATCH
  5
246
100
AcDbEntity
  8
ASSEMBLY_OUTLINES_TOP
100
AcDbHatch
 10
0.0
 20
0.0
 30
0.0
210
0.0
220
0.0
230
1.0
  2
SOLID
 70
         1
 71
         1
 91
        1
 92
        1
 93
        1
 72
         2
 10
69.640000000000001
 20
80.719999999999999
 40
0.45
 50
0.0
 51
360.0
 73
         1
 97
        1
330
245
 75
         0
 76
         1
 98
        1
 10
0.0
 20
0.0
  0
CIRCLE
  5
247
100
AcDbEntity
  8
ASSEMBLY_OUTLINES_TOP
100
AcDbCircle
 10
72.18
 20
80.72
 30
0.0
 40
0.45
  0
HATCH
  5
248
100
AcDbEntity
  8
ASSEMBLY_OUTLINES_TOP
100
AcDbHatch
 10
0.0
 20
0.0
 30
0.0
210
0.0
220
0.0
230
1.0
  2
SOLID
 70
         1
 71
         1
 91
        1
 92
        1
 93
        1
 72
         2
 10
72.180000000000007
 20
80.719999999999999
 40
0.45
 50
0.0
 51
360.0
 73
         1
 97
        1
330
247
 75
         0
 76
         1
 98
        1
 10
0.0
 20
0.0
  0
CIRCLE
  5
249
100
AcDbEntity
  8
ASSEMBLY_OUTLINES_TOP
100
AcDbCircle
 10
74.72
 20
80.72
 30
0.0
 40
0.45
  0
HATCH
  5
24A
100
AcDbEntity
  8
ASSEMBLY_OUTLINES_TOP
100
AcDbHatch
 10
0.0
 20
0.0
 30
0.0
210
0.0
220
0.0
230
1.0
  2
SOLID
 70
         1
 71
         1
 91
        1
 92
        1
 93
        1
 72
         2
 10
74.719999999999999
 20
80.719999999999999
 40
0.45
 50
0.0
 51
360.0
 73
         1
 97
        1
330
249
 75
         0
 76
         1
 98
        1
 10
0.0
 20
0.0
  0
CIRCLE
  5
24B
100
AcDbEntity
  8
ASSEMBLY_OUTLINES_TOP
100
AcDbCircle
 10
77.26
 20
80.72
 30
0.0
 40
0.45
  0
HATCH
  5
24C
100
AcDbEntity
  8
ASSEMBLY_OUTLINES_TOP
100
AcDbHatch
 10
0.0
 20
0.0
 30
0.0
210
0.0
220
0.0
230
1.0
  2
SOLID
 70
         1
 71
         1
 91
        1
 92
        1
 93
        1
 72
         2
 10
77.260000000000005
 20
80.719999999999999
 40
0.45
 50
0.0
 51
360.0
 73
         1
 97
        1
330
24B
 75
         0
 76
         1
 98
        1
 10
0.0
 20
0.0
  0
CIRCLE
  5
24D
100
AcDbEntity
  8
ASSEMBLY_OUTLINES_TOP
100
AcDbCircle
 10
79.803549
 20
80.72088
 30
0.0
 40
0.45
  0
HATCH
  5
24E
100
AcDbEntity
  8
ASSEMBLY_OUTLINES_TOP
100
AcDbHatch
 10
0.0
 20
0.0
 30
0.0
210
0.0
220
0.0
230
1.0
  2
SOLID
 70
         1
 71
         1
 91
        1
 92
        1
 93
        1
 72
         2
 10
79.803549000000004
 20
80.720879999999994
 40
0.45
 50
0.0
 51
360.0
 73
         1
 97
        1
330
24D
 75
         0
 76
         1
 98
        1
 10
0.0
 20
0.0
  0
CIRCLE
  5
24F
100
AcDbEntity
  8
ASSEMBLY_OUTLINES_TOP
100
AcDbCircle
 10
82.343549
 20
80.72088
 30
0.0
 40
0.45
  0
HATCH
  5
250
100
AcDbEntity
  8
ASSEMBLY_OUTLINES_TOP
100
AcDbHatch
 10
0.0
 20
0.0
 30
0.0
210
0.0
220
0.0
230
1.0
  2
SOLID
 70
         1
 71
         1
 91
        1
 92
        1
 93
        1
 72
         2
 10
82.343548999999996
 20
80.720879999999994
 40
0.45
 50
0.0
 51
360.0
 73
         1
 97
        1
330
24F
 75
         0
 76
         1
 98
        1
 10
0.0
 20
0.0
  0
CIRCLE
  5
251
100
AcDbEntity
  8
ASSEMBLY_OUTLINES_TOP
100
AcDbCircle
 10
84.883549
 20
80.72088
 30
0.0
 40
0.45
  0
HATCH
  5
252
100
AcDbEntity
  8
ASSEMBLY_OUTLINES_TOP
100
AcDbHatch
 10
0.0
 20
0.0
 30
0.0
210
0.0
220
0.0
230
1.0
  2
SOLID
 70
         1
 71
         1
 91
        1
 92
        1
 93
        1
 72
         2
 10
84.883549000000002
 20
80.720879999999994
 40
0.45
 50
0.0
 51
360.0
 73
         1
 97
        1
330
251
 75
         0
 76
         1
 98
        1
 10
0.0
 20
0.0
  0
CIRCLE
  5
253
100
AcDbEntity
  8
ASSEMBLY_OUTLINES_TOP
100
AcDbCircle
 10
87.423549
 20
80.72088
 30
0.0
 40
0.45
  0
HATCH
  5
254
100
AcDbEntity
  8
ASSEMBLY_OUTLINES_TOP
100
AcDbHatch
 10
0.0
 20
0.0
 30
0.0
210
0.0
220
0.0
230
1.0
  2
SOLID
 70
         1
 71
         1
 91
        1
 92
        1
 93
        1
 72
         2
 10
87.423548999999994
 20
80.720879999999994
 40
0.45
 50
0.0
 51
360.0
 73
         1
 97
        1
330
253
 75
         0
 76
         1
 98
        1
 10
0.0
 20
0.0
  0
CIRCLE
  5
255
100
AcDbEntity
  8
ASSEMBLY_OUTLINES_TOP
100
AcDbCircle
 10
89.963549
 20
80.72088
 30
0.0
 40
0.45
  0
HATCH
  5
256
100
AcDbEntity
  8
ASSEMBLY_OUTLINES_TOP
100
AcDbHatch
 10
0.0
 20
0.0
 30
0.0
210
0.0
220
0.0
230
1.0
  2
SOLID
 70
         1
 71
         1
 91
        1
 92
        1
 93
        1
 72
         2
 10
89.963549
 20
80.720879999999994
 40
0.45
 50
0.0
 51
360.0
 73
         1
 97
        1
330
255
 75
         0
 76
         1
 98
        1
 10
0.0
 20
0.0
  0
CIRCLE
  5
257
100
AcDbEntity
  8
ASSEMBLY_OUTLINES_TOP
100
AcDbCircle
 10
92.503549
 20
80.72088
 30
0.0
 40
0.45
  0
HATCH
  5
258
100
AcDbEntity
  8
ASSEMBLY_OUTLINES_TOP
100
AcDbHatch
 10
0.0
 20
0.0
 30
0.0
210
0.0
220
0.0
230
1.0
  2
SOLID
 70
         1
 71
         1
 91
        1
 92
        1
 93
        1
 72
         2
 10
92.503549000000007
 20
80.720879999999994
 40
0.45
 50
0.0
 51
360.0
 73
         1
 97
        1
330
257
 75
         0
 76
         1
 98
        1
 10
0.0
 20
0.0
  0
CIRCLE
  5
259
100
AcDbEntity
  8
ASSEMBLY_OUTLINES_TOP
100
AcDbCircle
 10
95.043549
 20
80.72088
 30
0.0
 40
0.45
  0
HATCH
  5
25A
100
AcDbEntity
  8
ASSEMBLY_OUTLINES_TOP
100
AcDbHatch
 10
0.0
 20
0.0
 30
0.0
210
0.0
220
0.0
230
1.0
  2
SOLID
 70
         1
 71
         1
 91
        1
 92
        1
 93
        1
 72
         2
 10
95.043548999999999
 20
80.720879999999994
 40
0.45
 50
0.0
 51
360.0
 73
         1
 97
        1
330
259
 75
         0
 76
         1
 98
        1
 10
0.0
 20
0.0
  0
CIRCLE
  5
25B
100
AcDbEntity
  8
ASSEMBLY_OUTLINES_TOP
100
AcDbCircle
 10
97.583549
 20
80.72088
 30
0.0
 40
0.45
  0
HATCH
  5
25C
100
AcDbEntity
  8
ASSEMBLY_OUTLINES_TOP
100
AcDbHatch
 10
0.0
 20
0.0
 30
0.0
210
0.0
220
0.0
230
1.0
  2
SOLID
 70
         1
 71
         1
 91
        1
 92
        1
 93
        1
 72
         2
 10
97.583549000000005
 20
80.720879999999994
 40
0.45
 50
0.0
 51
360.0
 73
         1
 97
        1
330
25B
 75
         0
 76
         1
 98
        1
 10
0.0
 20
0.0
  0
CIRCLE
  5
25D
100
AcDbEntity
  8
ASSEMBLY_OUTLINES_TOP
100
AcDbCircle
 10
100.123549
 20
80.72088
 30
0.0
 40
0.45
  0
HATCH
  5
25E
100
AcDbEntity
  8
ASSEMBLY_OUTLINES_TOP
100
AcDbHatch
 10
0.0
 20
0.0
 30
0.0
210
0.0
220
0.0
230
1.0
  2
SOLID
 70
         1
 71
         1
 91
        1
 92
        1
 93
        1
 72
         2
 10
100.123549
 20
80.720879999999994
 40
0.45
 50
0.0
 51
360.0
 73
         1
 97
        1
330
25D
 75
         0
 76
         1
 98
        1
 10
0.0
 20
0.0
  0
CIRCLE
  5
25F
100
AcDbEntity
  8
ASSEMBLY_OUTLINES_TOP
100
AcDbCircle
 10
102.663549
 20
80.72088
 30
0.0
 40
0.45
  0
HATCH
  5
260
100
AcDbEntity
  8
ASSEMBLY_OUTLINES_TOP
100
AcDbHatch
 10
0.0
 20
0.0
 30
0.0
210
0.0
220
0.0
230
1.0
  2
SOLID
 70
         1
 71
         1
 91
        1
 92
        1
 93
        1
 72
         2
 10
102.663549
 20
80.720879999999994
 40
0.45
 50
0.0
 51
360.0
 73
         1
 97
        1
330
25F
 75
         0
 76
         1
 98
        1
 10
0.0
 20
0.0
  0
LWPOLYLINE
  5
261
100
AcDbEntity
  8
ASSEMBLY_OUTLINES_TOP
100
AcDbPolyline
 90
        4
 70
         1
 43
0.1
 10
47.35
 20
16.95
 10
47.35
 20
20.65
 10
50.35
 20
20.65
 10
50.35
 20
16.95
  0
LWPOLYLINE
  5
262
100
AcDbEntity
  8
ASSEMBLY_OUTLINES_TOP
100
AcDbPolyline
 90
        2
 70
         0
 43
0.1
 10
47.35
 20
20.55
 10
50.35
 20
20.55
  0
LWPOLYLINE
  5
263
100
AcDbEntity
  8
ASSEMBLY_OUTLINES_TOP
100
AcDbPolyline
 90
        2
 70
         0
 43
0.1
 10
47.35
 20
20.45
 10
50.35
 20
20.45
  0
LWPOLYLINE
  5
264
100
AcDbEntity
  8
ASSEMBLY_OUTLINES_TOP
100
AcDbPolyline
 90
        2
 70
         0
 43
0.1
 10
47.35
 20
20.35
 10
50.35
 20
20.35
  0
LWPOLYLINE
  5
265
100
AcDbEntity
  8
ASSEMBLY_OUTLINES_TOP
100
AcDbPolyline
 90
        2
 70
         0
 43
0.1
 10
47.35
 20
20.25
 10
50.35
 20
20.25
  0
LWPOLYLINE
  5
266
100
AcDbEntity
  8
ASSEMBLY_OUTLINES_TOP
100
AcDbPolyline
 90
        2
 70
         0
 43
0.1
 10
47.35
 20
20.15
 10
50.35
 20
20.15
  0
LWPOLYLINE
  5
267
100
AcDbEntity
  8
ASSEMBLY_OUTLINES_TOP
100
AcDbPolyline
 90
        2
 70
         0
 43
0.1
 10
47.35
 20
20.05
 10
50.35
 20
20.05
  0
LWPOLYLINE
  5
268
100
AcDbEntity
  8
ASSEMBLY_OUTLINES_TOP
100
AcDbPolyline
 90
        2
 70
         0
 43
0.1
 10
47.35
 20
19.95
 10
50.35
 20
19.95
  0
LWPOLYLINE
  5
269
100
AcDbEntity
  8
ASSEMBLY_OUTLINES_TOP
100
AcDbPolyline
 90
        2
 70
         0
 43
0.1
 10
47.35
 20
19.85
 10
50.35
 20
19.85
  0
LWPOLYLINE
  5
26A
100
AcDbEntity
  8
ASSEMBLY_OUTLINES_TOP
100
AcDbPolyline
 90
        4
 70
         1
 43
0.1
 10
49.3
 20
61.5
 10
49.3
 20
71.3
 10
53.8
 20
71.3
 10
53.8
 20
61.5
  0
LWPOLYLINE
  5
26B
100
AcDbEntity
  8
ASSEMBLY_OUTLINES_TOP
100
AcDbPolyline
 90
        2
 70
         1
 43
0.1
 10
52.3
 20
62.5
 42
-1.0
 10
53.3
 20
62.5
 42
-1.0
  0
LWPOLYLINE
  5
26C
100
AcDbEntity
  8
ASSEMBLY_OUTLINES_TOP
100
AcDbPolyline
 90
        8
 70
         1
 43
0.1
 10
13.1
 20
21.8
 10
13.1
 20
18.5
 42
0.4142135624
 10
14.1
 20
17.5
 10
17.3
 20
17.5
 42
0.4142135624
 10
18.3
 20
18.5
 10
18.3
 20
21.8
 42
0.4142135624
 10
17.3
 20
22.8
 10
14.1
 20
22.8
 42
0.4142135624
  0
LWPOLYLINE
  5
26D
100
AcDbEntity
  8
ASSEMBLY_OUTLINES_TOP
100
AcDbPolyline
 90
        4
 70
         1
 43
0.1
 10
-14.7
 20
32.85
 10
-14.7
 20
38.25
 10
-9.3
 20
38.25
 10
-9.3
 20
32.85
  0
LWPOLYLINE
  5
26E
100
AcDbEntity
  8
ASSEMBLY_OUTLINES_TOP
100
AcDbPolyline
 90
        2
 70
         1
 43
0.1
 10
-10.8
 20
37.25
 42
-1.0
 10
-9.8
 20
37.25
 42
-1.0
  0
LWPOLYLINE
  5
26F
100
AcDbEntity
  8
ASSEMBLY_OUTLINES_TOP
100
AcDbPolyline
 90
        4
 70
         1
 43
0.1
 10
87.75
 20
37.05
 10
87.75
 20
40.75
 10
90.75
 20
40.75
 10
90.75
 20
37.05
  0
LWPOLYLINE
  5
270
100
AcDbEntity
  8
ASSEMBLY_OUTLINES_TOP
100
AcDbPolyline
 90
        2
 70
         0
 43
0.1
 10
87.75
 20
40.65
 10
90.75
 20
40.65
  0
LWPOLYLINE
  5
271
100
AcDbEntity
  8
ASSEMBLY_OUTLINES_TOP
100
AcDbPolyline
 90
        2
 70
         0
 43
0.1
 10
87.75
 20
40.55
 10
90.75
 20
40.55
  0
LWPOLYLINE
  5
272
100
AcDbEntity
  8
ASSEMBLY_OUTLINES_TOP
100
AcDbPolyline
 90
        2
 70
         0
 43
0.1
 10
87.75
 20
40.45
 10
90.75
 20
40.45
  0
LWPOLYLINE
  5
273
100
AcDbEntity
  8
ASSEMBLY_OUTLINES_TOP
100
AcDbPolyline
 90
        2
 70
         0
 43
0.1
 10
87.75
 20
40.35
 10
90.75
 20
40.35
  0
LWPOLYLINE
  5
274
100
AcDbEntity
  8
ASSEMBLY_OUTLINES_TOP
100
AcDbPolyline
 90
        2
 70
         0
 43
0.1
 10
87.75
 20
40.25
 10
90.75
 20
40.25
  0
LWPOLYLINE
  5
275
100
AcDbEntity
  8
ASSEMBLY_OUTLINES_TOP
100
AcDbPolyline
 90
        2
 70
         0
 43
0.1
 10
87.75
 20
40.15
 10
90.75
 20
40.15
  0
LWPOLYLINE
  5
276
100
AcDbEntity
  8
ASSEMBLY_OUTLINES_TOP
100
AcDbPolyline
 90
        2
 70
         0
 43
0.1
 10
87.75
 20
40.05
 10
90.75
 20
40.05
  0
LWPOLYLINE
  5
277
100
AcDbEntity
  8
ASSEMBLY_OUTLINES_TOP
100
AcDbPolyline
 90
        2
 70
         0
 43
0.1
 10
87.75
 20
39.95
 10
90.75
 20
39.95
  0
LWPOLYLINE
  5
278
100
AcDbEntity
  8
ASSEMBLY_OUTLINES_TOP
100
AcDbPolyline
 90
        4
 70
         1
 10
86.13
 20
20.03
 10
86.13
 20
22.57
 10
91.21
 20
22.57
 10
91.21
 20
20.03
  0
LWPOLYLINE
  5
279
100
AcDbEntity
  8
ASSEMBLY_OUTLINES_TOP
100
AcDbPolyline
 90
        4
 70
         1
 10
-27.079998
 20
-3.150002
 10
-27.079998
 20
11.349998
 10
-18.079998
 20
11.349998
 10
-18.079998
 20
-3.150002
  0
LWPOLYLINE
  5
27A
100
AcDbEntity
  8
ASSEMBLY_OUTLINES_TOP
100
AcDbPolyline
 90
        4
 70
         1
 43
0.1
 10
6.45
 20
28.35
 10
6.45
 20
32.05
 10
9.45
 20
32.05
 10
9.45
 20
28.35
  0
LWPOLYLINE
  5
27B
100
AcDbEntity
  8
ASSEMBLY_OUTLINES_TOP
100
AcDbPolyline
 90
        2
 70
         0
 43
0.1
 10
6.45
 20
31.95
 10
9.45
 20
31.95
  0
LWPOLYLINE
  5
27C
100
AcDbEntity
  8
ASSEMBLY_OUTLINES_TOP
100
AcDbPolyline
 90
        2
 70
         0
 43
0.1
 10
6.45
 20
31.85
 10
9.45
 20
31.85
  0
LWPOLYLINE
  5
27D
100
AcDbEntity
  8
ASSEMBLY_OUTLINES_TOP
100
AcDbPolyline
 90
        2
 70
         0
 43
0.1
 10
6.45
 20
31.75
 10
9.45
 20
31.75
  0
LWPOLYLINE
  5
27E
100
AcDbEntity
  8
ASSEMBLY_OUTLINES_TOP
100
AcDbPolyline
 90
        2
 70
         0
 43
0.1
 10
6.45
 20
31.65
 10
9.45
 20
31.65
  0
LWPOLYLINE
  5
27F
100
AcDbEntity
  8
ASSEMBLY_OUTLINES_TOP
100
AcDbPolyline
 90
        2
 70
         0
 43
0.1
 10
6.45
 20
31.55
 10
9.45
 20
31.55
  0
LWPOLYLINE
  5
280
100
AcDbEntity
  8
ASSEMBLY_OUTLINES_TOP
100
AcDbPolyline
 90
        2
 70
         0
 43
0.1
 10
6.45
 20
31.45
 10
9.45
 20
31.45
  0
LWPOLYLINE
  5
281
100
AcDbEntity
  8
ASSEMBLY_OUTLINES_TOP
100
AcDbPolyline
 90
        2
 70
         0
 43
0.1
 10
6.45
 20
31.35
 10
9.45
 20
31.35
  0
LWPOLYLINE
  5
282
100
AcDbEntity
  8
ASSEMBLY_OUTLINES_TOP
100
AcDbPolyline
 90
        2
 70
         0
 43
0.1
 10
6.45
 20
31.25
 10
9.45
 20
31.25
  0
LWPOLYLINE
  5
283
100
AcDbEntity
  8
ASSEMBLY_OUTLINES_TOP
100
AcDbPolyline
 90
        4
 70
         1
 10
102.375
 20
23.77
 10
102.375
 20
74.57
 10
107.455
 20
74.57
 10
107.455
 20
23.77
  0
CIRCLE
  5
284
100
AcDbEntity
  8
ASSEMBLY_OUTLINES_TOP
100
AcDbCircle
 10
103.63456
 20
73.301775
 30
0.0
 40
0.45
  0
HATCH
  5
285
100
AcDbEntity
  8
ASSEMBLY_OUTLINES_TOP
100
AcDbHatch
 10
0.0
 20
0.0
 30
0.0
210
0.0
220
0.0
230
1.0
  2
SOLID
 70
         1
 71
         1
 91
        1
 92
        1
 93
        1
 72
         2
 10
103.63455999999999
 20
73.301775000000006
 40
0.45
 50
0.0
 51
360.0
 73
         1
 97
        1
330
284
 75
         0
 76
         1
 98
        1
 10
0.0
 20
0.0
  0
CIRCLE
  5
286
100
AcDbEntity
  8
ASSEMBLY_OUTLINES_TOP
100
AcDbCircle
 10
103.63456
 20
70.761775
 30
0.0
 40
0.45
  0
HATCH
  5
287
100
AcDbEntity
  8
ASSEMBLY_OUTLINES_TOP
100
AcDbHatch
 10
0.0
 20
0.0
 30
0.0
210
0.0
220
0.0
230
1.0
  2
SOLID
 70
         1
 71
         1
 91
        1
 92
        1
 93
        1
 72
         2
 10
103.63455999999999
 20
70.761775
 40
0.45
 50
0.0
 51
360.0
 73
         1
 97
        1
330
286
 75
         0
 76
         1
 98
        1
 10
0.0
 20
0.0
  0
CIRCLE
  5
288
100
AcDbEntity
  8
ASSEMBLY_OUTLINES_TOP
100
AcDbCircle
 10
103.63456
 20
68.221775
 30
0.0
 40
0.45
  0
HATCH
  5
289
100
AcDbEntity
  8
ASSEMBLY_OUTLINES_TOP
100
AcDbHatch
 10
0.0
 20
0.0
 30
0.0
210
0.0
220
0.0
230
1.0
  2
SOLID
 70
         1
 71
         1
 91
        1
 92
        1
 93
        1
 72
         2
 10
103.63455999999999
 20
68.221774999999994
 40
0.45
 50
0.0
 51
360.0
 73
         1
 97
        1
330
288
 75
         0
 76
         1
 98
        1
 10
0.0
 20
0.0
  0
CIRCLE
  5
28A
100
AcDbEntity
  8
ASSEMBLY_OUTLINES_TOP
100
AcDbCircle
 10
103.63456
 20
65.681775
 30
0.0
 40
0.45
  0
HATCH
  5
28B
100
AcDbEntity
  8
ASSEMBLY_OUTLINES_TOP
100
AcDbHatch
 10
0.0
 20
0.0
 30
0.0
210
0.0
220
0.0
230
1.0
  2
SOLID
 70
         1
 71
         1
 91
        1
 92
        1
 93
        1
 72
         2
 10
103.63455999999999
 20
65.681775000000002
 40
0.45
 50
0.0
 51
360.0
 73
         1
 97
        1
330
28A
 75
         0
 76
         1
 98
        1
 10
0.0
 20
0.0
  0
CIRCLE
  5
28C
100
AcDbEntity
  8
ASSEMBLY_OUTLINES_TOP
100
AcDbCircle
 10
103.63456
 20
63.141775
 30
0.0
 40
0.45
  0
HATCH
  5
28D
100
AcDbEntity
  8
ASSEMBLY_OUTLINES_TOP
100
AcDbHatch
 10
0.0
 20
0.0
 30
0.0
210
0.0
220
0.0
230
1.0
  2
SOLID
 70
         1
 71
         1
 91
        1
 92
        1
 93
        1
 72
         2
 10
103.63455999999999
 20
63.141775000000003
 40
0.45
 50
0.0
 51
360.0
 73
         1
 97
        1
330
28C
 75
         0
 76
         1
 98
        1
 10
0.0
 20
0.0
  0
CIRCLE
  5
28E
100
AcDbEntity
  8
ASSEMBLY_OUTLINES_TOP
100
AcDbCircle
 10
103.63456
 20
60.601775
 30
0.0
 40
0.45
  0
HATCH
  5
28F
100
AcDbEntity
  8
ASSEMBLY_OUTLINES_TOP
100
AcDbHatch
 10
0.0
 20
0.0
 30
0.0
210
0.0
220
0.0
230
1.0
  2
SOLID
 70
         1
 71
         1
 91
        1
 92
        1
 93
        1
 72
         2
 10
103.63455999999999
 20
60.601775000000004
 40
0.45
 50
0.0
 51
360.0
 73
         1
 97
        1
330
28E
 75
         0
 76
         1
 98
        1
 10
0.0
 20
0.0
  0
CIRCLE
  5
290
100
AcDbEntity
  8
ASSEMBLY_OUTLINES_TOP
100
AcDbCircle
 10
103.63456
 20
58.061775
 30
0.0
 40
0.45
  0
HATCH
  5
291
100
AcDbEntity
  8
ASSEMBLY_OUTLINES_TOP
100
AcDbHatch
 10
0.0
 20
0.0
 30
0.0
210
0.0
220
0.0
230
1.0
  2
SOLID
 70
         1
 71
         1
 91
        1
 92
        1
 93
        1
 72
         2
 10
103.63455999999999
 20
58.061774999999997
 40
0.45
 50
0.0
 51
360.0
 73
         1
 97
        1
330
290
 75
         0
 76
         1
 98
        1
 10
0.0
 20
0.0
  0
CIRCLE
  5
292
100
AcDbEntity
  8
ASSEMBLY_OUTLINES_TOP
100
AcDbCircle
 10
103.63456
 20
55.521775
 30
0.0
 40
0.45
  0
HATCH
  5
293
100
AcDbEntity
  8
ASSEMBLY_OUTLINES_TOP
100
AcDbHatch
 10
0.0
 20
0.0
 30
0.0
210
0.0
220
0.0
230
1.0
  2
SOLID
 70
         1
 71
         1
 91
        1
 92
        1
 93
        1
 72
         2
 10
103.63455999999999
 20
55.521774999999998
 40
0.45
 50
0.0
 51
360.0
 73
         1
 97
        1
330
292
 75
         0
 76
         1
 98
        1
 10
0.0
 20
0.0
  0
CIRCLE
  5
294
100
AcDbEntity
  8
ASSEMBLY_OUTLINES_TOP
100
AcDbCircle
 10
103.63456
 20
52.981775
 30
0.0
 40
0.45
  0
HATCH
  5
295
100
AcDbEntity
  8
ASSEMBLY_OUTLINES_TOP
100
AcDbHatch
 10
0.0
 20
0.0
 30
0.0
210
0.0
220
0.0
230
1.0
  2
SOLID
 70
         1
 71
         1
 91
        1
 92
        1
 93
        1
 72
         2
 10
103.63455999999999
 20
52.981774999999999
 40
0.45
 50
0.0
 51
360.0
 73
         1
 97
        1
330
294
 75
         0
 76
         1
 98
        1
 10
0.0
 20
0.0
  0
CIRCLE
  5
296
100
AcDbEntity
  8
ASSEMBLY_OUTLINES_TOP
100
AcDbCircle
 10
103.63456
 20
50.441775
 30
0.0
 40
0.45
  0
HATCH
  5
297
100
AcDbEntity
  8
ASSEMBLY_OUTLINES_TOP
100
AcDbHatch
 10
0.0
 20
0.0
 30
0.0
210
0.0
220
0.0
230
1.0
  2
SOLID
 70
         1
 71
         1
 91
        1
 92
        1
 93
        1
 72
         2
 10
103.63455999999999
 20
50.441775
 40
0.45
 50
0.0
 51
360.0
 73
         1
 97
        1
330
296
 75
         0
 76
         1
 98
        1
 10
0.0
 20
0.0
  0
CIRCLE
  5
298
100
AcDbEntity
  8
ASSEMBLY_OUTLINES_TOP
100
AcDbCircle
 10
103.62544
 20
47.898226
 30
0.0
 40
0.45
  0
HATCH
  5
299
100
AcDbEntity
  8
ASSEMBLY_OUTLINES_TOP
100
AcDbHatch
 10
0.0
 20
0.0
 30
0.0
210
0.0
220
0.0
230
1.0
  2
SOLID
 70
         1
 71
         1
 91
        1
 92
        1
 93
        1
 72
         2
 10
103.62544
 20
47.898226000000001
 40
0.45
 50
0.0
 51
360.0
 73
         1
 97
        1
330
298
 75
         0
 76
         1
 98
        1
 10
0.0
 20
0.0
  0
CIRCLE
  5
29A
100
AcDbEntity
  8
ASSEMBLY_OUTLINES_TOP
100
AcDbCircle
 10
103.62544
 20
45.358226
 30
0.0
 40
0.45
  0
HATCH
  5
29B
100
AcDbEntity
  8
ASSEMBLY_OUTLINES_TOP
100
AcDbHatch
 10
0.0
 20
0.0
 30
0.0
210
0.0
220
0.0
230
1.0
  2
SOLID
 70
         1
 71
         1
 91
        1
 92
        1
 93
        1
 72
         2
 10
103.62544
 20
45.358226000000002
 40
0.45
 50
0.0
 51
360.0
 73
         1
 97
        1
330
29A
 75
         0
 76
         1
 98
        1
 10
0.0
 20
0.0
  0
CIRCLE
  5
29C
100
AcDbEntity
  8
ASSEMBLY_OUTLINES_TOP
100
AcDbCircle
 10
103.62544
 20
42.818226
 30
0.0
 40
0.45
  0
HATCH
  5
29D
100
AcDbEntity
  8
ASSEMBLY_OUTLINES_TOP
100
AcDbHatch
 10
0.0
 20
0.0
 30
0.0
210
0.0
220
0.0
230
1.0
  2
SOLID
 70
         1
 71
         1
 91
        1
 92
        1
 93
        1
 72
         2
 10
103.62544
 20
42.818226000000003
 40
0.45
 50
0.0
 51
360.0
 73
         1
 97
        1
330
29C
 75
         0
 76
         1
 98
        1
 10
0.0
 20
0.0
  0
CIRCLE
  5
29E
100
AcDbEntity
  8
ASSEMBLY_OUTLINES_TOP
100
AcDbCircle
 10
103.62544
 20
40.278226
 30
0.0
 40
0.45
  0
HATCH
  5
29F
100
AcDbEntity
  8
ASSEMBLY_OUTLINES_TOP
100
AcDbHatch
 10
0.0
 20
0.0
 30
0.0
210
0.0
220
0.0
230
1.0
  2
SOLID
 70
         1
 71
         1
 91
        1
 92
        1
 93
        1
 72
         2
 10
103.62544
 20
40.278225999999997
 40
0.45
 50
0.0
 51
360.0
 73
         1
 97
        1
330
29E
 75
         0
 76
         1
 98
        1
 10
0.0
 20
0.0
  0
CIRCLE
  5
2A0
100
AcDbEntity
  8
ASSEMBLY_OUTLINES_TOP
100
AcDbCircle
 10
103.62544
 20
37.738226
 30
0.0
 40
0.45
  0
HATCH
  5
2A1
100
AcDbEntity
  8
ASSEMBLY_OUTLINES_TOP
100
AcDbHatch
 10
0.0
 20
0.0
 30
0.0
210
0.0
220
0.0
230
1.0
  2
SOLID
 70
         1
 71
         1
 91
        1
 92
        1
 93
        1
 72
         2
 10
103.62544
 20
37.738225999999997
 40
0.45
 50
0.0
 51
360.0
 73
         1
 97
        1
330
2A0
 75
         0
 76
         1
 98
        1
 10
0.0
 20
0.0
  0
CIRCLE
  5
2A2
100
AcDbEntity
  8
ASSEMBLY_OUTLINES_TOP
100
AcDbCircle
 10
103.62544
 20
35.198226
 30
0.0
 40
0.45
  0
HATCH
  5
2A3
100
AcDbEntity
  8
ASSEMBLY_OUTLINES_TOP
100
AcDbHatch
 10
0.0
 20
0.0
 30
0.0
210
0.0
220
0.0
230
1.0
  2
SOLID
 70
         1
 71
         1
 91
        1
 92
        1
 93
        1
 72
         2
 10
103.62544
 20
35.198225999999998
 40
0.45
 50
0.0
 51
360.0
 73
         1
 97
        1
330
2A2
 75
         0
 76
         1
 98
        1
 10
0.0
 20
0.0
  0
CIRCLE
  5
2A4
100
AcDbEntity
  8
ASSEMBLY_OUTLINES_TOP
100
AcDbCircle
 10
103.62544
 20
32.658226
 30
0.0
 40
0.45
  0
HATCH
  5
2A5
100
AcDbEntity
  8
ASSEMBLY_OUTLINES_TOP
100
AcDbHatch
 10
0.0
 20
0.0
 30
0.0
210
0.0
220
0.0
230
1.0
  2
SOLID
 70
         1
 71
         1
 91
        1
 92
        1
 93
        1
 72
         2
 10
103.62544
 20
32.658225999999999
 40
0.45
 50
0.0
 51
360.0
 73
         1
 97
        1
330
2A4
 75
         0
 76
         1
 98
        1
 10
0.0
 20
0.0
  0
CIRCLE
  5
2A6
100
AcDbEntity
  8
ASSEMBLY_OUTLINES_TOP
100
AcDbCircle
 10
103.62544
 20
30.118226
 30
0.0
 40
0.45
  0
HATCH
  5
2A7
100
AcDbEntity
  8
ASSEMBLY_OUTLINES_TOP
100
AcDbHatch
 10
0.0
 20
0.0
 30
0.0
210
0.0
220
0.0
230
1.0
  2
SOLID
 70
         1
 71
         1
 91
        1
 92
        1
 93
        1
 72
         2
 10
103.62544
 20
30.118226
 40
0.45
 50
0.0
 51
360.0
 73
         1
 97
        1
330
2A6
 75
         0
 76
         1
 98
        1
 10
0.0
 20
0.0
  0
CIRCLE
  5
2A8
100
AcDbEntity
  8
ASSEMBLY_OUTLINES_TOP
100
AcDbCircle
 10
103.62544
 20
27.578226
 30
0.0
 40
0.45
  0
HATCH
  5
2A9
100
AcDbEntity
  8
ASSEMBLY_OUTLINES_TOP
100
AcDbHatch
 10
0.0
 20
0.0
 30
0.0
210
0.0
220
0.0
230
1.0
  2
SOLID
 70
         1
 71
         1
 91
        1
 92
        1
 93
        1
 72
         2
 10
103.62544
 20
27.578226000000001
 40
0.45
 50
0.0
 51
360.0
 73
         1
 97
        1
330
2A8
 75
         0
 76
         1
 98
        1
 10
0.0
 20
0.0
  0
CIRCLE
  5
2AA
100
AcDbEntity
  8
ASSEMBLY_OUTLINES_TOP
100
AcDbCircle
 10
103.62544
 20
25.038226
 30
0.0
 40
0.45
  0
HATCH
  5
2AB
100
AcDbEntity
  8
ASSEMBLY_OUTLINES_TOP
100
AcDbHatch
 10
0.0
 20
0.0
 30
0.0
210
0.0
220
0.0
230
1.0
  2
SOLID
 70
         1
 71
         1
 91
        1
 92
        1
 93
        1
 72
         2
 10
103.62544
 20
25.038226000000002
 40
0.45
 50
0.0
 51
360.0
 73
         1
 97
        1
330
2AA
 75
         0
 76
         1
 98
        1
 10
0.0
 20
0.0
  0
CIRCLE
  5
2AC
100
AcDbEntity
  8
ASSEMBLY_OUTLINES_TOP
100
AcDbCircle
 10
106.17
 20
73.3
 30
0.0
 40
0.45
  0
HATCH
  5
2AD
100
AcDbEntity
  8
ASSEMBLY_OUTLINES_TOP
100
AcDbHatch
 10
0.0
 20
0.0
 30
0.0
210
0.0
220
0.0
230
1.0
  2
SOLID
 70
         1
 71
         1
 91
        1
 92
        1
 93
        1
 72
         2
 10
106.17
 20
73.299999999999997
 40
0.45
 50
0.0
 51
360.0
 73
         1
 97
        1
330
2AC
 75
         0
 76
         1
 98
        1
 10
0.0
 20
0.0
  0
CIRCLE
  5
2AE
100
AcDbEntity
  8
ASSEMBLY_OUTLINES_TOP
100
AcDbCircle
 10
106.17
 20
70.76
 30
0.0
 40
0.45
  0
HATCH
  5
2AF
100
AcDbEntity
  8
ASSEMBLY_OUTLINES_TOP
100
AcDbHatch
 10
0.0
 20
0.0
 30
0.0
210
0.0
220
0.0
230
1.0
  2
SOLID
 70
         1
 71
         1
 91
        1
 92
        1
 93
        1
 72
         2
 10
106.17
 20
70.760000000000005
 40
0.45
 50
0.0
 51
360.0
 73
         1
 97
        1
330
2AE
 75
         0
 76
         1
 98
        1
 10
0.0
 20
0.0
  0
CIRCLE
  5
2B0
100
AcDbEntity
  8
ASSEMBLY_OUTLINES_TOP
100
AcDbCircle
 10
106.17
 20
68.22
 30
0.0
 40
0.45
  0
HATCH
  5
2B1
100
AcDbEntity
  8
ASSEMBLY_OUTLINES_TOP
100
AcDbHatch
 10
0.0
 20
0.0
 30
0.0
210
0.0
220
0.0
230
1.0
  2
SOLID
 70
         1
 71
         1
 91
        1
 92
        1
 93
        1
 72
         2
 10
106.17
 20
68.219999999999999
 40
0.45
 50
0.0
 51
360.0
 73
         1
 97
        1
330
2B0
 75
         0
 76
         1
 98
        1
 10
0.0
 20
0.0
  0
CIRCLE
  5
2B2
100
AcDbEntity
  8
ASSEMBLY_OUTLINES_TOP
100
AcDbCircle
 10
106.17
 20
65.68
 30
0.0
 40
0.45
  0
HATCH
  5
2B3
100
AcDbEntity
  8
ASSEMBLY_OUTLINES_TOP
100
AcDbHatch
 10
0.0
 20
0.0
 30
0.0
210
0.0
220
0.0
230
1.0
  2
SOLID
 70
         1
 71
         1
 91
        1
 92
        1
 93
        1
 72
         2
 10
106.17
 20
65.680000000000007
 40
0.45
 50
0.0
 51
360.0
 73
         1
 97
        1
330
2B2
 75
         0
 76
         1
 98
        1
 10
0.0
 20
0.0
  0
CIRCLE
  5
2B4
100
AcDbEntity
  8
ASSEMBLY_OUTLINES_TOP
100
AcDbCircle
 10
106.17
 20
63.14
 30
0.0
 40
0.45
  0
HATCH
  5
2B5
100
AcDbEntity
  8
ASSEMBLY_OUTLINES_TOP
100
AcDbHatch
 10
0.0
 20
0.0
 30
0.0
210
0.0
220
0.0
230
1.0
  2
SOLID
 70
         1
 71
         1
 91
        1
 92
        1
 93
        1
 72
         2
 10
106.17
 20
63.140000000000001
 40
0.45
 50
0.0
 51
360.0
 73
         1
 97
        1
330
2B4
 75
         0
 76
         1
 98
        1
 10
0.0
 20
0.0
  0
CIRCLE
  5
2B6
100
AcDbEntity
  8
ASSEMBLY_OUTLINES_TOP
100
AcDbCircle
 10
106.17
 20
60.6
 30
0.0
 40
0.45
  0
HATCH
  5
2B7
100
AcDbEntity
  8
ASSEMBLY_OUTLINES_TOP
100
AcDbHatch
 10
0.0
 20
0.0
 30
0.0
210
0.0
220
0.0
230
1.0
  2
SOLID
 70
         1
 71
         1
 91
        1
 92
        1
 93
        1
 72
         2
 10
106.17
 20
60.600000000000001
 40
0.45
 50
0.0
 51
360.0
 73
         1
 97
        1
330
2B6
 75
         0
 76
         1
 98
        1
 10
0.0
 20
0.0
  0
CIRCLE
  5
2B8
100
AcDbEntity
  8
ASSEMBLY_OUTLINES_TOP
100
AcDbCircle
 10
106.17
 20
58.06
 30
0.0
 40
0.45
  0
HATCH
  5
2B9
100
AcDbEntity
  8
ASSEMBLY_OUTLINES_TOP
100
AcDbHatch
 10
0.0
 20
0.0
 30
0.0
210
0.0
220
0.0
230
1.0
  2
SOLID
 70
         1
 71
         1
 91
        1
 92
        1
 93
        1
 72
         2
 10
106.17
 20
58.060000000000002
 40
0.45
 50
0.0
 51
360.0
 73
         1
 97
        1
330
2B8
 75
         0
 76
         1
 98
        1
 10
0.0
 20
0.0
  0
CIRCLE
  5
2BA
100
AcDbEntity
  8
ASSEMBLY_OUTLINES_TOP
100
AcDbCircle
 10
106.17
 20
55.52
 30
0.0
 40
0.45
  0
HATCH
  5
2BB
100
AcDbEntity
  8
ASSEMBLY_OUTLINES_TOP
100
AcDbHatch
 10
0.0
 20
0.0
 30
0.0
210
0.0
220
0.0
230
1.0
  2
SOLID
 70
         1
 71
         1
 91
        1
 92
        1
 93
        1
 72
         2
 10
106.17
 20
55.520000000000003
 40
0.45
 50
0.0
 51
360.0
 73
         1
 97
        1
330
2BA
 75
         0
 76
         1
 98
        1
 10
0.0
 20
0.0
  0
CIRCLE
  5
2BC
100
AcDbEntity
  8
ASSEMBLY_OUTLINES_TOP
100
AcDbCircle
 10
106.17
 20
52.98
 30
0.0
 40
0.45
  0
HATCH
  5
2BD
100
AcDbEntity
  8
ASSEMBLY_OUTLINES_TOP
100
AcDbHatch
 10
0.0
 20
0.0
 30
0.0
210
0.0
220
0.0
230
1.0
  2
SOLID
 70
         1
 71
         1
 91
        1
 92
        1
 93
        1
 72
         2
 10
106.17
 20
52.979999999999997
 40
0.45
 50
0.0
 51
360.0
 73
         1
 97
        1
330
2BC
 75
         0
 76
         1
 98
        1
 10
0.0
 20
0.0
  0
CIRCLE
  5
2BE
100
AcDbEntity
  8
ASSEMBLY_OUTLINES_TOP
100
AcDbCircle
 10
106.17
 20
50.44
 30
0.0
 40
0.45
  0
HATCH
  5
2BF
100
AcDbEntity
  8
ASSEMBLY_OUTLINES_TOP
100
AcDbHatch
 10
0.0
 20
0.0
 30
0.0
210
0.0
220
0.0
230
1.0
  2
SOLID
 70
         1
 71
         1
 91
        1
 92
        1
 93
        1
 72
         2
 10
106.17
 20
50.439999999999998
 40
0.45
 50
0.0
 51
360.0
 73
         1
 97
        1
330
2BE
 75
         0
 76
         1
 98
        1
 10
0.0
 20
0.0
  0
CIRCLE
  5
2C0
100
AcDbEntity
  8
ASSEMBLY_OUTLINES_TOP
100
AcDbCircle
 10
106.17088
 20
47.896451
 30
0.0
 40
0.45
  0
HATCH
  5
2C1
100
AcDbEntity
  8
ASSEMBLY_OUTLINES_TOP
100
AcDbHatch
 10
0.0
 20
0.0
 30
0.0
210
0.0
220
0.0
230
1.0
  2
SOLID
 70
         1
 71
         1
 91
        1
 92
        1
 93
        1
 72
         2
 10
106.17088
 20
47.896450999999999
 40
0.45
 50
0.0
 51
360.0
 73
         1
 97
        1
330
2C0
 75
         0
 76
         1
 98
        1
 10
0.0
 20
0.0
  0
CIRCLE
  5
2C2
100
AcDbEntity
  8
ASSEMBLY_OUTLINES_TOP
100
AcDbCircle
 10
106.17088
 20
45.356451
 30
0.0
 40
0.45
  0
HATCH
  5
2C3
100
AcDbEntity
  8
ASSEMBLY_OUTLINES_TOP
100
AcDbHatch
 10
0.0
 20
0.0
 30
0.0
210
0.0
220
0.0
230
1.0
  2
SOLID
 70
         1
 71
         1
 91
        1
 92
        1
 93
        1
 72
         2
 10
106.17088
 20
45.356451
 40
0.45
 50
0.0
 51
360.0
 73
         1
 97
        1
330
2C2
 75
         0
 76
         1
 98
        1
 10
0.0
 20
0.0
  0
CIRCLE
  5
2C4
100
AcDbEntity
  8
ASSEMBLY_OUTLINES_TOP
100
AcDbCircle
 10
106.17088
 20
42.816451
 30
0.0
 40
0.45
  0
HATCH
  5
2C5
100
AcDbEntity
  8
ASSEMBLY_OUTLINES_TOP
100
AcDbHatch
 10
0.0
 20
0.0
 30
0.0
210
0.0
220
0.0
230
1.0
  2
SOLID
 70
         1
 71
         1
 91
        1
 92
        1
 93
        1
 72
         2
 10
106.17088
 20
42.816451000000001
 40
0.45
 50
0.0
 51
360.0
 73
         1
 97
        1
330
2C4
 75
         0
 76
         1
 98
        1
 10
0.0
 20
0.0
  0
CIRCLE
  5
2C6
100
AcDbEntity
  8
ASSEMBLY_OUTLINES_TOP
100
AcDbCircle
 10
106.17088
 20
40.276451
 30
0.0
 40
0.45
  0
HATCH
  5
2C7
100
AcDbEntity
  8
ASSEMBLY_OUTLINES_TOP
100
AcDbHatch
 10
0.0
 20
0.0
 30
0.0
210
0.0
220
0.0
230
1.0
  2
SOLID
 70
         1
 71
         1
 91
        1
 92
        1
 93
        1
 72
         2
 10
106.17088
 20
40.276451000000002
 40
0.45
 50
0.0
 51
360.0
 73
         1
 97
        1
330
2C6
 75
         0
 76
         1
 98
        1
 10
0.0
 20
0.0
  0
CIRCLE
  5
2C8
100
AcDbEntity
  8
ASSEMBLY_OUTLINES_TOP
100
AcDbCircle
 10
106.17088
 20
37.736451
 30
0.0
 40
0.45
  0
HATCH
  5
2C9
100
AcDbEntity
  8
ASSEMBLY_OUTLINES_TOP
100
AcDbHatch
 10
0.0
 20
0.0
 30
0.0
210
0.0
220
0.0
230
1.0
  2
SOLID
 70
         1
 71
         1
 91
        1
 92
        1
 93
        1
 72
         2
 10
106.17088
 20
37.736451000000002
 40
0.45
 50
0.0
 51
360.0
 73
         1
 97
        1
330
2C8
 75
         0
 76
         1
 98
        1
 10
0.0
 20
0.0
  0
CIRCLE
  5
2CA
100
AcDbEntity
  8
ASSEMBLY_OUTLINES_TOP
100
AcDbCircle
 10
106.17088
 20
35.196451
 30
0.0
 40
0.45
  0
HATCH
  5
2CB
100
AcDbEntity
  8
ASSEMBLY_OUTLINES_TOP
100
AcDbHatch
 10
0.0
 20
0.0
 30
0.0
210
0.0
220
0.0
230
1.0
  2
SOLID
 70
         1
 71
         1
 91
        1
 92
        1
 93
        1
 72
         2
 10
106.17088
 20
35.196451000000003
 40
0.45
 50
0.0
 51
360.0
 73
         1
 97
        1
330
2CA
 75
         0
 76
         1
 98
        1
 10
0.0
 20
0.0
  0
CIRCLE
  5
2CC
100
AcDbEntity
  8
ASSEMBLY_OUTLINES_TOP
100
AcDbCircle
 10
106.17088
 20
32.656451
 30
0.0
 40
0.45
  0
HATCH
  5
2CD
100
AcDbEntity
  8
ASSEMBLY_OUTLINES_TOP
100
AcDbHatch
 10
0.0
 20
0.0
 30
0.0
210
0.0
220
0.0
230
1.0
  2
SOLID
 70
         1
 71
         1
 91
        1
 92
        1
 93
        1
 72
         2
 10
106.17088
 20
32.656450999999997
 40
0.45
 50
0.0
 51
360.0
 73
         1
 97
        1
330
2CC
 75
         0
 76
         1
 98
        1
 10
0.0
 20
0.0
  0
CIRCLE
  5
2CE
100
AcDbEntity
  8
ASSEMBLY_OUTLINES_TOP
100
AcDbCircle
 10
106.17088
 20
30.116451
 30
0.0
 40
0.45
  0
HATCH
  5
2CF
100
AcDbEntity
  8
ASSEMBLY_OUTLINES_TOP
100
AcDbHatch
 10
0.0
 20
0.0
 30
0.0
210
0.0
220
0.0
230
1.0
  2
SOLID
 70
         1
 71
         1
 91
        1
 92
        1
 93
        1
 72
         2
 10
106.17088
 20
30.116451000000001
 40
0.45
 50
0.0
 51
360.0
 73
         1
 97
        1
330
2CE
 75
         0
 76
         1
 98
        1
 10
0.0
 20
0.0
  0
CIRCLE
  5
2D0
100
AcDbEntity
  8
ASSEMBLY_OUTLINES_TOP
100
AcDbCircle
 10
106.17088
 20
27.576451
 30
0.0
 40
0.45
  0
HATCH
  5
2D1
100
AcDbEntity
  8
ASSEMBLY_OUTLINES_TOP
100
AcDbHatch
 10
0.0
 20
0.0
 30
0.0
210
0.0
220
0.0
230
1.0
  2
SOLID
 70
         1
 71
         1
 91
        1
 92
        1
 93
        1
 72
         2
 10
106.17088
 20
27.576450999999999
 40
0.45
 50
0.0
 51
360.0
 73
         1
 97
        1
330
2D0
 75
         0
 76
         1
 98
        1
 10
0.0
 20
0.0
  0
CIRCLE
  5
2D2
100
AcDbEntity
  8
ASSEMBLY_OUTLINES_TOP
100
AcDbCircle
 10
106.17088
 20
25.036451
 30
0.0
 40
0.45
  0
HATCH
  5
2D3
100
AcDbEntity
  8
ASSEMBLY_OUTLINES_TOP
100
AcDbHatch
 10
0.0
 20
0.0
 30
0.0
210
0.0
220
0.0
230
1.0
  2
SOLID
 70
         1
 71
         1
 91
        1
 92
        1
 93
        1
 72
         2
 10
106.17088
 20
25.036451
 40
0.45
 50
0.0
 51
360.0
 73
         1
 97
        1
330
2D2
 75
         0
 76
         1
 98
        1
 10
0.0
 20
0.0
  0
LWPOLYLINE
  5
2D4
100
AcDbEntity
  8
ASSEMBLY_OUTLINES_TOP
100
AcDbPolyline
 90
        4
 70
         1
 43
0.1
 10
7.55
 20
23.05
 10
7.55
 20
26.05
 10
11.25
 20
26.05
 10
11.25
 20
23.05
  0
LWPOLYLINE
  5
2D5
100
AcDbEntity
  8
ASSEMBLY_OUTLINES_TOP
100
AcDbPolyline
 90
        2
 70
         0
 43
0.1
 10
11.15
 20
26.05
 10
11.15
 20
23.05
  0
LWPOLYLINE
  5
2D6
100
AcDbEntity
  8
ASSEMBLY_OUTLINES_TOP
100
AcDbPolyline
 90
        2
 70
         0
 43
0.1
 10
11.05
 20
26.05
 10
11.05
 20
23.05
  0
LWPOLYLINE
  5
2D7
100
AcDbEntity
  8
ASSEMBLY_OUTLINES_TOP
100
AcDbPolyline
 90
        2
 70
         0
 43
0.1
 10
10.95
 20
26.05
 10
10.95
 20
23.05
  0
LWPOLYLINE
  5
2D8
100
AcDbEntity
  8
ASSEMBLY_OUTLINES_TOP
100
AcDbPolyline
 90
        2
 70
         0
 43
0.1
 10
10.85
 20
26.05
 10
10.85
 20
23.05
  0
LWPOLYLINE
  5
2D9
100
AcDbEntity
  8
ASSEMBLY_OUTLINES_TOP
100
AcDbPolyline
 90
        2
 70
         0
 43
0.1
 10
10.75
 20
26.05
 10
10.75
 20
23.05
  0
LWPOLYLINE
  5
2DA
100
AcDbEntity
  8
ASSEMBLY_OUTLINES_TOP
100
AcDbPolyline
 90
        2
 70
         0
 43
0.1
 10
10.65
 20
26.05
 10
10.65
 20
23.05
  0
LWPOLYLINE
  5
2DB
100
AcDbEntity
  8
ASSEMBLY_OUTLINES_TOP
100
AcDbPolyline
 90
        2
 70
         0
 43
0.1
 10
10.55
 20
26.05
 10
10.55
 20
23.05
  0
LWPOLYLINE
  5
2DC
100
AcDbEntity
  8
ASSEMBLY_OUTLINES_TOP
100
AcDbPolyline
 90
        2
 70
         0
 43
0.1
 10
10.45
 20
26.05
 10
10.45
 20
23.05
  0
LWPOLYLINE
  5
2DD
100
AcDbEntity
  8
ASSEMBLY_OUTLINES_TOP
100
AcDbPolyline
 90
        4
 70
         1
 10
20.15
 20
16.65
 10
20.15
 20
18.65
 10
35.15
 20
18.65
 10
35.15
 20
16.65
  0
LWPOLYLINE
  5
2DE
100
AcDbEntity
  8
ASSEMBLY_OUTLINES_TOP
100
AcDbPolyline
 90
        4
 70
         1
 43
0.1
 10
3.05
 20
13.1
 10
3.05
 20
16.8
 10
6.05
 20
16.8
 10
6.05
 20
13.1
  0
LWPOLYLINE
  5
2DF
100
AcDbEntity
  8
ASSEMBLY_OUTLINES_TOP
100
AcDbPolyline
 90
        2
 70
         0
 43
0.1
 10
3.05
 20
16.7
 10
6.05
 20
16.7
  0
LWPOLYLINE
  5
2E0
100
AcDbEntity
  8
ASSEMBLY_OUTLINES_TOP
100
AcDbPolyline
 90
        2
 70
         0
 43
0.1
 10
3.05
 20
16.6
 10
6.05
 20
16.6
  0
LWPOLYLINE
  5
2E1
100
AcDbEntity
  8
ASSEMBLY_OUTLINES_TOP
100
AcDbPolyline
 90
        2
 70
         0
 43
0.1
 10
3.05
 20
16.5
 10
6.05
 20
16.5
  0
LWPOLYLINE
  5
2E2
100
AcDbEntity
  8
ASSEMBLY_OUTLINES_TOP
100
AcDbPolyline
 90
        2
 70
         0
 43
0.1
 10
3.05
 20
16.4
 10
6.05
 20
16.4
  0
LWPOLYLINE
  5
2E3
100
AcDbEntity
  8
ASSEMBLY_OUTLINES_TOP
100
AcDbPolyline
 90
        2
 70
         0
 43
0.1
 10
3.05
 20
16.3
 10
6.05
 20
16.3
  0
LWPOLYLINE
  5
2E4
100
AcDbEntity
  8
ASSEMBLY_OUTLINES_TOP
100
AcDbPolyline
 90
        2
 70
         0
 43
0.1
 10
3.05
 20
16.2
 10
6.05
 20
16.2
  0
LWPOLYLINE
  5
2E5
100
AcDbEntity
  8
ASSEMBLY_OUTLINES_TOP
100
AcDbPolyline
 90
        2
 70
         0
 43
0.1
 10
3.05
 20
16.1
 10
6.05
 20
16.1
  0
LWPOLYLINE
  5
2E6
100
AcDbEntity
  8
ASSEMBLY_OUTLINES_TOP
100
AcDbPolyline
 90
        2
 70
         0
 43
0.1
 10
3.05
 20
16.0
 10
6.05
 20
16.0
  0
LWPOLYLINE
  5
2E7
100
AcDbEntity
  8
ASSEMBLY_OUTLINES_TOP
100
AcDbPolyline
 90
        4
 70
         1
 43
0.1
 10
-12.3
 20
26.6
 10
-12.3
 20
29.6
 10
-8.6
 20
29.6
 10
-8.6
 20
26.6
  0
LWPOLYLINE
  5
2E8
100
AcDbEntity
  8
ASSEMBLY_OUTLINES_TOP
100
AcDbPolyline
 90
        2
 70
         0
 43
0.1
 10
-12.2
 20
26.6
 10
-12.2
 20
29.6
  0
LWPOLYLINE
  5
2E9
100
AcDbEntity
  8
ASSEMBLY_OUTLINES_TOP
100
AcDbPolyline
 90
        2
 70
         0
 43
0.1
 10
-12.1
 20
26.6
 10
-12.1
 20
29.6
  0
LWPOLYLINE
  5
2EA
100
AcDbEntity
  8
ASSEMBLY_OUTLINES_TOP
100
AcDbPolyline
 90
        2
 70
         0
 43
0.1
 10
-12.0
 20
26.6
 10
-12.0
 20
29.6
  0
LWPOLYLINE
  5
2EB
100
AcDbEntity
  8
ASSEMBLY_OUTLINES_TOP
100
AcDbPolyline
 90
        2
 70
         0
 43
0.1
 10
-11.9
 20
26.6
 10
-11.9
 20
29.6
  0
LWPOLYLINE
  5
2EC
100
AcDbEntity
  8
ASSEMBLY_OUTLINES_TOP
100
AcDbPolyline
 90
        2
 70
         0
 43
0.1
 10
-11.8
 20
26.6
 10
-11.8
 20
29.6
  0
LWPOLYLINE
  5
2ED
100
AcDbEntity
  8
ASSEMBLY_OUTLINES_TOP
100
AcDbPolyline
 90
        2
 70
         0
 43
0.1
 10
-11.7
 20
26.6
 10
-11.7
 20
29.6
  0
LWPOLYLINE
  5
2EE
100
AcDbEntity
  8
ASSEMBLY_OUTLINES_TOP
100
AcDbPolyline
 90
        2
 70
         0
 43
0.1
 10
-11.6
 20
26.6
 10
-11.6
 20
29.6
  0
LWPOLYLINE
  5
2EF
100
AcDbEntity
  8
ASSEMBLY_OUTLINES_TOP
100
AcDbPolyline
 90
        2
 70
         0
 43
0.1
 10
-11.5
 20
26.6
 10
-11.5
 20
29.6
  0
LWPOLYLINE
  5
2F0
100
AcDbEntity
  8
ASSEMBLY_OUTLINES_TOP
100
AcDbPolyline
 90
        4
 70
         1
 43
0.1
 10
15.25
 20
28.05
 10
15.25
 20
31.05
 10
18.25
 20
31.05
 10
18.25
 20
28.05
  0
LWPOLYLINE
  5
2F1
100
AcDbEntity
  8
ASSEMBLY_OUTLINES_TOP
100
AcDbPolyline
 90
        2
 70
         0
 43
0.1
 10
15.35
 20
28.05
 10
15.25
 20
28.15
  0
LWPOLYLINE
  5
2F2
100
AcDbEntity
  8
ASSEMBLY_OUTLINES_TOP
100
AcDbPolyline
 90
        2
 70
         0
 43
0.1
 10
15.45
 20
28.05
 10
15.25
 20
28.25
  0
LWPOLYLINE
  5
2F3
100
AcDbEntity
  8
ASSEMBLY_OUTLINES_TOP
100
AcDbPolyline
 90
        2
 70
         0
 43
0.1
 10
15.55
 20
28.05
 10
15.25
 20
28.35
  0
LWPOLYLINE
  5
2F4
100
AcDbEntity
  8
ASSEMBLY_OUTLINES_TOP
100
AcDbPolyline
 90
        2
 70
         0
 43
0.1
 10
15.65
 20
28.05
 10
15.25
 20
28.45
  0
LWPOLYLINE
  5
2F5
100
AcDbEntity
  8
ASSEMBLY_OUTLINES_TOP
100
AcDbPolyline
 90
        2
 70
         0
 43
0.1
 10
15.75
 20
28.05
 10
15.25
 20
28.55
  0
LWPOLYLINE
  5
2F6
100
AcDbEntity
  8
ASSEMBLY_OUTLINES_TOP
100
AcDbPolyline
 90
        2
 70
         0
 43
0.1
 10
15.85
 20
28.05
 10
15.25
 20
28.65
  0
LWPOLYLINE
  5
2F7
100
AcDbEntity
  8
ASSEMBLY_OUTLINES_TOP
100
AcDbPolyline
 90
        6
 70
         1
 43
0.15
 10
80.5
 20
35.0
 10
86.2
 20
35.0
 10
86.2
 20
52.0
 10
82.2
 20
52.0
 10
82.2
 20
51.2
 10
80.5
 20
51.2
  0
LWPOLYLINE
  5
2F8
100
AcDbEntity
  8
ASSEMBLY_OUTLINES_TOP
100
AcDbPolyline
 90
        2
 70
         0
 43
0.5
 10
83.5
 20
47.9
 10
83.5
 20
38.8
  0
LWPOLYLINE
  5
2F9
100
AcDbEntity
  8
ASSEMBLY_OUTLINES_TOP
100
AcDbPolyline
 90
        2
 70
         0
 43
0.5
 10
83.5
 20
38.8
 10
84.9
 20
38.8
  0
LWPOLYLINE
  5
2FA
100
AcDbEntity
  8
ASSEMBLY_OUTLINES_TOP
100
AcDbPolyline
 90
        4
 70
         1
 43
0.1
 10
-0.2
 20
13.2
 10
-0.2
 20
16.2
 10
2.8
 20
16.2
 10
2.8
 20
13.2
  0
LWPOLYLINE
  5
2FB
100
AcDbEntity
  8
ASSEMBLY_OUTLINES_TOP
100
AcDbPolyline
 90
        2
 70
         0
 43
0.1
 10
2.7
 20
16.2
 10
2.8
 20
16.1
  0
LWPOLYLINE
  5
2FC
100
AcDbEntity
  8
ASSEMBLY_OUTLINES_TOP
100
AcDbPolyline
 90
        2
 70
         0
 43
0.1
 10
2.6
 20
16.2
 10
2.8
 20
16.0
  0
LWPOLYLINE
  5
2FD
100
AcDbEntity
  8
ASSEMBLY_OUTLINES_TOP
100
AcDbPolyline
 90
        2
 70
         0
 43
0.1
 10
2.5
 20
16.2
 10
2.8
 20
15.9
  0
LWPOLYLINE
  5
2FE
100
AcDbEntity
  8
ASSEMBLY_OUTLINES_TOP
100
AcDbPolyline
 90
        2
 70
         0
 43
0.1
 10
2.4
 20
16.2
 10
2.8
 20
15.8
  0
LWPOLYLINE
  5
2FF
100
AcDbEntity
  8
ASSEMBLY_OUTLINES_TOP
100
AcDbPolyline
 90
        2
 70
         0
 43
0.1
 10
2.3
 20
16.2
 10
2.8
 20
15.7
  0
LWPOLYLINE
  5
300
100
AcDbEntity
  8
ASSEMBLY_OUTLINES_TOP
100
AcDbPolyline
 90
        2
 70
         0
 43
0.1
 10
2.2
 20
16.2
 10
2.8
 20
15.6
  0
LWPOLYLINE
  5
301
100
AcDbEntity
  8
ASSEMBLY_OUTLINES_TOP
100
AcDbPolyline
 90
        4
 70
         1
 10
70.93
 20
67.63
 10
70.93
 20
70.17
 10
73.47
 20
70.17
 10
73.47
 20
67.63
  0
CIRCLE
  5
302
100
AcDbEntity
  8
ASSEMBLY_OUTLINES_TOP
100
AcDbCircle
 10
61.1
 20
63.55
 30
0.0
 40
2.0
  0
LWPOLYLINE
  5
303
100
AcDbEntity
  8
ASSEMBLY_OUTLINES_TOP
100
AcDbPolyline
 90
        4
 70
         1
 43
0.1
 10
15.5
 20
31.5
 10
15.5
 20
33.3
 10
18.8
 20
33.3
 10
18.8
 20
31.5
  0
LWPOLYLINE
  5
304
100
AcDbEntity
  8
ASSEMBLY_OUTLINES_TOP
100
AcDbPolyline
 90
        2
 70
         0
 10
46.0
 20
83.45
 10
40.0
 20
83.45
  0
LWPOLYLINE
  5
305
100
AcDbEntity
  8
ASSEMBLY_OUTLINES_TOP
100
AcDbPolyline
 90
        2
 70
         0
 10
46.4
 20
83.45
 10
40.4
 20
83.45
  0
LWPOLYLINE
  5
306
100
AcDbEntity
  8
ASSEMBLY_OUTLINES_TOP
100
AcDbPolyline
 90
        6
 70
         1
 10
46.9
 20
87.25
 10
40.9
 20
87.25
 10
40.9
 20
83.45
 10
38.8
 20
83.45
 10
38.8
 20
69.25
 10
46.9
 20
69.25
  0
LWPOLYLINE
  5
307
100
AcDbEntity
  8
ASSEMBLY_OUTLINES_TOP
100
AcDbPolyline
 90
        4
 70
         1
 43
0.1
 10
16.1
 20
13.1
 10
16.1
 20
16.8
 10
19.1
 20
16.8
 10
19.1
 20
13.1
  0
LWPOLYLINE
  5
308
100
AcDbEntity
  8
ASSEMBLY_OUTLINES_TOP
100
AcDbPolyline
 90
        2
 70
         0
 43
0.1
 10
16.1
 20
16.7
 10
19.1
 20
16.7
  0
LWPOLYLINE
  5
309
100
AcDbEntity
  8
ASSEMBLY_OUTLINES_TOP
100
AcDbPolyline
 90
        2
 70
         0
 43
0.1
 10
16.1
 20
16.6
 10
19.1
 20
16.6
  0
LWPOLYLINE
  5
30A
100
AcDbEntity
  8
ASSEMBLY_OUTLINES_TOP
100
AcDbPolyline
 90
        2
 70
         0
 43
0.1
 10
16.1
 20
16.5
 10
19.1
 20
16.5
  0
LWPOLYLINE
  5
30B
100
AcDbEntity
  8
ASSEMBLY_OUTLINES_TOP
100
AcDbPolyline
 90
        2
 70
         0
 43
0.1
 10
16.1
 20
16.4
 10
19.1
 20
16.4
  0
LWPOLYLINE
  5
30C
100
AcDbEntity
  8
ASSEMBLY_OUTLINES_TOP
100
AcDbPolyline
 90
        2
 70
         0
 43
0.1
 10
16.1
 20
16.3
 10
19.1
 20
16.3
  0
LWPOLYLINE
  5
30D
100
AcDbEntity
  8
ASSEMBLY_OUTLINES_TOP
100
AcDbPolyline
 90
        2
 70
         0
 43
0.1
 10
16.1
 20
16.2
 10
19.1
 20
16.2
  0
LWPOLYLINE
  5
30E
100
AcDbEntity
  8
ASSEMBLY_OUTLINES_TOP
100
AcDbPolyline
 90
        2
 70
         0
 43
0.1
 10
16.1
 20
16.1
 10
19.1
 20
16.1
  0
LWPOLYLINE
  5
30F
100
AcDbEntity
  8
ASSEMBLY_OUTLINES_TOP
100
AcDbPolyline
 90
        2
 70
         0
 43
0.1
 10
16.1
 20
16.0
 10
19.1
 20
16.0
  0
LWPOLYLINE
  5
310
100
AcDbEntity
  8
ASSEMBLY_OUTLINES_TOP
100
AcDbPolyline
 90
        4
 70
         1
 10
17.29
 20
9.58
 10
17.29
 20
12.12
 10
24.79
 20
12.12
 10
24.79
 20
9.58
  0
LWPOLYLINE
  5
311
100
AcDbEntity
  8
ASSEMBLY_OUTLINES_TOP
100
AcDbPolyline
 90
        4
 70
         1
 10
91.08
 20
36.77
 10
91.08
 20
69.77
 10
99.78
 20
69.77
 10
99.78
 20
36.77
  0
LWPOLYLINE
  5
312
100
AcDbEntity
  8
ASSEMBLY_OUTLINES_TOP
100
AcDbPolyline
 90
        4
 70
         1
 10
91.08
 20
50.2
 10
91.08
 20
56.7
 10
91.66
 20
56.7
 10
91.66
 20
50.2
  0
LWPOLYLINE
  5
313
100
AcDbEntity
  8
ASSEMBLY_OUTLINES_TOP
100
AcDbPolyline
 90
        4
 70
         1
 10
18.93
 20
19.68
 10
18.93
 20
52.68
 10
27.63
 20
52.68
 10
27.63
 20
19.68
  0
LWPOLYLINE
  5
314
100
AcDbEntity
  8
ASSEMBLY_OUTLINES_TOP
100
AcDbPolyline
 90
        4
 70
         1
 10
27.05
 20
32.75
 10
27.05
 20
39.25
 10
27.63
 20
39.25
 10
27.63
 20
32.75
  0
LWPOLYLINE
  5
315
100
AcDbEntity
  8
ASSEMBLY_OUTLINES_TOP
100
AcDbPolyline
 90
        4
 70
         1
 43
0.1
 10
94.875
 20
30.875
 10
94.875
 20
32.625
 10
97.925
 20
32.625
 10
97.925
 20
30.875
  0
LWPOLYLINE
  5
316
100
AcDbEntity
  8
ASSEMBLY_OUTLINES_TOP
100
AcDbPolyline
 90
        2
 70
         0
 43
0.1
 10
94.975
 20
30.875
 10
94.875
 20
30.975
  0
LWPOLYLINE
  5
317
100
AcDbEntity
  8
ASSEMBLY_OUTLINES_TOP
100
AcDbPolyline
 90
        2
 70
         0
 43
0.1
 10
95.075
 20
30.875
 10
94.875
 20
31.075
  0
LWPOLYLINE
  5
318
100
AcDbEntity
  8
ASSEMBLY_OUTLINES_TOP
100
AcDbPolyline
 90
        2
 70
         0
 43
0.1
 10
95.175
 20
30.875
 10
94.875
 20
31.175
  0
LWPOLYLINE
  5
319
100
AcDbEntity
  8
ASSEMBLY_OUTLINES_TOP
100
AcDbPolyline
 90
        2
 70
         0
 43
0.1
 10
95.275
 20
30.875
 10
94.875
 20
31.275
  0
LWPOLYLINE
  5
31A
100
AcDbEntity
  8
ASSEMBLY_OUTLINES_TOP
100
AcDbPolyline
 90
        2
 70
         0
 43
0.1
 10
95.375
 20
30.875
 10
94.875
 20
31.375
  0
LWPOLYLINE
  5
31B
100
AcDbEntity
  8
ASSEMBLY_OUTLINES_TOP
100
AcDbPolyline
 90
        2
 70
         0
 43
0.1
 10
95.475
 20
30.875
 10
94.875
 20
31.475
  0
LWPOLYLINE
  5
31C
100
AcDbEntity
  8
ASSEMBLY_OUTLINES_TOP
100
AcDbPolyline
 90
        4
 70
         1
 43
0.1
 10
-13.2
 20
13.2
 10
-13.2
 20
16.2
 10
-10.2
 20
16.2
 10
-10.2
 20
13.2
  0
LWPOLYLINE
  5
31D
100
AcDbEntity
  8
ASSEMBLY_OUTLINES_TOP
100
AcDbPolyline
 90
        2
 70
         0
 43
0.1
 10
-10.3
 20
16.2
 10
-10.2
 20
16.1
  0
LWPOLYLINE
  5
31E
100
AcDbEntity
  8
ASSEMBLY_OUTLINES_TOP
100
AcDbPolyline
 90
        2
 70
         0
 43
0.1
 10
-10.4
 20
16.2
 10
-10.2
 20
16.0
  0
LWPOLYLINE
  5
31F
100
AcDbEntity
  8
ASSEMBLY_OUTLINES_TOP
100
AcDbPolyline
 90
        2
 70
         0
 43
0.1
 10
-10.5
 20
16.2
 10
-10.2
 20
15.9
  0
LWPOLYLINE
  5
320
100
AcDbEntity
  8
ASSEMBLY_OUTLINES_TOP
100
AcDbPolyline
 90
        2
 70
         0
 43
0.1
 10
-10.6
 20
16.2
 10
-10.2
 20
15.8
  0
LWPOLYLINE
  5
321
100
AcDbEntity
  8
ASSEMBLY_OUTLINES_TOP
100
AcDbPolyline
 90
        2
 70
         0
 43
0.1
 10
-10.7
 20
16.2
 10
-10.2
 20
15.7
  0
LWPOLYLINE
  5
322
100
AcDbEntity
  8
ASSEMBLY_OUTLINES_TOP
100
AcDbPolyline
 90
        2
 70
         0
 43
0.1
 10
-10.8
 20
16.2
 10
-10.2
 20
15.6
  0
LWPOLYLINE
  5
323
100
AcDbEntity
  8
ASSEMBLY_OUTLINES_TOP
100
AcDbPolyline
 90
        4
 70
         1
 10
46.98
 20
77.95
 10
46.98
 20
83.95
 10
52.06
 20
83.95
 10
52.06
 20
77.95
  0
LWPOLYLINE
  5
324
100
AcDbEntity
  8
ASSEMBLY_OUTLINES_TOP
100
AcDbPolyline
 90
        8
 70
         1
 43
0.1
 10
-12.65
 20
21.8
 10
-12.65
 20
18.5
 42
0.4142135624
 10
-11.65
 20
17.5
 10
-8.45
 20
17.5
 42
0.4142135624
 10
-7.45
 20
18.5
 10
-7.45
 20
21.8
 42
0.4142135624
 10
-8.45
 20
22.8
 10
-11.65
 20
22.8
 42
0.4142135624
  0
LWPOLYLINE
  5
325
100
AcDbEntity
  8
ASSEMBLY_OUTLINES_TOP
100
AcDbPolyline
 90
        4
 70
         1
 43
0.1
 10
14.1
 20
23.05
 10
14.1
 20
26.05
 10
17.8
 20
26.05
 10
17.8
 20
23.05
  0
LWPOLYLINE
  5
326
100
AcDbEntity
  8
ASSEMBLY_OUTLINES_TOP
100
AcDbPolyline
 90
        2
 70
         0
 43
0.1
 10
17.7
 20
26.05
 10
17.7
 20
23.05
  0
LWPOLYLINE
  5
327
100
AcDbEntity
  8
ASSEMBLY_OUTLINES_TOP
100
AcDbPolyline
 90
        2
 70
         0
 43
0.1
 10
17.6
 20
26.05
 10
17.6
 20
23.05
  0
LWPOLYLINE
  5
328
100
AcDbEntity
  8
ASSEMBLY_OUTLINES_TOP
100
AcDbPolyline
 90
        2
 70
         0
 43
0.1
 10
17.5
 20
26.05
 10
17.5
 20
23.05
  0
LWPOLYLINE
  5
329
100
AcDbEntity
  8
ASSEMBLY_OUTLINES_TOP
100
AcDbPolyline
 90
        2
 70
         0
 43
0.1
 10
17.4
 20
26.05
 10
17.4
 20
23.05
  0
LWPOLYLINE
  5
32A
100
AcDbEntity
  8
ASSEMBLY_OUTLINES_TOP
100
AcDbPolyline
 90
        2
 70
         0
 43
0.1
 10
17.3
 20
26.05
 10
17.3
 20
23.05
  0
LWPOLYLINE
  5
32B
100
AcDbEntity
  8
ASSEMBLY_OUTLINES_TOP
100
AcDbPolyline
 90
        2
 70
         0
 43
0.1
 10
17.2
 20
26.05
 10
17.2
 20
23.05
  0
LWPOLYLINE
  5
32C
100
AcDbEntity
  8
ASSEMBLY_OUTLINES_TOP
100
AcDbPolyline
 90
        2
 70
         0
 43
0.1
 10
17.1
 20
26.05
 10
17.1
 20
23.05
  0
LWPOLYLINE
  5
32D
100
AcDbEntity
  8
ASSEMBLY_OUTLINES_TOP
100
AcDbPolyline
 90
        2
 70
         0
 43
0.1
 10
17.0
 20
26.05
 10
17.0
 20
23.05
  0
LWPOLYLINE
  5
32E
100
AcDbEntity
  8
ASSEMBLY_OUTLINES_TOP
100
AcDbPolyline
 90
        4
 70
         1
 10
65.35
 20
55.0
 10
65.35
 20
61.3
 10
70.35
 20
61.3
 10
70.35
 20
55.0
  0
LWPOLYLINE
  5
32F
100
AcDbEntity
  8
ASSEMBLY_OUTLINES_TOP
100
AcDbPolyline
 90
        4
 70
         1
 10
50.39
 20
11.23
 10
50.39
 20
13.77
 10
60.39
 20
13.77
 10
60.39
 20
11.23
  0
LWPOLYLINE
  5
330
100
AcDbEntity
  8
ASSEMBLY_OUTLINES_TOP
100
AcDbPolyline
 90
        4
 70
         1
 43
0.1
 10
36.67
 20
16.3
 10
36.67
 20
20.3
 10
46.67
 20
20.3
 10
46.67
 20
16.3
  0
LWPOLYLINE
  5
331
100
AcDbEntity
  8
ASSEMBLY_OUTLINES_TOP
100
AcDbPolyline
 90
        2
 70
         1
 43
0.1
 10
45.17
 20
19.3
 42
-1.0
 10
46.17
 20
19.3
 42
-1.0
  0
LWPOLYLINE
  5
332
100
AcDbEntity
  8
ASSEMBLY_OUTLINES_TOP
100
AcDbPolyline
 90
        4
 70
         1
 43
0.1
 10
66.35
 20
16.25
 10
66.35
 20
23.75
 10
78.85
 20
23.75
 10
78.85
 20
16.25
  0
LWPOLYLINE
  5
333
100
AcDbEntity
  8
ASSEMBLY_OUTLINES_TOP
100
AcDbPolyline
 90
        4
 70
         1
 43
0.1
 10
65.6
 20
14.25
 10
65.6
 20
25.75
 10
79.6
 20
25.75
 10
79.6
 20
14.25
  0
LWPOLYLINE
  5
334
100
AcDbEntity
  8
ASSEMBLY_OUTLINES_TOP
100
AcDbPolyline
 90
        2
 70
         0
 43
0.1
 10
79.5
 20
25.75
 10
79.6
 20
25.65
  0
LWPOLYLINE
  5
335
100
AcDbEntity
  8
ASSEMBLY_OUTLINES_TOP
100
AcDbPolyline
 90
        2
 70
         0
 43
0.1
 10
79.4
 20
25.75
 10
79.6
 20
25.55
  0
LWPOLYLINE
  5
336
100
AcDbEntity
  8
ASSEMBLY_OUTLINES_TOP
100
AcDbPolyline
 90
        2
 70
         0
 43
0.1
 10
79.3
 20
25.75
 10
79.6
 20
25.45
  0
LWPOLYLINE
  5
337
100
AcDbEntity
  8
ASSEMBLY_OUTLINES_TOP
100
AcDbPolyline
 90
        2
 70
         0
 43
0.1
 10
79.2
 20
25.75
 10
79.6
 20
25.35
  0
LWPOLYLINE
  5
338
100
AcDbEntity
  8
ASSEMBLY_OUTLINES_TOP
100
AcDbPolyline
 90
        2
 70
         0
 43
0.1
 10
79.1
 20
25.75
 10
79.6
 20
25.25
  0
LWPOLYLINE
  5
339
100
AcDbEntity
  8
ASSEMBLY_OUTLINES_TOP
100
AcDbPolyline
 90
        2
 70
         0
 43
0.1
 10
79.0
 20
25.75
 10
79.6
 20
25.15
  0
LWPOLYLINE
  5
33A
100
AcDbEntity
  8
ASSEMBLY_OUTLINES_TOP
100
AcDbPolyline
 90
        4
 70
         1
 43
0.1
 10
2.15
 20
27.75
 10
2.15
 20
29.45
 10
5.25
 20
29.45
 10
5.25
 20
27.75
  0
LWPOLYLINE
  5
33B
100
AcDbEntity
  8
ASSEMBLY_OUTLINES_TOP
100
AcDbPolyline
 90
        2
 70
         0
 43
0.1
 10
5.15
 20
29.45
 10
5.15
 20
27.75
  0
LWPOLYLINE
  5
33C
100
AcDbEntity
  8
ASSEMBLY_OUTLINES_TOP
100
AcDbPolyline
 90
        2
 70
         0
 43
0.1
 10
5.05
 20
29.45
 10
5.05
 20
27.75
  0
LWPOLYLINE
  5
33D
100
AcDbEntity
  8
ASSEMBLY_OUTLINES_TOP
100
AcDbPolyline
 90
        2
 70
         0
 43
0.1
 10
4.95
 20
29.45
 10
4.95
 20
27.75
  0
LWPOLYLINE
  5
33E
100
AcDbEntity
  8
ASSEMBLY_OUTLINES_TOP
100
AcDbPolyline
 90
        2
 70
         0
 43
0.1
 10
4.85
 20
29.45
 10
4.85
 20
27.75
  0
LWPOLYLINE
  5
33F
100
AcDbEntity
  8
ASSEMBLY_OUTLINES_TOP
100
AcDbPolyline
 90
        2
 70
         0
 43
0.1
 10
4.75
 20
29.45
 10
4.75
 20
27.75
  0
LWPOLYLINE
  5
340
100
AcDbEntity
  8
ASSEMBLY_OUTLINES_TOP
100
AcDbPolyline
 90
        2
 70
         0
 43
0.1
 10
4.65
 20
29.45
 10
4.65
 20
27.75
  0
LWPOLYLINE
  5
341
100
AcDbEntity
  8
ASSEMBLY_OUTLINES_TOP
100
AcDbPolyline
 90
        4
 70
         1
 10
48.81
 20
-3.0
 10
48.81
 20
11.0
 10
62.01
 20
11.0
 10
62.01
 20
-3.0
  0
LWPOLYLINE
  5
342
100
AcDbEntity
  8
ASSEMBLY_OUTLINES_TOP
100
AcDbPolyline
 90
        4
 70
         1
 43
0.1
 10
6.3
 20
13.2
 10
6.3
 20
16.2
 10
9.3
 20
16.2
 10
9.3
 20
13.2
  0
LWPOLYLINE
  5
343
100
AcDbEntity
  8
ASSEMBLY_OUTLINES_TOP
100
AcDbPolyline
 90
        2
 70
         0
 43
0.1
 10
9.2
 20
16.2
 10
9.3
 20
16.1
  0
LWPOLYLINE
  5
344
100
AcDbEntity
  8
ASSEMBLY_OUTLINES_TOP
100
AcDbPolyline
 90
        2
 70
         0
 43
0.1
 10
9.1
 20
16.2
 10
9.3
 20
16.0
  0
LWPOLYLINE
  5
345
100
AcDbEntity
  8
ASSEMBLY_OUTLINES_TOP
100
AcDbPolyline
 90
        2
 70
         0
 43
0.1
 10
9.0
 20
16.2
 10
9.3
 20
15.9
  0
LWPOLYLINE
  5
346
100
AcDbEntity
  8
ASSEMBLY_OUTLINES_TOP
100
AcDbPolyline
 90
        2
 70
         0
 43
0.1
 10
8.9
 20
16.2
 10
9.3
 20
15.8
  0
LWPOLYLINE
  5
347
100
AcDbEntity
  8
ASSEMBLY_OUTLINES_TOP
100
AcDbPolyline
 90
        2
 70
         0
 43
0.1
 10
8.8
 20
16.2
 10
9.3
 20
15.7
  0
LWPOLYLINE
  5
348
100
AcDbEntity
  8
ASSEMBLY_OUTLINES_TOP
100
AcDbPolyline
 90
        2
 70
         0
 43
0.1
 10
8.7
 20
16.2
 10
9.3
 20
15.6
  0
LWPOLYLINE
  5
349
100
AcDbEntity
  8
ASSEMBLY_OUTLINES_TOP
100
AcDbPolyline
 90
        2
 70
         0
 10
37.65
 20
83.45
 10
31.65
 20
83.45
  0
LWPOLYLINE
  5
34A
100
AcDbEntity
  8
ASSEMBLY_OUTLINES_TOP
100
AcDbPolyline
 90
        2
 70
         0
 10
38.05
 20
83.45
 10
32.05
 20
83.45
  0
LWPOLYLINE
  5
34B
100
AcDbEntity
  8
ASSEMBLY_OUTLINES_TOP
100
AcDbPolyline
 90
        6
 70
         1
 10
38.55
 20
87.25
 10
32.55
 20
87.25
 10
32.55
 20
83.45
 10
30.45
 20
83.45
 10
30.45
 20
69.25
 10
38.55
 20
69.25
  0
TEXT
  5
34D
100
AcDbEntity
  8
ASSEMBLY_REF_DES_TOP
100
AcDbText
 10
51.166
 20
74.3065
 30
0.0
 40
1.0
  1
C2
  7
GOST_TYPE_B
 72
         1
 11
51.85
 21
74.8
 31
0.0
100
AcDbText
 73
         2
  0
TEXT
  5
34E
100
AcDbEntity
  8
ASSEMBLY_REF_DES_TOP
100
AcDbText
 10
42.577
 20
35.1065
 30
0.0
 40
1.0
  1
DD7
  7
GOST_TYPE_B
 72
         1
 11
43.7
 21
35.6
 31
0.0
100
AcDbText
 73
         2
  0
TEXT
  5
34F
100
AcDbEntity
  8
ASSEMBLY_REF_DES_TOP
100
AcDbText
 10
-16.384
 20
20.6265
 30
0.0
 40
1.0
  1
VD1
  7
GOST_TYPE_B
 72
         1
 11
-15.31
 21
21.12
 31
0.0
100
AcDbText
 73
         2
  0
TEXT
  5
350
100
AcDbEntity
  8
ASSEMBLY_REF_DES_TOP
100
AcDbText
 10
29.217
 20
58.65
 30
0.0
 40
1.0
  1
X9
  7
GOST_TYPE_B
 72
         2
 11
30.78
 21
58.65
 31
0.0
100
AcDbText
 73
         1
  0
TEXT
  5
351
100
AcDbEntity
  8
ASSEMBLY_REF_DES_TOP
100
AcDbText
 10
55.98
 20
68.5
 30
0.0
 40
1.0
  1
J2
  7
GOST_TYPE_B
 72
         2
 11
57.25
 21
68.5
 31
0.0
100
AcDbText
 73
         1
  0
TEXT
  5
352
100
AcDbEntity
  8
ASSEMBLY_REF_DES_TOP
100
AcDbText
 10
-15.5325
 20
27.1565
 30
0.0
 40
1.0
  1
C8
  7
GOST_TYPE_B
 72
         1
 11
-14.8
 21
27.65
 31
0.0
100
AcDbText
 73
         2
  0
TEXT
  5
353
100
AcDbEntity
  8
ASSEMBLY_REF_DES_TOP
100
AcDbText
 10
50.479
 20
58.8565
 30
0.0
 40
1.0
  1
ZQ2
  7
GOST_TYPE_B
 72
         1
 11
51.7
 21
59.35
 31
0.0
100
AcDbText
 73
         2
  0
TEXT
  5
354
100
AcDbEntity
  8
ASSEMBLY_REF_DES_TOP
100
AcDbText
 10
86.5285
 20
28.6065
 30
0.0
 40
1.0
  1
DD8
  7
GOST_TYPE_B
 72
         1
 11
87.7
 21
29.1
 31
0.0
100
AcDbText
 73
         2
  0
TEXT
  5
355
100
AcDbEntity
  8
ASSEMBLY_REF_DES_TOP
100
AcDbText
 10
-1.601
 20
6.26
 30
0.0
 40
1.0
  1
X19
  7
GOST_TYPE_B
 72
         2
 11
0.45
 21
6.26
 31
0.0
100
AcDbText
 73
         1
  0
TEXT
  5
356
100
AcDbEntity
  8
ASSEMBLY_REF_DES_TOP
100
AcDbText
 10
87.938
 20
18.2
 30
0.0
 40
1.0
  1
J11
  7
GOST_TYPE_B
 72
         2
 11
89.5
 21
18.2
 31
0.0
100
AcDbText
 73
         1
  0
TEXT
  5
357
100
AcDbEntity
  8
ASSEMBLY_REF_DES_TOP
100
AcDbText
 10
51.208
 20
45.1
 30
0.0
 40
1.0
  1
ZQ3
  7
GOST_TYPE_B
 72
         2
 11
53.65
 21
45.1
 31
0.0
100
AcDbText
 73
         1
  0
TEXT
  5
358
100
AcDbEntity
  8
ASSEMBLY_REF_DES_TOP
100
AcDbText
 10
30.765775
 20
36.670225
 30
0.0
 40
1.0
  1
X15
  7
GOST_TYPE_B
 72
         2
 11
32.816775
 21
36.670225
 31
0.0
100
AcDbText
 73
         1
  0
TEXT
  5
359
100
AcDbEntity
  8
ASSEMBLY_REF_DES_TOP
100
AcDbText
 10
51.221
 20
36.66
 30
0.0
 40
1.0
  1
ZQ4
  7
GOST_TYPE_B
 72
         2
 11
53.76
 21
36.66
 31
0.0
100
AcDbText
 73
         1
  0
TEXT
  5
35A
100
AcDbEntity
  8
ASSEMBLY_REF_DES_TOP
100
AcDbText
 10
56.777
 20
19.5065
 30
0.0
 40
1.0
  1
DD9
  7
GOST_TYPE_B
 72
         1
 11
57.9
 21
20.0
 31
0.0
100
AcDbText
 73
         2
  0
TEXT
  5
35B
100
AcDbEntity
  8
ASSEMBLY_REF_DES_TOP
100
AcDbText
 10
41.333
 20
22.7
 30
0.0
 40
1.0
  1
J8
  7
GOST_TYPE_B
 72
         2
 11
42.7
 21
22.7
 31
0.0
100
AcDbText
 73
         1
  0
TEXT
  5
35C
100
AcDbEntity
  8
ASSEMBLY_REF_DES_TOP
100
AcDbText
 10
-9.378
 20
14.4565
 30
0.0
 40
1.0
  1
C16
  7
GOST_TYPE_B
 72
         1
 11
-8.45
 21
14.95
 31
0.0
100
AcDbText
 73
         2
  0
TEXT
  5
35D
100
AcDbEntity
  8
ASSEMBLY_REF_DES_TOP
100
AcDbText
 10
2.17
 20
24.0565
 30
0.0
 40
1.0
  1
C11
  7
GOST_TYPE_B
 72
         1
 11
3.0
 21
24.55
 31
0.0
100
AcDbText
 73
         2
  0
TEXT
  5
35E
100
AcDbEntity
  8
ASSEMBLY_REF_DES_TOP
100
AcDbText
 10
94.599
 20
34.9
 30
0.0
 40
1.0
  1
X16
  7
GOST_TYPE_B
 72
         2
 11
96.65
 21
34.9
 31
0.0
100
AcDbText
 73
         1
  0
TEXT
  5
35F
100
AcDbEntity
  8
ASSEMBLY_REF_DES_TOP
100
AcDbText
 10
-11.885
 20
40.9065
 30
0.0
 40
1.0
  1
J6
  7
GOST_TYPE_B
 72
         1
 11
-11.25
 21
41.4
 31
0.0
100
AcDbText
 73
         2
  0
TEXT
  5
360
100
AcDbEntity
  8
ASSEMBLY_REF_DES_TOP
100
AcDbText
 10
71.342
 20
2.8
 30
0.0
 40
1.0
  1
J16
  7
GOST_TYPE_B
 72
         2
 11
73.1
 21
2.8
 31
0.0
100
AcDbText
 73
         1
  0
TEXT
  5
361
100
AcDbEntity
  8
ASSEMBLY_REF_DES_TOP
100
AcDbText
 10
63.5596
 20
68.3719
 30
0.0
 40
1.0
  1
DD1
  7
GOST_TYPE_B
 72
         1
 11
64.5846
 21
68.8654
 31
0.0
100
AcDbText
 73
         2
  0
TEXT
  5
362
100
AcDbEntity
  8
ASSEMBLY_REF_DES_TOP
100
AcDbText
 10
-10.734
 20
24.1065
 30
0.0
 40
1.0
  1
C9
  7
GOST_TYPE_B
 72
         1
 11
-10.05
 21
24.6
 31
0.0
100
AcDbText
 73
         2
  0
TEXT
  5
363
100
AcDbEntity
  8
ASSEMBLY_REF_DES_TOP
100
AcDbText
 10
-2.623
 20
50.4565
 30
0.0
 40
1.0
  1
DD3
  7
GOST_TYPE_B
 72
         1
 11
-1.5
 21
50.95
 31
0.0
100
AcDbText
 73
         2
  0
TEXT
  5
364
100
AcDbEntity
  8
ASSEMBLY_REF_DES_TOP
100
AcDbText
 10
11.566
 20
29.9065
 30
0.0
 40
1.0
  1
L2
  7
GOST_TYPE_B
 72
         1
 11
12.25
 21
30.4
 31
0.0
100
AcDbText
 73
         2
  0
TEXT
  5
365
100
AcDbEntity
  8
ASSEMBLY_REF_DES_TOP
100
AcDbText
 10
44.712275
 20
66.014275
 30
0.0
 40
1.0
  1
J3
  7
GOST_TYPE_B
 72
         2
 11
45.982275
 21
66.014275
 31
0.0
100
AcDbText
 73
         1
  0
TEXT
  5
366
100
AcDbEntity
  8
ASSEMBLY_REF_DES_TOP
100
AcDbText
 10
44.4255
 20
12.2565
 30
0.0
 40
1.0
  1
HL2
  7
GOST_TYPE_B
 72
         1
 11
45.5
 21
12.75
 31
0.0
100
AcDbText
 73
         2
  0
TEXT
  5
367
100
AcDbEntity
  8
ASSEMBLY_REF_DES_TOP
100
AcDbText
 10
47.38
 20
23.45
 30
0.0
 40
1.0
  1
J9
  7
GOST_TYPE_B
 72
         2
 11
48.65
 21
23.45
 31
0.0
100
AcDbText
 73
         1
  0
TEXT
  5
368
100
AcDbEntity
  8
ASSEMBLY_REF_DES_TOP
100
AcDbText
 10
35.3745
 20
6.7565
 30
0.0
 40
1.0
  1
X21
  7
GOST_TYPE_B
 72
         1
 11
36.4
 21
7.25
 31
0.0
100
AcDbText
 73
         2
  0
TEXT
  5
369
100
AcDbEntity
  8
ASSEMBLY_REF_DES_TOP
100
AcDbText
 10
32.14
 20
65.75
 30
0.0
 40
1.0
  1
X8
  7
GOST_TYPE_B
 72
         2
 11
33.8
 21
65.75
 31
0.0
100
AcDbText
 73
         1
  0
TEXT
  5
36A
100
AcDbEntity
  8
ASSEMBLY_REF_DES_TOP
100
AcDbText
 10
11.764
 20
35.4565
 30
0.0
 40
1.0
  1
L1
  7
GOST_TYPE_B
 72
         1
 11
12.35
 21
35.95
 31
0.0
100
AcDbText
 73
         2
  0
TEXT
  5
36B
100
AcDbEntity
  8
ASSEMBLY_REF_DES_TOP
100
AcDbText
 10
-4.478
 20
24.0565
 30
0.0
 40
1.0
  1
C10
  7
GOST_TYPE_B
 72
         1
 11
-3.55
 21
24.55
 31
0.0
100
AcDbText
 73
         2
  0
TEXT
  5
36C
100
AcDbEntity
  8
ASSEMBLY_REF_DES_TOP
100
AcDbText
 10
48.014
 20
74.3065
 30
0.0
 40
1.0
  1
C1
  7
GOST_TYPE_B
 72
         1
 11
48.6
 21
74.8
 31
0.0
100
AcDbText
 73
         2
  0
TEXT
  5
36D
100
AcDbEntity
  8
ASSEMBLY_REF_DES_TOP
100
AcDbText
 10
-2.878
 20
14.4565
 30
0.0
 40
1.0
  1
C17
  7
GOST_TYPE_B
 72
         1
 11
-1.95
 21
14.95
 31
0.0
100
AcDbText
 73
         2
  0
TEXT
  5
36E
100
AcDbEntity
  8
ASSEMBLY_REF_DES_TOP
100
AcDbText
 10
18.106
 20
5.98
 30
0.0
 40
1.0
  1
X24
  7
GOST_TYPE_B
 72
         2
 11
20.45
 21
5.98
 31
0.0
100
AcDbText
 73
         1
  0
TEXT
  5
36F
100
AcDbEntity
  8
ASSEMBLY_REF_DES_TOP
100
AcDbText
 10
2.116
 20
19.7065
 30
0.0
 40
1.0
  1
L5
  7
GOST_TYPE_B
 72
         1
 11
2.8
 21
20.2
 31
0.0
100
AcDbText
 73
         2
  0
TEXT
  5
370
100
AcDbEntity
  8
ASSEMBLY_REF_DES_TOP
100
AcDbText
 10
8.566
 20
19.7065
 30
0.0
 40
1.0
  1
L6
  7
GOST_TYPE_B
 72
         1
 11
9.25
 21
20.2
 31
0.0
100
AcDbText
 73
         2
  0
TEXT
  5
371
100
AcDbEntity
  8
ASSEMBLY_REF_DES_TOP
100
AcDbText
 10
67.376
 20
72.75
 30
0.0
 40
1.0
  1
J1
  7
GOST_TYPE_B
 72
         2
 11
68.45
 21
72.75
 31
0.0
100
AcDbText
 73
         1
  0
TEXT
  5
372
100
AcDbEntity
  8
ASSEMBLY_REF_DES_TOP
100
AcDbText
 10
63.6285
 20
36.6065
 30
0.0
 40
1.0
  1
DD4
  7
GOST_TYPE_B
 72
         1
 11
64.8
 21
37.1
 31
0.0
100
AcDbText
 73
         2
  0
TEXT
  5
373
100
AcDbEntity
  8
ASSEMBLY_REF_DES_TOP
100
AcDbText
 10
79.9
 20
64.963
 30
0.0
 40
1.0
  1
Bat1
  7
GOST_TYPE_B
 11
79.9
 21
65.95
 31
0.0
100
AcDbText
 73
         3
  0
TEXT
  5
374
100
AcDbEntity
  8
ASSEMBLY_REF_DES_TOP
100
AcDbText
 10
44.145
 20
6.6
 30
0.0
 40
1.0
  1
J14
  7
GOST_TYPE_B
 72
         2
 11
46.0
 21
6.6
 31
0.0
100
AcDbText
 73
         1
  0
TEXT
  5
375
100
AcDbEntity
  8
ASSEMBLY_REF_DES_TOP
100
AcDbText
 10
46.669775
 20
52.248275
 30
0.0
 40
1.0
  1
DA2
  7
GOST_TYPE_B
 72
         1
 11
47.841775
 21
52.741775
 31
0.0
100
AcDbText
 73
         2
  0
TEXT
  5
376
100
AcDbEntity
  8
ASSEMBLY_REF_DES_TOP
100
AcDbText
 10
15.6934
 20
35.8911
 30
0.0
 40
1.0
  1
DA3
  7
GOST_TYPE_B
 72
         1
 11
16.8654
 21
36.3846
 31
0.0
100
AcDbText
 73
         2
  0
TEXT
  5
377
100
AcDbEntity
  8
ASSEMBLY_REF_DES_TOP
100
AcDbText
 10
3.0885
 20
78.9315
 30
0.0
 40
1.0
  1
X2
  7
GOST_TYPE_B
 72
         1
 11
3.87
 21
79.425
 31
0.0
100
AcDbText
 73
         2
  0
TEXT
  5
378
100
AcDbEntity
  8
ASSEMBLY_REF_DES_TOP
100
AcDbText
 10
10.122
 20
14.4565
 30
0.0
 40
1.0
  1
C19
  7
GOST_TYPE_B
 72
         1
 11
11.05
 21
14.95
 31
0.0
100
AcDbText
 73
         2
  0
TEXT
  5
379
100
AcDbEntity
  8
ASSEMBLY_REF_DES_TOP
100
AcDbText
 10
-4.4825
 20
19.7065
 30
0.0
 40
1.0
  1
L4
  7
GOST_TYPE_B
 72
         1
 11
-3.75
 21
20.2
 31
0.0
100
AcDbText
 73
         2
  0
TEXT
  5
37A
100
AcDbEntity
  8
ASSEMBLY_REF_DES_TOP
100
AcDbText
 10
78.723
 20
5.2
 30
0.0
 40
1.0
  1
X23
  7
GOST_TYPE_B
 72
         2
 11
80.97
 21
5.2
 31
0.0
100
AcDbText
 73
         1
  0
TEXT
  5
37B
100
AcDbEntity
  8
ASSEMBLY_REF_DES_TOP
100
AcDbText
 10
-6.4205
 20
14.1565
 30
0.0
 40
1.0
  1
DA8
  7
GOST_TYPE_B
 72
         1
 11
-5.2
 21
14.65
 31
0.0
100
AcDbText
 73
         2
  0
TEXT
  5
37C
100
AcDbEntity
  8
ASSEMBLY_REF_DES_TOP
100
AcDbText
 10
-2.723
 20
35.3565
 30
0.0
 40
1.0
  1
DD6
  7
GOST_TYPE_B
 72
         1
 11
-1.6
 21
35.85
 31
0.0
100
AcDbText
 73
         2
  0
TEXT
  5
37D
100
AcDbEntity
  8
ASSEMBLY_REF_DES_TOP
100
AcDbText
 10
65.442
 20
9.3
 30
0.0
 40
1.0
  1
J13
  7
GOST_TYPE_B
 72
         2
 11
67.2
 21
9.3
 31
0.0
100
AcDbText
 73
         1
  0
TEXT
  5
37E
100
AcDbEntity
  8
ASSEMBLY_REF_DES_TOP
100
AcDbText
 10
-11.3335
 20
60.5565
 30
0.0
 40
1.0
  1
J4
  7
GOST_TYPE_B
 72
         1
 11
-10.65
 21
61.05
 31
0.0
100
AcDbText
 73
         2
  0
TEXT
  5
37F
100
AcDbEntity
  8
ASSEMBLY_REF_DES_TOP
100
AcDbText
 10
-23.6005
 20
37.9265
 30
0.0
 40
1.0
  1
X13
  7
GOST_TYPE_B
 72
         1
 11
-22.575
 21
38.42
 31
0.0
100
AcDbText
 73
         2
  0
TEXT
  5
380
100
AcDbEntity
  8
ASSEMBLY_REF_DES_TOP
100
AcDbText
 10
43.546725
 20
56.636725
 30
0.0
 40
1.0
  1
J5
  7
GOST_TYPE_B
 72
         2
 11
44.816725
 21
56.636725
 31
0.0
100
AcDbText
 73
         1
  0
TEXT
  5
381
100
AcDbEntity
  8
ASSEMBLY_REF_DES_TOP
100
AcDbText
 10
-1.3615
 20
68.8815
 30
0.0
 40
1.0
  1
X6
  7
GOST_TYPE_B
 72
         1
 11
-0.58
 21
69.375
 31
0.0
100
AcDbText
 73
         2
  0
TEXT
  5
382
100
AcDbEntity
  8
ASSEMBLY_REF_DES_TOP
100
AcDbText
 10
63.842
 20
2.9
 30
0.0
 40
1.0
  1
J15
  7
GOST_TYPE_B
 72
         2
 11
65.6
 21
2.9
 31
0.0
100
AcDbText
 73
         1
  0
TEXT
  5
383
100
AcDbEntity
  8
ASSEMBLY_REF_DES_TOP
100
AcDbText
 10
-5.635
 20
27.8065
 30
0.0
 40
1.0
  1
J7
  7
GOST_TYPE_B
 72
         1
 11
-5.0
 21
28.3
 31
0.0
100
AcDbText
 73
         2
  0
TEXT
  5
384
100
AcDbEntity
  8
ASSEMBLY_REF_DES_TOP
100
AcDbText
 10
11.276
 20
59.0065
 30
0.0
 40
1.0
  1
DA1
  7
GOST_TYPE_B
 72
         1
 11
12.35
 21
59.5
 31
0.0
100
AcDbText
 73
         2
  0
TEXT
  5
385
100
AcDbEntity
  8
ASSEMBLY_REF_DES_TOP
100
AcDbText
 10
99.4955
 20
11.1565
 30
0.0
 40
1.0
  1
T1
  7
GOST_TYPE_B
 72
         1
 11
100.13
 21
11.65
 31
0.0
100
AcDbText
 73
         2
  0
TEXT
  5
386
100
AcDbEntity
  8
ASSEMBLY_REF_DES_TOP
100
AcDbText
 10
7.1675
 20
35.2565
 30
0.0
 40
1.0
  1
C4
  7
GOST_TYPE_B
 72
         1
 11
7.9
 21
35.75
 31
0.0
100
AcDbText
 73
         2
  0
TEXT
  5
387
100
AcDbEntity
  8
ASSEMBLY_REF_DES_TOP
100
AcDbText
 10
80.472
 20
18.1065
 30
0.0
 40
1.0
  1
C15
  7
GOST_TYPE_B
 72
         1
 11
81.4
 21
18.6
 31
0.0
100
AcDbText
 73
         2
  0
TEXT
  5
388
100
AcDbEntity
  8
ASSEMBLY_REF_DES_TOP
100
AcDbText
 10
12.982
 20
14.1565
 30
0.0
 40
1.0
  1
DA11
  7
GOST_TYPE_B
 72
         1
 11
14.3
 21
14.65
 31
0.0
100
AcDbText
 73
         2
  0
TEXT
  5
389
100
AcDbEntity
  8
ASSEMBLY_REF_DES_TOP
100
AcDbText
 10
77.7185
 20
78.9815
 30
0.0
 40
1.0
  1
X3
  7
GOST_TYPE_B
 72
         1
 11
78.5
 21
79.475
 31
0.0
100
AcDbText
 73
         2
  0
TEXT
  5
38A
100
AcDbEntity
  8
ASSEMBLY_REF_DES_TOP
100
AcDbText
 10
47.931725
 20
18.248275
 30
0.0
 40
1.0
  1
C14
  7
GOST_TYPE_B
 72
         1
 11
48.908225
 21
18.741775
 31
0.0
100
AcDbText
 73
         2
  0
TEXT
  5
38B
100
AcDbEntity
  8
ASSEMBLY_REF_DES_TOP
100
AcDbText
 10
50.427
 20
65.9065
 30
0.0
 40
1.0
  1
DD2
  7
GOST_TYPE_B
 72
         1
 11
51.55
 21
66.4
 31
0.0
100
AcDbText
 73
         2
  0
TEXT
  5
38C
100
AcDbEntity
  8
ASSEMBLY_REF_DES_TOP
100
AcDbText
 10
15.066
 20
19.7065
 30
0.0
 40
1.0
  1
L7
  7
GOST_TYPE_B
 72
         1
 11
15.75
 21
20.2
 31
0.0
100
AcDbText
 73
         2
  0
TEXT
  5
38D
100
AcDbEntity
  8
ASSEMBLY_REF_DES_TOP
100
AcDbText
 10
-13.123
 20
35.0565
 30
0.0
 40
1.0
  1
DD5
  7
GOST_TYPE_B
 72
         1
 11
-12.0
 21
35.55
 31
0.0
100
AcDbText
 73
         2
  0
TEXT
  5
38E
100
AcDbEntity
  8
ASSEMBLY_REF_DES_TOP
100
AcDbText
 10
88.566
 20
38.4065
 30
0.0
 40
1.0
  1
C3
  7
GOST_TYPE_B
 72
         1
 11
89.25
 21
38.9
 31
0.0
100
AcDbText
 73
         2
  0
TEXT
  5
38F
100
AcDbEntity
  8
ASSEMBLY_REF_DES_TOP
100
AcDbText
 10
87.742
 20
20.8
 30
0.0
 40
1.0
  1
J10
  7
GOST_TYPE_B
 72
         2
 11
89.5
 21
20.8
 31
0.0
100
AcDbText
 73
         1
  0
TEXT
  5
390
100
AcDbEntity
  8
ASSEMBLY_REF_DES_TOP
100
AcDbText
 10
-24.576998
 20
7.849998
 30
0.0
 40
1.0
  1
X20
  7
GOST_TYPE_B
 72
         2
 11
-22.329998
 21
7.849998
 31
0.0
100
AcDbText
 73
         1
  0
TEXT
  5
391
100
AcDbEntity
  8
ASSEMBLY_REF_DES_TOP
100
AcDbText
 10
7.266
 20
29.7065
 30
0.0
 40
1.0
  1
C6
  7
GOST_TYPE_B
 72
         1
 11
7.95
 21
30.2
 31
0.0
100
AcDbText
 73
         2
  0
TEXT
  5
392
100
AcDbEntity
  8
ASSEMBLY_REF_DES_TOP
100
AcDbText
 10
104.0475
 20
48.7065
 30
0.0
 40
1.0
  1
X11
  7
GOST_TYPE_B
 72
         1
 11
104.975
 21
49.2
 31
0.0
100
AcDbText
 73
         2
  0
TEXT
  5
393
100
AcDbEntity
  8
ASSEMBLY_REF_DES_TOP
100
AcDbText
 10
8.472
 20
24.0565
 30
0.0
 40
1.0
  1
C12
  7
GOST_TYPE_B
 72
         1
 11
9.4
 21
24.55
 31
0.0
100
AcDbText
 73
         2
  0
TEXT
  5
394
100
AcDbEntity
  8
ASSEMBLY_REF_DES_TOP
100
AcDbText
 10
26.349
 20
17.1
 30
0.0
 40
1.0
  1
X17
  7
GOST_TYPE_B
 72
         2
 11
28.4
 21
17.1
 31
0.0
100
AcDbText
 73
         1
  0
TEXT
  5
395
100
AcDbEntity
  8
ASSEMBLY_REF_DES_TOP
100
AcDbText
 10
3.5735
 20
14.4565
 30
0.0
 40
1.0
  1
C18
  7
GOST_TYPE_B
 72
         1
 11
4.55
 21
14.95
 31
0.0
100
AcDbText
 73
         2
  0
TEXT
  5
396
100
AcDbEntity
  8
ASSEMBLY_REF_DES_TOP
100
AcDbText
 10
-11.134
 20
27.6065
 30
0.0
 40
1.0
  1
C7
  7
GOST_TYPE_B
 72
         1
 11
-10.45
 21
28.1
 31
0.0
100
AcDbText
 73
         2
  0
TEXT
  5
397
100
AcDbEntity
  8
ASSEMBLY_REF_DES_TOP
100
AcDbText
 10
15.5126
 20
29.0719
 30
0.0
 40
1.0
  1
DA5
  7
GOST_TYPE_B
 72
         1
 11
16.6846
 21
29.5654
 31
0.0
100
AcDbText
 73
         2
  0
TEXT
  5
398
100
AcDbEntity
  8
ASSEMBLY_REF_DES_TOP
100
AcDbText
 10
82.425148
 20
52.64304
 30
0.0
 40
1.0
  1
X12
  7
GOST_TYPE_B
 72
         2
 11
84.476148
 21
52.64304
 31
0.0
100
AcDbText
 73
         1
  0
TEXT
  5
399
100
AcDbEntity
  8
ASSEMBLY_REF_DES_TOP
100
AcDbText
 10
0.128
 20
14.1565
 30
0.0
 40
1.0
  1
DA9
  7
GOST_TYPE_B
 72
         1
 11
1.3
 21
14.65
 31
0.0
100
AcDbText
 73
         2
  0
TEXT
  5
39A
100
AcDbEntity
  8
ASSEMBLY_REF_DES_TOP
100
AcDbText
 10
71.487
 20
68.45
 30
0.0
 40
1.0
  1
X7
  7
GOST_TYPE_B
 72
         2
 11
73.05
 21
68.45
 31
0.0
100
AcDbText
 73
         1
  0
TEXT
  5
39B
100
AcDbEntity
  8
ASSEMBLY_REF_DES_TOP
100
AcDbText
 10
59.882725
 20
63.024725
 30
0.0
 40
1.0
  1
ZQ1
  7
GOST_TYPE_B
 72
         2
 11
62.128725
 21
63.024725
 31
0.0
100
AcDbText
 73
         1
  0
TEXT
  5
39C
100
AcDbEntity
  8
ASSEMBLY_REF_DES_TOP
100
AcDbText
 10
16.466
 20
31.9065
 30
0.0
 40
1.0
  1
C5
  7
GOST_TYPE_B
 72
         1
 11
17.15
 21
32.4
 31
0.0
100
AcDbText
 73
         2
  0
TEXT
  5
39D
100
AcDbEntity
  8
ASSEMBLY_REF_DES_TOP
100
AcDbText
 10
41.937
 20
76.45
 30
0.0
 40
1.0
  1
X5
  7
GOST_TYPE_B
 72
         2
 11
43.5
 21
76.45
 31
0.0
100
AcDbText
 73
         1
  0
TEXT
  5
39E
100
AcDbEntity
  8
ASSEMBLY_REF_DES_TOP
100
AcDbText
 10
16.574
 20
14.4565
 30
0.0
 40
1.0
  1
C20
  7
GOST_TYPE_B
 72
         1
 11
17.6
 21
14.95
 31
0.0
100
AcDbText
 73
         2
  0
TEXT
  5
39F
100
AcDbEntity
  8
ASSEMBLY_REF_DES_TOP
100
AcDbText
 10
22.492
 20
10.35
 30
0.0
 40
1.0
  1
J12
  7
GOST_TYPE_B
 72
         2
 11
24.25
 21
10.35
 31
0.0
100
AcDbText
 73
         1
  0
TEXT
  5
3A0
100
AcDbEntity
  8
ASSEMBLY_REF_DES_TOP
100
AcDbText
 10
94.109
 20
52.85
 30
0.0
 40
1.0
  1
X10
  7
GOST_TYPE_B
 72
         2
 11
96.16
 21
52.85
 31
0.0
100
AcDbText
 73
         1
  0
TEXT
  5
3A1
100
AcDbEntity
  8
ASSEMBLY_REF_DES_TOP
100
AcDbText
 10
21.768775
 20
36.720225
 30
0.0
 40
1.0
  1
X14
  7
GOST_TYPE_B
 72
         2
 11
23.916775
 21
36.720225
 31
0.0
100
AcDbText
 73
         1
  0
TEXT
  5
3A2
100
AcDbEntity
  8
ASSEMBLY_REF_DES_TOP
100
AcDbText
 10
95.1795
 20
31.2565
 30
0.0
 40
1.0
  1
DA4
  7
GOST_TYPE_B
 72
         1
 11
96.4
 21
31.75
 31
0.0
100
AcDbText
 73
         2
  0
TEXT
  5
3A3
100
AcDbEntity
  8
ASSEMBLY_REF_DES_TOP
100
AcDbText
 10
-12.872
 20
14.1565
 30
0.0
 40
1.0
  1
DA7
  7
GOST_TYPE_B
 72
         1
 11
-11.7
 21
14.65
 31
0.0
100
AcDbText
 73
         2
  0
TEXT
  5
3A4
100
AcDbEntity
  8
ASSEMBLY_REF_DES_TOP
100
AcDbText
 10
48.8165
 20
80.4065
 30
0.0
 40
1.0
  1
X1
  7
GOST_TYPE_B
 72
         1
 11
49.5
 21
80.9
 31
0.0
100
AcDbText
 73
         2
  0
TEXT
  5
3A5
100
AcDbEntity
  8
ASSEMBLY_REF_DES_TOP
100
AcDbText
 10
-10.684
 20
19.7065
 30
0.0
 40
1.0
  1
L3
  7
GOST_TYPE_B
 72
         1
 11
-10.0
 21
20.2
 31
0.0
100
AcDbText
 73
         2
  0
TEXT
  5
3A6
100
AcDbEntity
  8
ASSEMBLY_REF_DES_TOP
100
AcDbText
 10
15.022
 20
24.0565
 30
0.0
 40
1.0
  1
C13
  7
GOST_TYPE_B
 72
         1
 11
15.95
 21
24.55
 31
0.0
100
AcDbText
 73
         2
  0
TEXT
  5
3A7
100
AcDbEntity
  8
ASSEMBLY_REF_DES_TOP
100
AcDbText
 10
66.756
 20
57.8
 30
0.0
 40
1.0
  1
SW1
  7
GOST_TYPE_B
 72
         2
 11
69.1
 21
57.8
 31
0.0
100
AcDbText
 73
         1
  0
TEXT
  5
3A8
100
AcDbEntity
  8
ASSEMBLY_REF_DES_TOP
100
AcDbText
 10
54.302
 20
11.95
 30
0.0
 40
1.0
  1
X18
  7
GOST_TYPE_B
 72
         2
 11
56.45
 21
11.95
 31
0.0
100
AcDbText
 73
         1
  0
TEXT
  5
3A9
100
AcDbEntity
  8
ASSEMBLY_REF_DES_TOP
100
AcDbText
 10
40.498
 20
17.8065
 30
0.0
 40
1.0
  1
DA6
  7
GOST_TYPE_B
 72
         1
 11
41.67
 21
18.3
 31
0.0
100
AcDbText
 73
         2
  0
TEXT
  5
3AA
100
AcDbEntity
  8
ASSEMBLY_REF_DES_TOP
100
AcDbText
 10
71.233
 20
19.5065
 30
0.0
 40
1.0
  1
DD10
  7
GOST_TYPE_B
 72
         1
 11
72.6
 21
20.0
 31
0.0
100
AcDbText
 73
         2
  0
TEXT
  5
3AB
100
AcDbEntity
  8
ASSEMBLY_REF_DES_TOP
100
AcDbText
 10
2.7235
 20
28.1065
 30
0.0
 40
1.0
  1
HL1
  7
GOST_TYPE_B
 72
         1
 11
3.7
 21
28.6
 31
0.0
100
AcDbText
 73
         2
  0
TEXT
  5
3AC
100
AcDbEntity
  8
ASSEMBLY_REF_DES_TOP
100
AcDbText
 10
53.913
 20
5.6
 30
0.0
 40
1.0
  1
X22
  7
GOST_TYPE_B
 72
         2
 11
56.16
 21
5.6
 31
0.0
100
AcDbText
 73
         1
  0
TEXT
  5
3AD
100
AcDbEntity
  8
ASSEMBLY_REF_DES_TOP
100
AcDbText
 10
6.384
 20
14.1565
 30
0.0
 40
1.0
  1
DA10
  7
GOST_TYPE_B
 72
         1
 11
7.8
 21
14.65
 31
0.0
100
AcDbText
 73
         2
  0
TEXT
  5
3AE
100
AcDbEntity
  8
ASSEMBLY_REF_DES_TOP
100
AcDbText
 10
33.79
 20
76.55
 30
0.0
 40
1.0
  1
X4
  7
GOST_TYPE_B
 72
         2
 11
35.45
 21
76.55
 31
0.0
100
AcDbText
 73
         1
  0
LWPOLYLINE
  5
3AF
100
AcDbEntity
  8
BOARD_OUTLINE
100
AcDbPolyline
 90
        4
 70
         1
 43
0.25
 10
-27.0
 20
0.0
 10
-27.0
 20
84.0
 10
110.5
 20
84.0
 10
110.5
 20
0.0
  0
CIRCLE
  5
3B0
100
AcDbEntity
  8
MOUNTING_HOLES_LAYER_TOP
100
AcDbCircle
 10
89.9
 20
3.05
 30
0.0
 40
2.4
  0
HATCH
  5
3B1
100
AcDbEntity
  8
MOUNTING_HOLES_LAYER_TOP
100
AcDbHatch
 10
0.0
 20
0.0
 30
0.0
210
0.0
220
0.0
230
1.0
  2
SOLID
 70
         1
 71
         1
 91
        1
 92
        1
 93
        1
 72
         2
 10
89.900000000000006
 20
3.0499999999999998
 40
2.3999999999999999
 50
0.0
 51
360.0
 73
         1
 97
        1
330
3B0
 75
         0
 76
         1
 98
        1
 10
0.0
 20
0.0
  0
CIRCLE
  5
3B2
100
AcDbEntity
  8
MOUNTING_HOLES_LAYER_TOP
100
AcDbCircle
 10
-15.85
 20
14.9
 30
0.0
 40
2.4
  0
HATCH
  5
3B3
100
AcDbEntity
  8
MOUNTING_HOLES_LAYER_TOP
100
AcDbHatch
 10
0.0
 20
0.0
 30
0.0
210
0.0
220
0.0
230
1.0
  2
SOLID
 70
         1
 71
         1
 91
        1
 92
        1
 93
        1
 72
         2
 10
-15.85
 20
14.9
 40
2.3999999999999999
 50
0.0
 51
360.0
 73
         1
 97
        1
330
3B2
 75
         0
 76
         1
 98
        1
 10
0.0
 20
0.0
  0
CIRCLE
  5
3B4
100
AcDbEntity
  8
MOUNTING_HOLES_LAYER_TOP
100
AcDbCircle
 10
27.5
 20
71.85
 30
0.0
 40
2.4
  0
HATCH
  5
3B5
100
AcDbEntity
  8
MOUNTING_HOLES_LAYER_TOP
100
AcDbHatch
 10
0.0
 20
0.0
 30
0.0
210
0.0
220
0.0
230
1.0
  2
SOLID
 70
         1
 71
         1
 91
        1
 92
        1
 93
        1
 72
         2
 10
27.5
 20
71.849999999999994
 40
2.3999999999999999
 50
0.0
 51
360.0
 73
         1
 97
        1
330
3B4
 75
         0
 76
         1
 98
        1
 10
0.0
 20
0.0
  0
CIRCLE
  5
3B6
100
AcDbEntity
  8
MOUNTING_HOLES_LAYER_TOP
100
AcDbCircle
 10
107.3
 20
80.8
 30
0.0
 40
2.4
  0
HATCH
  5
3B7
100
AcDbEntity
  8
MOUNTING_HOLES_LAYER_TOP
100
AcDbHatch
 10
0.0
 20
0.0
 30
0.0
210
0.0
220
0.0
230
1.0
  2
SOLID
 70
         1
 71
         1
 91
        1
 92
        1
 93
        1
 72
         2
 10
107.3
 20
80.799999999999997
 40
2.3999999999999999
 50
0.0
 51
360.0
 73
         1
 97
        1
330
3B6
 75
         0
 76
         1
 98
        1
 10
0.0
 20
0.0
  0
CIRCLE
  5
3B8
100
AcDbEntity
  8
MOUNTING_HOLES_LAYER_TOP
100
AcDbCircle
 10
-23.8
 20
80.8
 30
0.0
 40
2.4
  0
HATCH
  5
3B9
100
AcDbEntity
  8
MOUNTING_HOLES_LAYER_TOP
100
AcDbHatch
 10
0.0
 20
0.0
 30
0.0
210
0.0
220
0.0
230
1.0
  2
SOLID
 70
         1
 71
         1
 91
        1
 92
        1
 93
        1
 72
         2
 10
-23.800000000000001
 20
80.799999999999997
 40
2.3999999999999999
 50
0.0
 51
360.0
 73
         1
 97
        1
330
3B8
 75
         0
 76
         1
 98
        1
 10
0.0
 20
0.0
  0
CIRCLE
  5
3BA
100
AcDbEntity
  8
MOUNTING_HOLES_LAYER_TOP
100
AcDbCircle
 10
82.9
 20
57.75
 30
0.0
 40
0.75
  0
HATCH
  5
3BB
100
AcDbEntity
  8
MOUNTING_HOLES_LAYER_TOP
100
AcDbHatch
 10
0.0
 20
0.0
 30
0.0
210
0.0
220
0.0
230
1.0
  2
SOLID
 70
         1
 71
         1
 91
        1
 92
        1
 93
        1
 72
         2
 10
82.900000000000006
 20
57.75
 40
0.75
 50
0.0
 51
360.0
 73
         1
 97
        1
330
3BA
 75
         0
 76
         1
 98
        1
 10
0.0
 20
0.0
  0
CIRCLE
  5
3BC
100
AcDbEntity
  8
MOUNTING_HOLES_LAYER_TOP
100
AcDbCircle
 10
72.9
 20
57.75
 30
0.0
 40
0.75
  0
HATCH
  5
3BD
100
AcDbEntity
  8
MOUNTING_HOLES_LAYER_TOP
100
AcDbHatch
 10
0.0
 20
0.0
 30
0.0
210
0.0
220
0.0
230
1.0
  2
SOLID
 70
         1
 71
         1
 91
        1
 92
        1
 93
        1
 72
         2
 10
72.900000000000006
 20
57.75
 40
0.75
 50
0.0
 51
360.0
 73
         1
 97
        1
330
3BC
 75
         0
 76
         1
 98
        1
 10
0.0
 20
0.0
  0
CIRCLE
  5
3BE
100
AcDbEntity
  8
MOUNTING_HOLES_LAYER_TOP
100
AcDbCircle
 10
41.4
 20
9.5
 30
0.0
 40
0.75
  0
HATCH
  5
3BF
100
AcDbEntity
  8
MOUNTING_HOLES_LAYER_TOP
100
AcDbHatch
 10
0.0
 20
0.0
 30
0.0
210
0.0
220
0.0
230
1.0
  2
SOLID
 70
         1
 71
         1
 91
        1
 92
        1
 93
        1
 72
         2
 10
41.399999999999999
 20
9.5
 40
0.75
 50
0.0
 51
360.0
 73
         1
 97
        1
330
3BE
 75
         0
 76
         1
 98
        1
 10
0.0
 20
0.0
  0
CIRCLE
  5
3C0
100
AcDbEntity
  8
MOUNTING_HOLES_LAYER_TOP
100
AcDbCircle
 10
31.4
 20
9.5
 30
0.0
 40
0.75
  0
HATCH
  5
3C1
100
AcDbEntity
  8
MOUNTING_HOLES_LAYER_TOP
100
AcDbHatch
 10
0.0
 20
0.0
 30
0.0
210
0.0
220
0.0
230
1.0
  2
SOLID
 70
         1
 71
         1
 91
        1
 92
        1
 93
        1
 72
         2
 10
31.399999999999999
 20
9.5
 40
0.75
 50
0.0
 51
360.0
 73
         1
 97
        1
330
3C0
 75
         0
 76
         1
 98
        1
 10
0.0
 20
0.0
  0
CIRCLE
  5
3C2
100
AcDbEntity
  8
MOUNTING_HOLES_LAYER_TOP
100
AcDbCircle
 10
77.0
 20
65.8
 30
0.0
 40
0.75
  0
HATCH
  5
3C3
100
AcDbEntity
  8
MOUNTING_HOLES_LAYER_TOP
100
AcDbHatch
 10
0.0
 20
0.0
 30
0.0
210
0.0
220
0.0
230
1.0
  2
SOLID
 70
         1
 71
         1
 91
        1
 92
        1
 93
        1
 72
         2
 10
77.0
 20
65.799999999999997
 40
0.75
 50
0.0
 51
360.0
 73
         1
 97
        1
330
3C2
 75
         0
 76
         1
 98
        1
 10
0.0
 20
0.0
  0
CIRCLE
  5
3C4
100
AcDbEntity
  8
MOUNTING_HOLES_LAYER_TOP
100
AcDbCircle
 10
84.5
 20
65.8
 30
0.0
 40
0.75
  0
HATCH
  5
3C5
100
AcDbEntity
  8
MOUNTING_HOLES_LAYER_TOP
100
AcDbHatch
 10
0.0
 20
0.0
 30
0.0
210
0.0
220
0.0
230
1.0
  2
SOLID
 70
         1
 71
         1
 91
        1
 92
        1
 93
        1
 72
         2
 10
84.5
 20
65.799999999999997
 40
0.75
 50
0.0
 51
360.0
 73
         1
 97
        1
330
3C4
 75
         0
 76
         1
 98
        1
 10
0.0
 20
0.0
  0
CIRCLE
  5
3C6
100
AcDbEntity
  8
MOUNTING_HOLES_LAYER_TOP
100
AcDbCircle
 10
26.76
 20
79.35
 30
0.0
 40
0.9
  0
HATCH
  5
3C7
100
AcDbEntity
  8
MOUNTING_HOLES_LAYER_TOP
100
AcDbHatch
 10
0.0
 20
0.0
 30
0.0
210
0.0
220
0.0
230
1.0
  2
SOLID
 70
         1
 71
         1
 91
        1
 92
        1
 93
        1
 72
         2
 10
26.760000000000002
 20
79.349999999999994
 40
0.9
 50
0.0
 51
360.0
 73
         1
 97
        1
330
3C6
 75
         0
 76
         1
 98
        1
 10
0.0
 20
0.0
  0
CIRCLE
  5
3C8
100
AcDbEntity
  8
MOUNTING_HOLES_LAYER_TOP
100
AcDbCircle
 10
-18.96
 20
79.35
 30
0.0
 40
0.9
  0
HATCH
  5
3C9
100
AcDbEntity
  8
MOUNTING_HOLES_LAYER_TOP
100
AcDbHatch
 10
0.0
 20
0.0
 30
0.0
210
0.0
220
0.0
230
1.0
  2
SOLID
 70
         1
 71
         1
 91
        1
 92
        1
 93
        1
 72
         2
 10
-18.960000000000001
 20
79.349999999999994
 40
0.9
 50
0.0
 51
360.0
 73
         1
 97
        1
330
3C8
 75
         0
 76
         1
 98
        1
 10
0.0
 20
0.0
  0
CIRCLE
  5
3CA
100
AcDbEntity
  8
MOUNTING_HOLES_LAYER_TOP
100
AcDbCircle
 10
-22.5
 20
61.41
 30
0.0
 40
0.9
  0
HATCH
  5
3CB
100
AcDbEntity
  8
MOUNTING_HOLES_LAYER_TOP
100
AcDbHatch
 10
0.0
 20
0.0
 30
0.0
210
0.0
220
0.0
230
1.0
  2
SOLID
 70
         1
 71
         1
 91
        1
 92
        1
 93
        1
 72
         2
 10
-22.5
 20
61.409999999999997
 40
0.9
 50
0.0
 51
360.0
 73
         1
 97
        1
330
3CA
 75
         0
 76
         1
 98
        1
 10
0.0
 20
0.0
  0
CIRCLE
  5
3CC
100
AcDbEntity
  8
MOUNTING_HOLES_LAYER_TOP
100
AcDbCircle
 10
-22.5
 20
15.69
 30
0.0
 40
0.9
  0
HATCH
  5
3CD
100
AcDbEntity
  8
MOUNTING_HOLES_LAYER_TOP
100
AcDbHatch
 10
0.0
 20
0.0
 30
0.0
210
0.0
220
0.0
230
1.0
  2
SOLID
 70
         1
 71
         1
 91
        1
 92
        1
 93
        1
 72
         2
 10
-22.5
 20
15.69
 40
0.9
 50
0.0
 51
360.0
 73
         1
 97
        1
330
3CC
 75
         0
 76
         1
 98
        1
 10
0.0
 20
0.0
  0
CIRCLE
  5
3CE
100
AcDbEntity
  8
MOUNTING_HOLES_LAYER_TOP
100
AcDbCircle
 10
22.31
 20
69.3
 30
0.0
 40
0.9
  0
HATCH
  5
3CF
100
AcDbEntity
  8
MOUNTING_HOLES_LAYER_TOP
100
AcDbHatch
 10
0.0
 20
0.0
 30
0.0
210
0.0
220
0.0
230
1.0
  2
SOLID
 70
         1
 71
         1
 91
        1
 92
        1
 93
        1
 72
         2
 10
22.309999999999999
 20
69.299999999999997
 40
0.9
 50
0.0
 51
360.0
 73
         1
 97
        1
330
3CE
 75
         0
 76
         1
 98
        1
 10
0.0
 20
0.0
  0
CIRCLE
  5
3D0
100
AcDbEntity
  8
MOUNTING_HOLES_LAYER_TOP
100
AcDbCircle
 10
-23.41
 20
69.3
 30
0.0
 40
0.9
  0
HATCH
  5
3D1
100
AcDbEntity
  8
MOUNTING_HOLES_LAYER_TOP
100
AcDbHatch
 10
0.0
 20
0.0
 30
0.0
210
0.0
220
0.0
230
1.0
  2
SOLID
 70
         1
 71
         1
 91
        1
 92
        1
 93
        1
 72
         2
 10
-23.41
 20
69.299999999999997
 40
0.9
 50
0.0
 51
360.0
 73
         1
 97
        1
330
3D0
 75
         0
 76
         1
 98
        1
 10
0.0
 20
0.0
  0
CIRCLE
  5
3D2
100
AcDbEntity
  8
MOUNTING_HOLES_LAYER_TOP
100
AcDbCircle
 10
55.67
 20
79.45
 30
0.0
 40
0.9
  0
HATCH
  5
3D3
100
AcDbEntity
  8
MOUNTING_HOLES_LAYER_TOP
100
AcDbHatch
 10
0.0
 20
0.0
 30
0.0
210
0.0
220
0.0
230
1.0
  2
SOLID
 70
         1
 71
         1
 91
        1
 92
        1
 93
        1
 72
         2
 10
55.670000000000002
 20
79.450000000000003
 40
0.9
 50
0.0
 51
360.0
 73
         1
 97
        1
330
3D2
 75
         0
 76
         1
 98
        1
 10
0.0
 20
0.0
  0
CIRCLE
  5
3D4
100
AcDbEntity
  8
MOUNTING_HOLES_LAYER_TOP
100
AcDbCircle
 10
101.39
 20
79.45
 30
0.0
 40
0.9
  0
HATCH
  5
3D5
100
AcDbEntity
  8
MOUNTING_HOLES_LAYER_TOP
100
AcDbHatch
 10
0.0
 20
0.0
 30
0.0
210
0.0
220
0.0
230
1.0
  2
SOLID
 70
         1
 71
         1
 91
        1
 92
        1
 93
        1
 72
         2
 10
101.39
 20
79.450000000000003
 40
0.9
 50
0.0
 51
360.0
 73
         1
 97
        1
330
3D4
 75
         0
 76
         1
 98
        1
 10
0.0
 20
0.0
  0
CIRCLE
  5
3D6
100
AcDbEntity
  8
MOUNTING_HOLES_LAYER_TOP
100
AcDbCircle
 10
104.9
 20
26.31
 30
0.0
 40
0.9
  0
HATCH
  5
3D7
100
AcDbEntity
  8
MOUNTING_HOLES_LAYER_TOP
100
AcDbHatch
 10
0.0
 20
0.0
 30
0.0
210
0.0
220
0.0
230
1.0
  2
SOLID
 70
         1
 71
         1
 91
        1
 92
        1
 93
        1
 72
         2
 10
104.90000000000001
 20
26.309999999999999
 40
0.9
 50
0.0
 51
360.0
 73
         1
 97
        1
330
3D6
 75
         0
 76
         1
 98
        1
 10
0.0
 20
0.0
  0
CIRCLE
  5
3D8
100
AcDbEntity
  8
MOUNTING_HOLES_LAYER_TOP
100
AcDbCircle
 10
104.9
 20
72.03
 30
0.0
 40
0.9
  0
HATCH
  5
3D9
100
AcDbEntity
  8
MOUNTING_HOLES_LAYER_TOP
100
AcDbHatch
 10
0.0
 20
0.0
 30
0.0
210
0.0
220
0.0
230
1.0
  2
SOLID
 70
         1
 71
         1
 91
        1
 92
        1
 93
        1
 72
         2
 10
104.90000000000001
 20
72.030000000000001
 40
0.9
 50
0.0
 51
360.0
 73
         1
 97
        1
330
3D8
 75
         0
 76
         1
 98
        1
 10
0.0
 20
0.0
  0
CIRCLE
  5
3DA
100
AcDbEntity
  8
MOUNTING_HOLES_LAYER_TOP
100
AcDbCircle
 10
84.2
 20
49.98
 30
0.0
 40
0.75
  0
HATCH
  5
3DB
100
AcDbEntity
  8
MOUNTING_HOLES_LAYER_TOP
100
AcDbHatch
 10
0.0
 20
0.0
 30
0.0
210
0.0
220
0.0
230
1.0
  2
SOLID
 70
         1
 71
         1
 91
        1
 92
        1
 93
        1
 72
         2
 10
84.200000000000003
 20
49.979999999999997
 40
0.75
 50
0.0
 51
360.0
 73
         1
 97
        1
330
3DA
 75
         0
 76
         1
 98
        1
 10
0.0
 20
0.0
  0
CIRCLE
  5
3DC
100
AcDbEntity
  8
MOUNTING_HOLES_LAYER_TOP
100
AcDbCircle
 10
84.2
 20
37.02
 30
0.0
 40
0.75
  0
HATCH
  5
3DD
100
AcDbEntity
  8
MOUNTING_HOLES_LAYER_TOP
100
AcDbHatch
 10
0.0
 20
0.0
 30
0.0
210
0.0
220
0.0
230
1.0
  2
SOLID
 70
         1
 71
         1
 91
        1
 92
        1
 93
        1
 72
         2
 10
84.200000000000003
 20
37.020000000000003
 40
0.75
 50
0.0
 51
360.0
 73
         1
 97
        1
330
3DC
 75
         0
 76
         1
 98
        1
 10
0.0
 20
0.0
  0
CIRCLE
  5
3DE
100
AcDbEntity
  8
PART_HOLES_LAYER_TOP
100
AcDbCircle
 10
22.3
 20
57.65
 30
0.0
 40
0.45
  0
HATCH
  5
3DF
100
AcDbEntity
  8
PART_HOLES_LAYER_TOP
100
AcDbHatch
 10
0.0
 20
0.0
 30
0.0
210
0.0
220
0.0
230
1.0
  2
SOLID
 70
         1
 71
         1
 91
        1
 92
        1
 93
        1
 72
         2
 10
22.300000000000001
 20
57.649999999999999
 40
0.45
 50
0.0
 51
360.0
 73
         1
 97
        1
330
3DE
 75
         0
 76
         1
 98
        1
 10
0.0
 20
0.0
  0
CIRCLE
  5
3E0
100
AcDbEntity
  8
PART_HOLES_LAYER_TOP
100
AcDbCircle
 10
22.3
 20
60.19
 30
0.0
 40
0.45
  0
HATCH
  5
3E1
100
AcDbEntity
  8
PART_HOLES_LAYER_TOP
100
AcDbHatch
 10
0.0
 20
0.0
 30
0.0
210
0.0
220
0.0
230
1.0
  2
SOLID
 70
         1
 71
         1
 91
        1
 92
        1
 93
        1
 72
         2
 10
22.300000000000001
 20
60.189999999999998
 40
0.45
 50
0.0
 51
360.0
 73
         1
 97
        1
330
3E0
 75
         0
 76
         1
 98
        1
 10
0.0
 20
0.0
  0
CIRCLE
  5
3E2
100
AcDbEntity
  8
PART_HOLES_LAYER_TOP
100
AcDbCircle
 10
24.84
 20
57.65
 30
0.0
 40
0.45
  0
HATCH
  5
3E3
100
AcDbEntity
  8
PART_HOLES_LAYER_TOP
100
AcDbHatch
 10
0.0
 20
0.0
 30
0.0
210
0.0
220
0.0
230
1.0
  2
SOLID
 70
         1
 71
         1
 91
        1
 92
        1
 93
        1
 72
         2
 10
24.84
 20
57.649999999999999
 40
0.45
 50
0.0
 51
360.0
 73
         1
 97
        1
330
3E2
 75
         0
 76
         1
 98
        1
 10
0.0
 20
0.0
  0
CIRCLE
  5
3E4
100
AcDbEntity
  8
PART_HOLES_LAYER_TOP
100
AcDbCircle
 10
24.84
 20
60.19
 30
0.0
 40
0.45
  0
HATCH
  5
3E5
100
AcDbEntity
  8
PART_HOLES_LAYER_TOP
100
AcDbHatch
 10
0.0
 20
0.0
 30
0.0
210
0.0
220
0.0
230
1.0
  2
SOLID
 70
         1
 71
         1
 91
        1
 92
        1
 93
        1
 72
         2
 10
24.84
 20
60.189999999999998
 40
0.45
 50
0.0
 51
360.0
 73
         1
 97
        1
330
3E4
 75
         0
 76
         1
 98
        1
 10
0.0
 20
0.0
  0
CIRCLE
  5
3E6
100
AcDbEntity
  8
PART_HOLES_LAYER_TOP
100
AcDbCircle
 10
27.38
 20
60.19
 30
0.0
 40
0.45
  0
HATCH
  5
3E7
100
AcDbEntity
  8
PART_HOLES_LAYER_TOP
100
AcDbHatch
 10
0.0
 20
0.0
 30
0.0
210
0.0
220
0.0
230
1.0
  2
SOLID
 70
         1
 71
         1
 91
        1
 92
        1
 93
        1
 72
         2
 10
27.379999999999999
 20
60.189999999999998
 40
0.45
 50
0.0
 51
360.0
 73
         1
 97
        1
330
3E6
 75
         0
 76
         1
 98
        1
 10
0.0
 20
0.0
  0
CIRCLE
  5
3E8
100
AcDbEntity
  8
PART_HOLES_LAYER_TOP
100
AcDbCircle
 10
29.92
 20
60.19
 30
0.0
 40
0.45
  0
HATCH
  5
3E9
100
AcDbEntity
  8
PART_HOLES_LAYER_TOP
100
AcDbHatch
 10
0.0
 20
0.0
 30
0.0
210
0.0
220
0.0
230
1.0
  2
SOLID
 70
         1
 71
         1
 91
        1
 92
        1
 93
        1
 72
         2
 10
29.920000000000002
 20
60.189999999999998
 40
0.45
 50
0.0
 51
360.0
 73
         1
 97
        1
330
3E8
 75
         0
 76
         1
 98
        1
 10
0.0
 20
0.0
  0
CIRCLE
  5
3EA
100
AcDbEntity
  8
PART_HOLES_LAYER_TOP
100
AcDbCircle
 10
32.46
 20
60.19
 30
0.0
 40
0.45
  0
HATCH
  5
3EB
100
AcDbEntity
  8
PART_HOLES_LAYER_TOP
100
AcDbHatch
 10
0.0
 20
0.0
 30
0.0
210
0.0
220
0.0
230
1.0
  2
SOLID
 70
         1
 71
         1
 91
        1
 92
        1
 93
        1
 72
         2
 10
32.460000000000001
 20
60.189999999999998
 40
0.45
 50
0.0
 51
360.0
 73
         1
 97
        1
330
3EA
 75
         0
 76
         1
 98
        1
 10
0.0
 20
0.0
  0
CIRCLE
  5
3EC
100
AcDbEntity
  8
PART_HOLES_LAYER_TOP
100
AcDbCircle
 10
35.0
 20
60.19
 30
0.0
 40
0.45
  0
HATCH
  5
3ED
100
AcDbEntity
  8
PART_HOLES_LAYER_TOP
100
AcDbHatch
 10
0.0
 20
0.0
 30
0.0
210
0.0
220
0.0
230
1.0
  2
SOLID
 70
         1
 71
         1
 91
        1
 92
        1
 93
        1
 72
         2
 10
35.0
 20
60.189999999999998
 40
0.45
 50
0.0
 51
360.0
 73
         1
 97
        1
330
3EC
 75
         0
 76
         1
 98
        1
 10
0.0
 20
0.0
  0
CIRCLE
  5
3EE
100
AcDbEntity
  8
PART_HOLES_LAYER_TOP
100
AcDbCircle
 10
37.54
 20
57.65
 30
0.0
 40
0.45
  0
HATCH
  5
3EF
100
AcDbEntity
  8
PART_HOLES_LAYER_TOP
100
AcDbHatch
 10
0.0
 20
0.0
 30
0.0
210
0.0
220
0.0
230
1.0
  2
SOLID
 70
         1
 71
         1
 91
        1
 92
        1
 93
        1
 72
         2
 10
37.539999999999999
 20
57.649999999999999
 40
0.45
 50
0.0
 51
360.0
 73
         1
 97
        1
330
3EE
 75
         0
 76
         1
 98
        1
 10
0.0
 20
0.0
  0
CIRCLE
  5
3F0
100
AcDbEntity
  8
PART_HOLES_LAYER_TOP
100
AcDbCircle
 10
37.54
 20
60.19
 30
0.0
 40
0.45
  0
HATCH
  5
3F1
100
AcDbEntity
  8
PART_HOLES_LAYER_TOP
100
AcDbHatch
 10
0.0
 20
0.0
 30
0.0
210
0.0
220
0.0
230
1.0
  2
SOLID
 70
         1
 71
         1
 91
        1
 92
        1
 93
        1
 72
         2
 10
37.539999999999999
 20
60.189999999999998
 40
0.45
 50
0.0
 51
360.0
 73
         1
 97
        1
330
3F0
 75
         0
 76
         1
 98
        1
 10
0.0
 20
0.0
  0
CIRCLE
  5
3F2
100
AcDbEntity
  8
PART_HOLES_LAYER_TOP
100
AcDbCircle
 10
32.46
 20
57.65
 30
0.0
 40
0.45
  0
HATCH
  5
3F3
100
AcDbEntity
  8
PART_HOLES_LAYER_TOP
100
AcDbHatch
 10
0.0
 20
0.0
 30
0.0
210
0.0
220
0.0
230
1.0
  2
SOLID
 70
         1
 71
         1
 91
        1
 92
        1
 93
        1
 72
         2
 10
32.460000000000001
 20
57.649999999999999
 40
0.45
 50
0.0
 51
360.0
 73
         1
 97
        1
330
3F2
 75
         0
 76
         1
 98
        1
 10
0.0
 20
0.0
  0
CIRCLE
  5
3F4
100
AcDbEntity
  8
PART_HOLES_LAYER_TOP
100
AcDbCircle
 10
27.38
 20
57.65
 30
0.0
 40
0.45
  0
HATCH
  5
3F5
100
AcDbEntity
  8
PART_HOLES_LAYER_TOP
100
AcDbHatch
 10
0.0
 20
0.0
 30
0.0
210
0.0
220
0.0
230
1.0
  2
SOLID
 70
         1
 71
         1
 91
        1
 92
        1
 93
        1
 72
         2
 10
27.379999999999999
 20
57.649999999999999
 40
0.45
 50
0.0
 51
360.0
 73
         1
 97
        1
330
3F4
 75
         0
 76
         1
 98
        1
 10
0.0
 20
0.0
  0
CIRCLE
  5
3F6
100
AcDbEntity
  8
PART_HOLES_LAYER_TOP
100
AcDbCircle
 10
29.92
 20
57.65
 30
0.0
 40
0.45
  0
HATCH
  5
3F7
100
AcDbEntity
  8
PART_HOLES_LAYER_TOP
100
AcDbHatch
 10
0.0
 20
0.0
 30
0.0
210
0.0
220
0.0
230
1.0
  2
SOLID
 70
         1
 71
         1
 91
        1
 92
        1
 93
        1
 72
         2
 10
29.920000000000002
 20
57.649999999999999
 40
0.45
 50
0.0
 51
360.0
 73
         1
 97
        1
330
3F6
 75
         0
 76
         1
 98
        1
 10
0.0
 20
0.0
  0
CIRCLE
  5
3F8
100
AcDbEntity
  8
PART_HOLES_LAYER_TOP
100
AcDbCircle
 10
35.0
 20
57.65
 30
0.0
 40
0.45
  0
HATCH
  5
3F9
100
AcDbEntity
  8
PART_HOLES_LAYER_TOP
100
AcDbHatch
 10
0.0
 20
0.0
 30
0.0
210
0.0
220
0.0
230
1.0
  2
SOLID
 70
         1
 71
         1
 91
        1
 92
        1
 93
        1
 72
         2
 10
35.0
 20
57.649999999999999
 40
0.45
 50
0.0
 51
360.0
 73
         1
 97
        1
330
3F8
 75
         0
 76
         1
 98
        1
 10
0.0
 20
0.0
  0
CIRCLE
  5
3FA
100
AcDbEntity
  8
PART_HOLES_LAYER_TOP
100
AcDbCircle
 10
56.7
 20
66.7
 30
0.0
 40
0.45
  0
HATCH
  5
3FB
100
AcDbEntity
  8
PART_HOLES_LAYER_TOP
100
AcDbHatch
 10
0.0
 20
0.0
 30
0.0
210
0.0
220
0.0
230
1.0
  2
SOLID
 70
         1
 71
         1
 91
        1
 92
        1
 93
        1
 72
         2
 10
56.700000000000003
 20
66.700000000000003
 40
0.45
 50
0.0
 51
360.0
 73
         1
 97
        1
330
3FA
 75
         0
 76
         1
 98
        1
 10
0.0
 20
0.0
  0
CIRCLE
  5
3FC
100
AcDbEntity
  8
PART_HOLES_LAYER_TOP
100
AcDbCircle
 10
56.7
 20
69.24
 30
0.0
 40
0.45
  0
HATCH
  5
3FD
100
AcDbEntity
  8
PART_HOLES_LAYER_TOP
100
AcDbHatch
 10
0.0
 20
0.0
 30
0.0
210
0.0
220
0.0
230
1.0
  2
SOLID
 70
         1
 71
         1
 91
        1
 92
        1
 93
        1
 72
         2
 10
56.700000000000003
 20
69.239999999999995
 40
0.45
 50
0.0
 51
360.0
 73
         1
 97
        1
330
3FC
 75
         0
 76
         1
 98
        1
 10
0.0
 20
0.0
  0
CIRCLE
  5
3FE
100
AcDbEntity
  8
PART_HOLES_LAYER_TOP
100
AcDbCircle
 10
56.7
 20
71.78
 30
0.0
 40
0.45
  0
HATCH
  5
3FF
100
AcDbEntity
  8
PART_HOLES_LAYER_TOP
100
AcDbHatch
 10
0.0
 20
0.0
 30
0.0
210
0.0
220
0.0
230
1.0
  2
SOLID
 70
         1
 71
         1
 91
        1
 92
        1
 93
        1
 72
         2
 10
56.700000000000003
 20
71.780000000000001
 40
0.45
 50
0.0
 51
360.0
 73
         1
 97
        1
330
3FE
 75
         0
 76
         1
 98
        1
 10
0.0
 20
0.0
  0
CIRCLE
  5
400
100
AcDbEntity
  8
PART_HOLES_LAYER_TOP
100
AcDbCircle
 10
49.26
 20
58.95
 30
0.0
 40
0.45
  0
HATCH
  5
401
100
AcDbEntity
  8
PART_HOLES_LAYER_TOP
100
AcDbHatch
 10
0.0
 20
0.0
 30
0.0
210
0.0
220
0.0
230
1.0
  2
SOLID
 70
         1
 71
         1
 91
        1
 92
        1
 93
        1
 72
         2
 10
49.259999999999998
 20
58.950000000000003
 40
0.45
 50
0.0
 51
360.0
 73
         1
 97
        1
330
400
 75
         0
 76
         1
 98
        1
 10
0.0
 20
0.0
  0
CIRCLE
  5
402
100
AcDbEntity
  8
PART_HOLES_LAYER_TOP
100
AcDbCircle
 10
54.14
 20
58.95
 30
0.0
 40
0.45
  0
HATCH
  5
403
100
AcDbEntity
  8
PART_HOLES_LAYER_TOP
100
AcDbHatch
 10
0.0
 20
0.0
 30
0.0
210
0.0
220
0.0
230
1.0
  2
SOLID
 70
         1
 71
         1
 91
        1
 92
        1
 93
        1
 72
         2
 10
54.140000000000001
 20
58.950000000000003
 40
0.45
 50
0.0
 51
360.0
 73
         1
 97
        1
330
402
 75
         0
 76
         1
 98
        1
 10
0.0
 20
0.0
  0
CIRCLE
  5
404
100
AcDbEntity
  8
PART_HOLES_LAYER_TOP
100
AcDbCircle
 10
-6.53
 20
10.96
 30
0.0
 40
0.6
  0
HATCH
  5
405
100
AcDbEntity
  8
PART_HOLES_LAYER_TOP
100
AcDbHatch
 10
0.0
 20
0.0
 30
0.0
210
0.0
220
0.0
230
1.0
  2
SOLID
 70
         1
 71
         1
 91
        1
 92
        1
 93
        1
 72
         2
 10
-6.5300000000000002
 20
10.960000000000001
 40
0.6
 50
0.0
 51
360.0
 73
         1
 97
        1
330
404
 75
         0
 76
         1
 98
        1
 10
0.0
 20
0.0
  0
CIRCLE
  5
406
100
AcDbEntity
  8
PART_HOLES_LAYER_TOP
100
AcDbCircle
 10
1.78
 20
10.96
 30
0.0
 40
0.6
  0
HATCH
  5
407
100
AcDbEntity
  8
PART_HOLES_LAYER_TOP
100
AcDbHatch
 10
0.0
 20
0.0
 30
0.0
210
0.0
220
0.0
230
1.0
  2
SOLID
 70
         1
 71
         1
 91
        1
 92
        1
 93
        1
 72
         2
 10
1.78
 20
10.960000000000001
 40
0.6
 50
0.0
 51
360.0
 73
         1
 97
        1
330
406
 75
         0
 76
         1
 98
        1
 10
0.0
 20
0.0
  0
CIRCLE
  5
408
100
AcDbEntity
  8
PART_HOLES_LAYER_TOP
100
AcDbCircle
 10
4.55
 20
10.96
 30
0.0
 40
0.6
  0
HATCH
  5
409
100
AcDbEntity
  8
PART_HOLES_LAYER_TOP
100
AcDbHatch
 10
0.0
 20
0.0
 30
0.0
210
0.0
220
0.0
230
1.0
  2
SOLID
 70
         1
 71
         1
 91
        1
 92
        1
 93
        1
 72
         2
 10
4.5499999999999998
 20
10.960000000000001
 40
0.6
 50
0.0
 51
360.0
 73
         1
 97
        1
330
408
 75
         0
 76
         1
 98
        1
 10
0.0
 20
0.0
  0
CIRCLE
  5
40A
100
AcDbEntity
  8
PART_HOLES_LAYER_TOP
100
AcDbCircle
 10
-5.145
 20
8.12
 30
0.0
 40
0.6
  0
HATCH
  5
40B
100
AcDbEntity
  8
PART_HOLES_LAYER_TOP
100
AcDbHatch
 10
0.0
 20
0.0
 30
0.0
210
0.0
220
0.0
230
1.0
  2
SOLID
 70
         1
 71
         1
 91
        1
 92
        1
 93
        1
 72
         2
 10
-5.1449999999999996
 20
8.1199999999999992
 40
0.6
 50
0.0
 51
360.0
 73
         1
 97
        1
330
40A
 75
         0
 76
         1
 98
        1
 10
0.0
 20
0.0
  0
CIRCLE
  5
40C
100
AcDbEntity
  8
PART_HOLES_LAYER_TOP
100
AcDbCircle
 10
-2.375
 20
8.12
 30
0.0
 40
0.6
  0
HATCH
  5
40D
100
AcDbEntity
  8
PART_HOLES_LAYER_TOP
100
AcDbHatch
 10
0.0
 20
0.0
 30
0.0
210
0.0
220
0.0
230
1.0
  2
SOLID
 70
         1
 71
         1
 91
        1
 92
        1
 93
        1
 72
         2
 10
-2.375
 20
8.1199999999999992
 40
0.6
 50
0.0
 51
360.0
 73
         1
 97
        1
330
40C
 75
         0
 76
         1
 98
        1
 10
0.0
 20
0.0
  0
CIRCLE
  5
40E
100
AcDbEntity
  8
PART_HOLES_LAYER_TOP
100
AcDbCircle
 10
0.395
 20
8.12
 30
0.0
 40
0.6
  0
HATCH
  5
40F
100
AcDbEntity
  8
PART_HOLES_LAYER_TOP
100
AcDbHatch
 10
0.0
 20
0.0
 30
0.0
210
0.0
220
0.0
230
1.0
  2
SOLID
 70
         1
 71
         1
 91
        1
 92
        1
 93
        1
 72
         2
 10
0.395
 20
8.1199999999999992
 40
0.6
 50
0.0
 51
360.0
 73
         1
 97
        1
330
40E
 75
         0
 76
         1
 98
        1
 10
0.0
 20
0.0
  0
CIRCLE
  5
410
100
AcDbEntity
  8
PART_HOLES_LAYER_TOP
100
AcDbCircle
 10
3.165
 20
8.12
 30
0.0
 40
0.6
  0
HATCH
  5
411
100
AcDbEntity
  8
PART_HOLES_LAYER_TOP
100
AcDbHatch
 10
0.0
 20
0.0
 30
0.0
210
0.0
220
0.0
230
1.0
  2
SOLID
 70
         1
 71
         1
 91
        1
 92
        1
 93
        1
 72
         2
 10
3.165
 20
8.1199999999999992
 40
0.6
 50
0.0
 51
360.0
 73
         1
 97
        1
330
410
 75
         0
 76
         1
 98
        1
 10
0.0
 20
0.0
  0
CIRCLE
  5
412
100
AcDbEntity
  8
PART_HOLES_LAYER_TOP
100
AcDbCircle
 10
11.51
 20
9.54
 30
0.0
 40
1.5
  0
HATCH
  5
413
100
AcDbEntity
  8
PART_HOLES_LAYER_TOP
100
AcDbHatch
 10
0.0
 20
0.0
 30
0.0
210
0.0
220
0.0
230
1.0
  2
SOLID
 70
         1
 71
         1
 91
        1
 92
        1
 93
        1
 72
         2
 10
11.51
 20
9.5399999999999991
 40
1.5
 50
0.0
 51
360.0
 73
         1
 97
        1
330
412
 75
         0
 76
         1
 98
        1
 10
0.0
 20
0.0
  0
CIRCLE
  5
414
100
AcDbEntity
  8
PART_HOLES_LAYER_TOP
100
AcDbCircle
 10
-13.49
 20
9.54
 30
0.0
 40
1.5
  0
HATCH
  5
415
100
AcDbEntity
  8
PART_HOLES_LAYER_TOP
100
AcDbHatch
 10
0.0
 20
0.0
 30
0.0
210
0.0
220
0.0
230
1.0
  2
SOLID
 70
         1
 71
         1
 91
        1
 92
        1
 93
        1
 72
         2
 10
-13.49
 20
9.5399999999999991
 40
1.5
 50
0.0
 51
360.0
 73
         1
 97
        1
330
414
 75
         0
 76
         1
 98
        1
 10
0.0
 20
0.0
  0
CIRCLE
  5
416
100
AcDbEntity
  8
PART_HOLES_LAYER_TOP
100
AcDbCircle
 10
-3.76
 20
10.96
 30
0.0
 40
0.6
  0
HATCH
  5
417
100
AcDbEntity
  8
PART_HOLES_LAYER_TOP
100
AcDbHatch
 10
0.0
 20
0.0
 30
0.0
210
0.0
220
0.0
230
1.0
  2
SOLID
 70
         1
 71
         1
 91
        1
 92
        1
 93
        1
 72
         2
 10
-3.7599999999999998
 20
10.960000000000001
 40
0.6
 50
0.0
 51
360.0
 73
         1
 97
        1
330
416
 75
         0
 76
         1
 98
        1
 10
0.0
 20
0.0
  0
CIRCLE
  5
418
100
AcDbEntity
  8
PART_HOLES_LAYER_TOP
100
AcDbCircle
 10
-0.99
 20
10.96
 30
0.0
 40
0.6
  0
HATCH
  5
419
100
AcDbEntity
  8
PART_HOLES_LAYER_TOP
100
AcDbHatch
 10
0.0
 20
0.0
 30
0.0
210
0.0
220
0.0
230
1.0
  2
SOLID
 70
         1
 71
         1
 91
        1
 92
        1
 93
        1
 72
         2
 10
-0.99
 20
10.960000000000001
 40
0.6
 50
0.0
 51
360.0
 73
         1
 97
        1
330
418
 75
         0
 76
         1
 98
        1
 10
0.0
 20
0.0
  0
CIRCLE
  5
41A
100
AcDbEntity
  8
PART_HOLES_LAYER_TOP
100
AcDbCircle
 10
87.4
 20
18.7
 30
0.0
 40
0.45
  0
HATCH
  5
41B
100
AcDbEntity
  8
PART_HOLES_LAYER_TOP
100
AcDbHatch
 10
0.0
 20
0.0
 30
0.0
210
0.0
220
0.0
230
1.0
  2
SOLID
 70
         1
 71
         1
 91
        1
 92
        1
 93
        1
 72
         2
 10
87.400000000000006
 20
18.699999999999999
 40
0.45
 50
0.0
 51
360.0
 73
         1
 97
        1
330
41A
 75
         0
 76
         1
 98
        1
 10
0.0
 20
0.0
  0
CIRCLE
  5
41C
100
AcDbEntity
  8
PART_HOLES_LAYER_TOP
100
AcDbCircle
 10
89.94
 20
18.7
 30
0.0
 40
0.45
  0
HATCH
  5
41D
100
AcDbEntity
  8
PART_HOLES_LAYER_TOP
100
AcDbHatch
 10
0.0
 20
0.0
 30
0.0
210
0.0
220
0.0
230
1.0
  2
SOLID
 70
         1
 71
         1
 91
        1
 92
        1
 93
        1
 72
         2
 10
89.939999999999998
 20
18.699999999999999
 40
0.45
 50
0.0
 51
360.0
 73
         1
 97
        1
330
41C
 75
         0
 76
         1
 98
        1
 10
0.0
 20
0.0
  0
CIRCLE
  5
41E
100
AcDbEntity
  8
PART_HOLES_LAYER_TOP
100
AcDbCircle
 10
53.770002
 20
45.5
 30
0.0
 40
0.45
  0
HATCH
  5
41F
100
AcDbEntity
  8
PART_HOLES_LAYER_TOP
100
AcDbHatch
 10
0.0
 20
0.0
 30
0.0
210
0.0
220
0.0
230
1.0
  2
SOLID
 70
         1
 71
         1
 91
        1
 92
        1
 93
        1
 72
         2
 10
53.770001999999998
 20
45.5
 40
0.45
 50
0.0
 51
360.0
 73
         1
 97
        1
330
41E
 75
         0
 76
         1
 98
        1
 10
0.0
 20
0.0
  0
CIRCLE
  5
420
100
AcDbEntity
  8
PART_HOLES_LAYER_TOP
100
AcDbCircle
 10
51.23
 20
45.5
 30
0.0
 40
0.45
  0
HATCH
  5
421
100
AcDbEntity
  8
PART_HOLES_LAYER_TOP
100
AcDbHatch
 10
0.0
 20
0.0
 30
0.0
210
0.0
220
0.0
230
1.0
  2
SOLID
 70
         1
 71
         1
 91
        1
 92
        1
 93
        1
 72
         2
 10
51.229999999999997
 20
45.5
 40
0.45
 50
0.0
 51
360.0
 73
         1
 97
        1
330
420
 75
         0
 76
         1
 98
        1
 10
0.0
 20
0.0
  0
CIRCLE
  5
422
100
AcDbEntity
  8
PART_HOLES_LAYER_TOP
100
AcDbCircle
 10
33.5
 20
24.75
 30
0.0
 40
0.45
  0
HATCH
  5
423
100
AcDbEntity
  8
PART_HOLES_LAYER_TOP
100
AcDbHatch
 10
0.0
 20
0.0
 30
0.0
210
0.0
220
0.0
230
1.0
  2
SOLID
 70
         1
 71
         1
 91
        1
 92
        1
 93
        1
 72
         2
 10
33.5
 20
24.75
 40
0.45
 50
0.0
 51
360.0
 73
         1
 97
        1
330
422
 75
         0
 76
         1
 98
        1
 10
0.0
 20
0.0
  0
CIRCLE
  5
424
100
AcDbEntity
  8
PART_HOLES_LAYER_TOP
100
AcDbCircle
 10
30.96
 20
24.75
 30
0.0
 40
0.45
  0
HATCH
  5
425
100
AcDbEntity
  8
PART_HOLES_LAYER_TOP
100
AcDbHatch
 10
0.0
 20
0.0
 30
0.0
210
0.0
220
0.0
230
1.0
  2
SOLID
 70
         1
 71
         1
 91
        1
 92
        1
 93
        1
 72
         2
 10
30.960000000000001
 20
24.75
 40
0.45
 50
0.0
 51
360.0
 73
         1
 97
        1
330
424
 75
         0
 76
         1
 98
        1
 10
0.0
 20
0.0
  0
CIRCLE
  5
426
100
AcDbEntity
  8
PART_HOLES_LAYER_TOP
100
AcDbCircle
 10
30.96
 20
47.61
 30
0.0
 40
0.45
  0
HATCH
  5
427
100
AcDbEntity
  8
PART_HOLES_LAYER_TOP
100
AcDbHatch
 10
0.0
 20
0.0
 30
0.0
210
0.0
220
0.0
230
1.0
  2
SOLID
 70
         1
 71
         1
 91
        1
 92
        1
 93
        1
 72
         2
 10
30.960000000000001
 20
47.609999999999999
 40
0.45
 50
0.0
 51
360.0
 73
         1
 97
        1
330
426
 75
         0
 76
         1
 98
        1
 10
0.0
 20
0.0
  0
CIRCLE
  5
428
100
AcDbEntity
  8
PART_HOLES_LAYER_TOP
100
AcDbCircle
 10
30.96
 20
45.07
 30
0.0
 40
0.45
  0
HATCH
  5
429
100
AcDbEntity
  8
PART_HOLES_LAYER_TOP
100
AcDbHatch
 10
0.0
 20
0.0
 30
0.0
210
0.0
220
0.0
230
1.0
  2
SOLID
 70
         1
 71
         1
 91
        1
 92
        1
 93
        1
 72
         2
 10
30.960000000000001
 20
45.07
 40
0.45
 50
0.0
 51
360.0
 73
         1
 97
        1
330
428
 75
         0
 76
         1
 98
        1
 10
0.0
 20
0.0
  0
CIRCLE
  5
42A
100
AcDbEntity
  8
PART_HOLES_LAYER_TOP
100
AcDbCircle
 10
33.5
 20
34.91
 30
0.0
 40
0.45
  0
HATCH
  5
42B
100
AcDbEntity
  8
PART_HOLES_LAYER_TOP
100
AcDbHatch
 10
0.0
 20
0.0
 30
0.0
210
0.0
220
0.0
230
1.0
  2
SOLID
 70
         1
 71
         1
 91
        1
 92
        1
 93
        1
 72
         2
 10
33.5
 20
34.909999999999997
 40
0.45
 50
0.0
 51
360.0
 73
         1
 97
        1
330
42A
 75
         0
 76
         1
 98
        1
 10
0.0
 20
0.0
  0
CIRCLE
  5
42C
100
AcDbEntity
  8
PART_HOLES_LAYER_TOP
100
AcDbCircle
 10
30.96
 20
34.91
 30
0.0
 40
0.45
  0
HATCH
  5
42D
100
AcDbEntity
  8
PART_HOLES_LAYER_TOP
100
AcDbHatch
 10
0.0
 20
0.0
 30
0.0
210
0.0
220
0.0
230
1.0
  2
SOLID
 70
         1
 71
         1
 91
        1
 92
        1
 93
        1
 72
         2
 10
30.960000000000001
 20
34.909999999999997
 40
0.45
 50
0.0
 51
360.0
 73
         1
 97
        1
330
42C
 75
         0
 76
         1
 98
        1
 10
0.0
 20
0.0
  0
CIRCLE
  5
42E
100
AcDbEntity
  8
PART_HOLES_LAYER_TOP
100
AcDbCircle
 10
33.5
 20
27.29
 30
0.0
 40
0.45
  0
HATCH
  5
42F
100
AcDbEntity
  8
PART_HOLES_LAYER_TOP
100
AcDbHatch
 10
0.0
 20
0.0
 30
0.0
210
0.0
220
0.0
230
1.0
  2
SOLID
 70
         1
 71
         1
 91
        1
 92
        1
 93
        1
 72
         2
 10
33.5
 20
27.289999999999999
 40
0.45
 50
0.0
 51
360.0
 73
         1
 97
        1
330
42E
 75
         0
 76
         1
 98
        1
 10
0.0
 20
0.0
  0
CIRCLE
  5
430
100
AcDbEntity
  8
PART_HOLES_LAYER_TOP
100
AcDbCircle
 10
30.96
 20
27.29
 30
0.0
 40
0.45
  0
HATCH
  5
431
100
AcDbEntity
  8
PART_HOLES_LAYER_TOP
100
AcDbHatch
 10
0.0
 20
0.0
 30
0.0
210
0.0
220
0.0
230
1.0
  2
SOLID
 70
         1
 71
         1
 91
        1
 92
        1
 93
        1
 72
         2
 10
30.960000000000001
 20
27.289999999999999
 40
0.45
 50
0.0
 51
360.0
 73
         1
 97
        1
330
430
 75
         0
 76
         1
 98
        1
 10
0.0
 20
0.0
  0
CIRCLE
  5
432
100
AcDbEntity
  8
PART_HOLES_LAYER_TOP
100
AcDbCircle
 10
33.5
 20
29.83
 30
0.0
 40
0.45
  0
HATCH
  5
433
100
AcDbEntity
  8
PART_HOLES_LAYER_TOP
100
AcDbHatch
 10
0.0
 20
0.0
 30
0.0
210
0.0
220
0.0
230
1.0
  2
SOLID
 70
         1
 71
         1
 91
        1
 92
        1
 93
        1
 72
         2
 10
33.5
 20
29.829999999999998
 40
0.45
 50
0.0
 51
360.0
 73
         1
 97
        1
330
432
 75
         0
 76
         1
 98
        1
 10
0.0
 20
0.0
  0
CIRCLE
  5
434
100
AcDbEntity
  8
PART_HOLES_LAYER_TOP
100
AcDbCircle
 10
30.96
 20
29.83
 30
0.0
 40
0.45
  0
HATCH
  5
435
100
AcDbEntity
  8
PART_HOLES_LAYER_TOP
100
AcDbHatch
 10
0.0
 20
0.0
 30
0.0
210
0.0
220
0.0
230
1.0
  2
SOLID
 70
         1
 71
         1
 91
        1
 92
        1
 93
        1
 72
         2
 10
30.960000000000001
 20
29.829999999999998
 40
0.45
 50
0.0
 51
360.0
 73
         1
 97
        1
330
434
 75
         0
 76
         1
 98
        1
 10
0.0
 20
0.0
  0
CIRCLE
  5
436
100
AcDbEntity
  8
PART_HOLES_LAYER_TOP
100
AcDbCircle
 10
33.5
 20
32.37
 30
0.0
 40
0.45
  0
HATCH
  5
437
100
AcDbEntity
  8
PART_HOLES_LAYER_TOP
100
AcDbHatch
 10
0.0
 20
0.0
 30
0.0
210
0.0
220
0.0
230
1.0
  2
SOLID
 70
         1
 71
         1
 91
        1
 92
        1
 93
        1
 72
         2
 10
33.5
 20
32.369999999999997
 40
0.45
 50
0.0
 51
360.0
 73
         1
 97
        1
330
436
 75
         0
 76
         1
 98
        1
 10
0.0
 20
0.0
  0
CIRCLE
  5
438
100
AcDbEntity
  8
PART_HOLES_LAYER_TOP
100
AcDbCircle
 10
30.96
 20
32.37
 30
0.0
 40
0.45
  0
HATCH
  5
439
100
AcDbEntity
  8
PART_HOLES_LAYER_TOP
100
AcDbHatch
 10
0.0
 20
0.0
 30
0.0
210
0.0
220
0.0
230
1.0
  2
SOLID
 70
         1
 71
         1
 91
        1
 92
        1
 93
        1
 72
         2
 10
30.960000000000001
 20
32.369999999999997
 40
0.45
 50
0.0
 51
360.0
 73
         1
 97
        1
330
438
 75
         0
 76
         1
 98
        1
 10
0.0
 20
0.0
  0
CIRCLE
  5
43A
100
AcDbEntity
  8
PART_HOLES_LAYER_TOP
100
AcDbCircle
 10
33.5
 20
37.45
 30
0.0
 40
0.45
  0
HATCH
  5
43B
100
AcDbEntity
  8
PART_HOLES_LAYER_TOP
100
AcDbHatch
 10
0.0
 20
0.0
 30
0.0
210
0.0
220
0.0
230
1.0
  2
SOLID
 70
         1
 71
         1
 91
        1
 92
        1
 93
        1
 72
         2
 10
33.5
 20
37.450000000000003
 40
0.45
 50
0.0
 51
360.0
 73
         1
 97
        1
330
43A
 75
         0
 76
         1
 98
        1
 10
0.0
 20
0.0
  0
CIRCLE
  5
43C
100
AcDbEntity
  8
PART_HOLES_LAYER_TOP
100
AcDbCircle
 10
30.96
 20
37.45
 30
0.0
 40
0.45
  0
HATCH
  5
43D
100
AcDbEntity
  8
PART_HOLES_LAYER_TOP
100
AcDbHatch
 10
0.0
 20
0.0
 30
0.0
210
0.0
220
0.0
230
1.0
  2
SOLID
 70
         1
 71
         1
 91
        1
 92
        1
 93
        1
 72
         2
 10
30.960000000000001
 20
37.450000000000003
 40
0.45
 50
0.0
 51
360.0
 73
         1
 97
        1
330
43C
 75
         0
 76
         1
 98
        1
 10
0.0
 20
0.0
  0
CIRCLE
  5
43E
100
AcDbEntity
  8
PART_HOLES_LAYER_TOP
100
AcDbCircle
 10
33.5
 20
45.07
 30
0.0
 40
0.45
  0
HATCH
  5
43F
100
AcDbEntity
  8
PART_HOLES_LAYER_TOP
100
AcDbHatch
 10
0.0
 20
0.0
 30
0.0
210
0.0
220
0.0
230
1.0
  2
SOLID
 70
         1
 71
         1
 91
        1
 92
        1
 93
        1
 72
         2
 10
33.5
 20
45.07
 40
0.45
 50
0.0
 51
360.0
 73
         1
 97
        1
330
43E
 75
         0
 76
         1
 98
        1
 10
0.0
 20
0.0
  0
CIRCLE
  5
440
100
AcDbEntity
  8
PART_HOLES_LAYER_TOP
100
AcDbCircle
 10
30.96
 20
42.53
 30
0.0
 40
0.45
  0
HATCH
  5
441
100
AcDbEntity
  8
PART_HOLES_LAYER_TOP
100
AcDbHatch
 10
0.0
 20
0.0
 30
0.0
210
0.0
220
0.0
230
1.0
  2
SOLID
 70
         1
 71
         1
 91
        1
 92
        1
 93
        1
 72
         2
 10
30.960000000000001
 20
42.530000000000001
 40
0.45
 50
0.0
 51
360.0
 73
         1
 97
        1
330
440
 75
         0
 76
         1
 98
        1
 10
0.0
 20
0.0
  0
CIRCLE
  5
442
100
AcDbEntity
  8
PART_HOLES_LAYER_TOP
100
AcDbCircle
 10
33.5
 20
42.53
 30
0.0
 40
0.45
  0
HATCH
  5
443
100
AcDbEntity
  8
PART_HOLES_LAYER_TOP
100
AcDbHatch
 10
0.0
 20
0.0
 30
0.0
210
0.0
220
0.0
230
1.0
  2
SOLID
 70
         1
 71
         1
 91
        1
 92
        1
 93
        1
 72
         2
 10
33.5
 20
42.530000000000001
 40
0.45
 50
0.0
 51
360.0
 73
         1
 97
        1
330
442
 75
         0
 76
         1
 98
        1
 10
0.0
 20
0.0
  0
CIRCLE
  5
444
100
AcDbEntity
  8
PART_HOLES_LAYER_TOP
100
AcDbCircle
 10
30.96
 20
39.99
 30
0.0
 40
0.45
  0
HATCH
  5
445
100
AcDbEntity
  8
PART_HOLES_LAYER_TOP
100
AcDbHatch
 10
0.0
 20
0.0
 30
0.0
210
0.0
220
0.0
230
1.0
  2
SOLID
 70
         1
 71
         1
 91
        1
 92
        1
 93
        1
 72
         2
 10
30.960000000000001
 20
39.990000000000002
 40
0.45
 50
0.0
 51
360.0
 73
         1
 97
        1
330
444
 75
         0
 76
         1
 98
        1
 10
0.0
 20
0.0
  0
CIRCLE
  5
446
100
AcDbEntity
  8
PART_HOLES_LAYER_TOP
100
AcDbCircle
 10
33.5
 20
39.99
 30
0.0
 40
0.45
  0
HATCH
  5
447
100
AcDbEntity
  8
PART_HOLES_LAYER_TOP
100
AcDbHatch
 10
0.0
 20
0.0
 30
0.0
210
0.0
220
0.0
230
1.0
  2
SOLID
 70
         1
 71
         1
 91
        1
 92
        1
 93
        1
 72
         2
 10
33.5
 20
39.990000000000002
 40
0.45
 50
0.0
 51
360.0
 73
         1
 97
        1
330
446
 75
         0
 76
         1
 98
        1
 10
0.0
 20
0.0
  0
CIRCLE
  5
448
100
AcDbEntity
  8
PART_HOLES_LAYER_TOP
100
AcDbCircle
 10
33.5
 20
47.61
 30
0.0
 40
0.45
  0
HATCH
  5
449
100
AcDbEntity
  8
PART_HOLES_LAYER_TOP
100
AcDbHatch
 10
0.0
 20
0.0
 30
0.0
210
0.0
220
0.0
230
1.0
  2
SOLID
 70
         1
 71
         1
 91
        1
 92
        1
 93
        1
 72
         2
 10
33.5
 20
47.609999999999999
 40
0.45
 50
0.0
 51
360.0
 73
         1
 97
        1
330
448
 75
         0
 76
         1
 98
        1
 10
0.0
 20
0.0
  0
CIRCLE
  5
44A
100
AcDbEntity
  8
PART_HOLES_LAYER_TOP
100
AcDbCircle
 10
52.46
 20
39.55
 30
0.0
 40
0.45
  0
HATCH
  5
44B
100
AcDbEntity
  8
PART_HOLES_LAYER_TOP
100
AcDbHatch
 10
0.0
 20
0.0
 30
0.0
210
0.0
220
0.0
230
1.0
  2
SOLID
 70
         1
 71
         1
 91
        1
 92
        1
 93
        1
 72
         2
 10
52.460000000000001
 20
39.549999999999997
 40
0.45
 50
0.0
 51
360.0
 73
         1
 97
        1
330
44A
 75
         0
 76
         1
 98
        1
 10
0.0
 20
0.0
  0
CIRCLE
  5
44C
100
AcDbEntity
  8
PART_HOLES_LAYER_TOP
100
AcDbCircle
 10
52.46
 20
34.67
 30
0.0
 40
0.45
  0
HATCH
  5
44D
100
AcDbEntity
  8
PART_HOLES_LAYER_TOP
100
AcDbHatch
 10
0.0
 20
0.0
 30
0.0
210
0.0
220
0.0
230
1.0
  2
SOLID
 70
         1
 71
         1
 91
        1
 92
        1
 93
        1
 72
         2
 10
52.460000000000001
 20
34.670000000000002
 40
0.45
 50
0.0
 51
360.0
 73
         1
 97
        1
330
44C
 75
         0
 76
         1
 98
        1
 10
0.0
 20
0.0
  0
CIRCLE
  5
44E
100
AcDbEntity
  8
PART_HOLES_LAYER_TOP
100
AcDbCircle
 10
40.7
 20
23.2
 30
0.0
 40
0.45
  0
HATCH
  5
44F
100
AcDbEntity
  8
PART_HOLES_LAYER_TOP
100
AcDbHatch
 10
0.0
 20
0.0
 30
0.0
210
0.0
220
0.0
230
1.0
  2
SOLID
 70
         1
 71
         1
 91
        1
 92
        1
 93
        1
 72
         2
 10
40.700000000000003
 20
23.199999999999999
 40
0.45
 50
0.0
 51
360.0
 73
         1
 97
        1
330
44E
 75
         0
 76
         1
 98
        1
 10
0.0
 20
0.0
  0
CIRCLE
  5
450
100
AcDbEntity
  8
PART_HOLES_LAYER_TOP
100
AcDbCircle
 10
43.24
 20
23.2
 30
0.0
 40
0.45
  0
HATCH
  5
451
100
AcDbEntity
  8
PART_HOLES_LAYER_TOP
100
AcDbHatch
 10
0.0
 20
0.0
 30
0.0
210
0.0
220
0.0
230
1.0
  2
SOLID
 70
         1
 71
         1
 91
        1
 92
        1
 93
        1
 72
         2
 10
43.240000000000002
 20
23.199999999999999
 40
0.45
 50
0.0
 51
360.0
 73
         1
 97
        1
330
450
 75
         0
 76
         1
 98
        1
 10
0.0
 20
0.0
  0
CIRCLE
  5
452
100
AcDbEntity
  8
PART_HOLES_LAYER_TOP
100
AcDbCircle
 10
95.55
 20
35.35
 30
0.0
 40
0.45
  0
HATCH
  5
453
100
AcDbEntity
  8
PART_HOLES_LAYER_TOP
100
AcDbHatch
 10
0.0
 20
0.0
 30
0.0
210
0.0
220
0.0
230
1.0
  2
SOLID
 70
         1
 71
         1
 91
        1
 92
        1
 93
        1
 72
         2
 10
95.549999999999997
 20
35.350000000000001
 40
0.45
 50
0.0
 51
360.0
 73
         1
 97
        1
330
452
 75
         0
 76
         1
 98
        1
 10
0.0
 20
0.0
  0
CIRCLE
  5
454
100
AcDbEntity
  8
PART_HOLES_LAYER_TOP
100
AcDbCircle
 10
-10.0
 20
41.35
 30
0.0
 40
0.45
  0
HATCH
  5
455
100
AcDbEntity
  8
PART_HOLES_LAYER_TOP
100
AcDbHatch
 10
0.0
 20
0.0
 30
0.0
210
0.0
220
0.0
230
1.0
  2
SOLID
 70
         1
 71
         1
 91
        1
 92
        1
 93
        1
 72
         2
 10
-10.0
 20
41.350000000000001
 40
0.45
 50
0.0
 51
360.0
 73
         1
 97
        1
330
454
 75
         0
 76
         1
 98
        1
 10
0.0
 20
0.0
  0
CIRCLE
  5
456
100
AcDbEntity
  8
PART_HOLES_LAYER_TOP
100
AcDbCircle
 10
-12.54
 20
41.35
 30
0.0
 40
0.45
  0
HATCH
  5
457
100
AcDbEntity
  8
PART_HOLES_LAYER_TOP
100
AcDbHatch
 10
0.0
 20
0.0
 30
0.0
210
0.0
220
0.0
230
1.0
  2
SOLID
 70
         1
 71
         1
 91
        1
 92
        1
 93
        1
 72
         2
 10
-12.539999999999999
 20
41.350000000000001
 40
0.45
 50
0.0
 51
360.0
 73
         1
 97
        1
330
456
 75
         0
 76
         1
 98
        1
 10
0.0
 20
0.0
  0
CIRCLE
  5
458
100
AcDbEntity
  8
PART_HOLES_LAYER_TOP
100
AcDbCircle
 10
72.2
 20
4.7
 30
0.0
 40
0.45
  0
HATCH
  5
459
100
AcDbEntity
  8
PART_HOLES_LAYER_TOP
100
AcDbHatch
 10
0.0
 20
0.0
 30
0.0
210
0.0
220
0.0
230
1.0
  2
SOLID
 70
         1
 71
         1
 91
        1
 92
        1
 93
        1
 72
         2
 10
72.200000000000003
 20
4.7000000000000002
 40
0.45
 50
0.0
 51
360.0
 73
         1
 97
        1
330
458
 75
         0
 76
         1
 98
        1
 10
0.0
 20
0.0
  0
CIRCLE
  5
45A
100
AcDbEntity
  8
PART_HOLES_LAYER_TOP
100
AcDbCircle
 10
72.2
 20
2.16
 30
0.0
 40
0.45
  0
HATCH
  5
45B
100
AcDbEntity
  8
PART_HOLES_LAYER_TOP
100
AcDbHatch
 10
0.0
 20
0.0
 30
0.0
210
0.0
220
0.0
230
1.0
  2
SOLID
 70
         1
 71
         1
 91
        1
 92
        1
 93
        1
 72
         2
 10
72.200000000000003
 20
2.1600000000000001
 40
0.45
 50
0.0
 51
360.0
 73
         1
 97
        1
330
45A
 75
         0
 76
         1
 98
        1
 10
0.0
 20
0.0
  0
CIRCLE
  5
45C
100
AcDbEntity
  8
PART_HOLES_LAYER_TOP
100
AcDbCircle
 10
45.55
 20
65.15
 30
0.0
 40
0.45
  0
HATCH
  5
45D
100
AcDbEntity
  8
PART_HOLES_LAYER_TOP
100
AcDbHatch
 10
0.0
 20
0.0
 30
0.0
210
0.0
220
0.0
230
1.0
  2
SOLID
 70
         1
 71
         1
 91
        1
 92
        1
 93
        1
 72
         2
 10
45.549999999999997
 20
65.150000000000006
 40
0.45
 50
0.0
 51
360.0
 73
         1
 97
        1
330
45C
 75
         0
 76
         1
 98
        1
 10
0.0
 20
0.0
  0
CIRCLE
  5
45E
100
AcDbEntity
  8
PART_HOLES_LAYER_TOP
100
AcDbCircle
 10
45.55
 20
67.69
 30
0.0
 40
0.45
  0
HATCH
  5
45F
100
AcDbEntity
  8
PART_HOLES_LAYER_TOP
100
AcDbHatch
 10
0.0
 20
0.0
 30
0.0
210
0.0
220
0.0
230
1.0
  2
SOLID
 70
         1
 71
         1
 91
        1
 92
        1
 93
        1
 72
         2
 10
45.549999999999997
 20
67.689999999999998
 40
0.45
 50
0.0
 51
360.0
 73
         1
 97
        1
330
45E
 75
         0
 76
         1
 98
        1
 10
0.0
 20
0.0
  0
CIRCLE
  5
460
100
AcDbEntity
  8
PART_HOLES_LAYER_TOP
100
AcDbCircle
 10
49.15
 20
23.85
 30
0.0
 40
0.45
  0
HATCH
  5
461
100
AcDbEntity
  8
PART_HOLES_LAYER_TOP
100
AcDbHatch
 10
0.0
 20
0.0
 30
0.0
210
0.0
220
0.0
230
1.0
  2
SOLID
 70
         1
 71
         1
 91
        1
 92
        1
 93
        1
 72
         2
 10
49.149999999999999
 20
23.850000000000001
 40
0.45
 50
0.0
 51
360.0
 73
         1
 97
        1
330
460
 75
         0
 76
         1
 98
        1
 10
0.0
 20
0.0
  0
CIRCLE
  5
462
100
AcDbEntity
  8
PART_HOLES_LAYER_TOP
100
AcDbCircle
 10
46.61
 20
23.85
 30
0.0
 40
0.45
  0
HATCH
  5
463
100
AcDbEntity
  8
PART_HOLES_LAYER_TOP
100
AcDbHatch
 10
0.0
 20
0.0
 30
0.0
210
0.0
220
0.0
230
1.0
  2
SOLID
 70
         1
 71
         1
 91
        1
 92
        1
 93
        1
 72
         2
 10
46.609999999999999
 20
23.850000000000001
 40
0.45
 50
0.0
 51
360.0
 73
         1
 97
        1
330
462
 75
         0
 76
         1
 98
        1
 10
0.0
 20
0.0
  0
CIRCLE
  5
464
100
AcDbEntity
  8
PART_HOLES_LAYER_TOP
100
AcDbCircle
 10
27.55
 20
66.3
 30
0.0
 40
0.45
  0
HATCH
  5
465
100
AcDbEntity
  8
PART_HOLES_LAYER_TOP
100
AcDbHatch
 10
0.0
 20
0.0
 30
0.0
210
0.0
220
0.0
230
1.0
  2
SOLID
 70
         1
 71
         1
 91
        1
 92
        1
 93
        1
 72
         2
 10
27.550000000000001
 20
66.299999999999997
 40
0.45
 50
0.0
 51
360.0
 73
         1
 97
        1
330
464
 75
         0
 76
         1
 98
        1
 10
0.0
 20
0.0
  0
CIRCLE
  5
466
100
AcDbEntity
  8
PART_HOLES_LAYER_TOP
100
AcDbCircle
 10
37.71
 20
66.3
 30
0.0
 40
0.45
  0
HATCH
  5
467
100
AcDbEntity
  8
PART_HOLES_LAYER_TOP
100
AcDbHatch
 10
0.0
 20
0.0
 30
0.0
210
0.0
220
0.0
230
1.0
  2
SOLID
 70
         1
 71
         1
 91
        1
 92
        1
 93
        1
 72
         2
 10
37.710000000000001
 20
66.299999999999997
 40
0.45
 50
0.0
 51
360.0
 73
         1
 97
        1
330
466
 75
         0
 76
         1
 98
        1
 10
0.0
 20
0.0
  0
CIRCLE
  5
468
100
AcDbEntity
  8
PART_HOLES_LAYER_TOP
100
AcDbCircle
 10
40.25
 20
66.3
 30
0.0
 40
0.45
  0
HATCH
  5
469
100
AcDbEntity
  8
PART_HOLES_LAYER_TOP
100
AcDbHatch
 10
0.0
 20
0.0
 30
0.0
210
0.0
220
0.0
230
1.0
  2
SOLID
 70
         1
 71
         1
 91
        1
 92
        1
 93
        1
 72
         2
 10
40.25
 20
66.299999999999997
 40
0.45
 50
0.0
 51
360.0
 73
         1
 97
        1
330
468
 75
         0
 76
         1
 98
        1
 10
0.0
 20
0.0
  0
CIRCLE
  5
46A
100
AcDbEntity
  8
PART_HOLES_LAYER_TOP
100
AcDbCircle
 10
35.17
 20
66.3
 30
0.0
 40
0.45
  0
HATCH
  5
46B
100
AcDbEntity
  8
PART_HOLES_LAYER_TOP
100
AcDbHatch
 10
0.0
 20
0.0
 30
0.0
210
0.0
220
0.0
230
1.0
  2
SOLID
 70
         1
 71
         1
 91
        1
 92
        1
 93
        1
 72
         2
 10
35.170000000000002
 20
66.299999999999997
 40
0.45
 50
0.0
 51
360.0
 73
         1
 97
        1
330
46A
 75
         0
 76
         1
 98
        1
 10
0.0
 20
0.0
  0
CIRCLE
  5
46C
100
AcDbEntity
  8
PART_HOLES_LAYER_TOP
100
AcDbCircle
 10
30.09
 20
66.3
 30
0.0
 40
0.45
  0
HATCH
  5
46D
100
AcDbEntity
  8
PART_HOLES_LAYER_TOP
100
AcDbHatch
 10
0.0
 20
0.0
 30
0.0
210
0.0
220
0.0
230
1.0
  2
SOLID
 70
         1
 71
         1
 91
        1
 92
        1
 93
        1
 72
         2
 10
30.09
 20
66.299999999999997
 40
0.45
 50
0.0
 51
360.0
 73
         1
 97
        1
330
46C
 75
         0
 76
         1
 98
        1
 10
0.0
 20
0.0
  0
CIRCLE
  5
46E
100
AcDbEntity
  8
PART_HOLES_LAYER_TOP
100
AcDbCircle
 10
32.63
 20
66.3
 30
0.0
 40
0.45
  0
HATCH
  5
46F
100
AcDbEntity
  8
PART_HOLES_LAYER_TOP
100
AcDbHatch
 10
0.0
 20
0.0
 30
0.0
210
0.0
220
0.0
230
1.0
  2
SOLID
 70
         1
 71
         1
 91
        1
 92
        1
 93
        1
 72
         2
 10
32.630000000000003
 20
66.299999999999997
 40
0.45
 50
0.0
 51
360.0
 73
         1
 97
        1
330
46E
 75
         0
 76
         1
 98
        1
 10
0.0
 20
0.0
  0
CIRCLE
  5
470
100
AcDbEntity
  8
PART_HOLES_LAYER_TOP
100
AcDbCircle
 10
16.12
 20
7.48
 30
0.0
 40
1.4
  0
HATCH
  5
471
100
AcDbEntity
  8
PART_HOLES_LAYER_TOP
100
AcDbHatch
 10
0.0
 20
0.0
 30
0.0
210
0.0
220
0.0
230
1.0
  2
SOLID
 70
         1
 71
         1
 91
        1
 92
        1
 93
        1
 72
         2
 10
16.120000000000001
 20
7.4800000000000004
 40
1.3999999999999999
 50
0.0
 51
360.0
 73
         1
 97
        1
330
470
 75
         0
 76
         1
 98
        1
 10
0.0
 20
0.0
  0
CIRCLE
  5
472
100
AcDbEntity
  8
PART_HOLES_LAYER_TOP
100
AcDbCircle
 10
26.28
 20
7.48
 30
0.0
 40
1.4
  0
HATCH
  5
473
100
AcDbEntity
  8
PART_HOLES_LAYER_TOP
100
AcDbHatch
 10
0.0
 20
0.0
 30
0.0
210
0.0
220
0.0
230
1.0
  2
SOLID
 70
         1
 71
         1
 91
        1
 92
        1
 93
        1
 72
         2
 10
26.280000000000001
 20
7.4800000000000004
 40
1.3999999999999999
 50
0.0
 51
360.0
 73
         1
 97
        1
330
472
 75
         0
 76
         1
 98
        1
 10
0.0
 20
0.0
  0
CIRCLE
  5
474
100
AcDbEntity
  8
PART_HOLES_LAYER_TOP
100
AcDbCircle
 10
21.2
 20
2.4
 30
0.0
 40
1.4
  0
HATCH
  5
475
100
AcDbEntity
  8
PART_HOLES_LAYER_TOP
100
AcDbHatch
 10
0.0
 20
0.0
 30
0.0
210
0.0
220
0.0
230
1.0
  2
SOLID
 70
         1
 71
         1
 91
        1
 92
        1
 93
        1
 72
         2
 10
21.199999999999999
 20
2.3999999999999999
 40
1.3999999999999999
 50
0.0
 51
360.0
 73
         1
 97
        1
330
474
 75
         0
 76
         1
 98
        1
 10
0.0
 20
0.0
  0
CIRCLE
  5
476
100
AcDbEntity
  8
PART_HOLES_LAYER_TOP
100
AcDbCircle
 10
21.2
 20
7.48
 30
0.0
 40
1.4
  0
HATCH
  5
477
100
AcDbEntity
  8
PART_HOLES_LAYER_TOP
100
AcDbHatch
 10
0.0
 20
0.0
 30
0.0
210
0.0
220
0.0
230
1.0
  2
SOLID
 70
         1
 71
         1
 91
        1
 92
        1
 93
        1
 72
         2
 10
21.199999999999999
 20
7.4800000000000004
 40
1.3999999999999999
 50
0.0
 51
360.0
 73
         1
 97
        1
330
476
 75
         0
 76
         1
 98
        1
 10
0.0
 20
0.0
  0
CIRCLE
  5
478
100
AcDbEntity
  8
PART_HOLES_LAYER_TOP
100
AcDbCircle
 10
70.8
 20
73.05
 30
0.0
 40
0.45
  0
HATCH
  5
479
100
AcDbEntity
  8
PART_HOLES_LAYER_TOP
100
AcDbHatch
 10
0.0
 20
0.0
 30
0.0
210
0.0
220
0.0
230
1.0
  2
SOLID
 70
         1
 71
         1
 91
        1
 92
        1
 93
        1
 72
         2
 10
70.799999999999997
 20
73.049999999999997
 40
0.45
 50
0.0
 51
360.0
 73
         1
 97
        1
330
478
 75
         0
 76
         1
 98
        1
 10
0.0
 20
0.0
  0
CIRCLE
  5
47A
100
AcDbEntity
  8
PART_HOLES_LAYER_TOP
100
AcDbCircle
 10
68.26
 20
73.05
 30
0.0
 40
0.45
  0
HATCH
  5
47B
100
AcDbEntity
  8
PART_HOLES_LAYER_TOP
100
AcDbHatch
 10
0.0
 20
0.0
 30
0.0
210
0.0
220
0.0
230
1.0
  2
SOLID
 70
         1
 71
         1
 91
        1
 92
        1
 93
        1
 72
         2
 10
68.260000000000005
 20
73.049999999999997
 40
0.45
 50
0.0
 51
360.0
 73
         1
 97
        1
330
47A
 75
         0
 76
         1
 98
        1
 10
0.0
 20
0.0
  0
CIRCLE
  5
47C
100
AcDbEntity
  8
PART_HOLES_LAYER_TOP
100
AcDbCircle
 10
65.72
 20
73.05
 30
0.0
 40
0.45
  0
HATCH
  5
47D
100
AcDbEntity
  8
PART_HOLES_LAYER_TOP
100
AcDbHatch
 10
0.0
 20
0.0
 30
0.0
210
0.0
220
0.0
230
1.0
  2
SOLID
 70
         1
 71
         1
 91
        1
 92
        1
 93
        1
 72
         2
 10
65.719999999999999
 20
73.049999999999997
 40
0.45
 50
0.0
 51
360.0
 73
         1
 97
        1
330
47C
 75
         0
 76
         1
 98
        1
 10
0.0
 20
0.0
  0
CIRCLE
  5
47E
100
AcDbEntity
  8
PART_HOLES_LAYER_TOP
100
AcDbCircle
 10
45.2
 20
5.7
 30
0.0
 40
0.45
  0
HATCH
  5
47F
100
AcDbEntity
  8
PART_HOLES_LAYER_TOP
100
AcDbHatch
 10
0.0
 20
0.0
 30
0.0
210
0.0
220
0.0
230
1.0
  2
SOLID
 70
         1
 71
         1
 91
        1
 92
        1
 93
        1
 72
         2
 10
45.200000000000003
 20
5.7000000000000002
 40
0.45
 50
0.0
 51
360.0
 73
         1
 97
        1
330
47E
 75
         0
 76
         1
 98
        1
 10
0.0
 20
0.0
  0
CIRCLE
  5
480
100
AcDbEntity
  8
PART_HOLES_LAYER_TOP
100
AcDbCircle
 10
45.2
 20
8.24
 30
0.0
 40
0.45
  0
HATCH
  5
481
100
AcDbEntity
  8
PART_HOLES_LAYER_TOP
100
AcDbHatch
 10
0.0
 20
0.0
 30
0.0
210
0.0
220
0.0
230
1.0
  2
SOLID
 70
         1
 71
         1
 91
        1
 92
        1
 93
        1
 72
         2
 10
45.200000000000003
 20
8.2400000000000002
 40
0.45
 50
0.0
 51
360.0
 73
         1
 97
        1
330
480
 75
         0
 76
         1
 98
        1
 10
0.0
 20
0.0
  0
CIRCLE
  5
482
100
AcDbEntity
  8
PART_HOLES_LAYER_TOP
100
AcDbCircle
 10
76.72
 20
10.0
 30
0.0
 40
0.45
  0
HATCH
  5
483
100
AcDbEntity
  8
PART_HOLES_LAYER_TOP
100
AcDbHatch
 10
0.0
 20
0.0
 30
0.0
210
0.0
220
0.0
230
1.0
  2
SOLID
 70
         1
 71
         1
 91
        1
 92
        1
 93
        1
 72
         2
 10
76.719999999999999
 20
10.0
 40
0.45
 50
0.0
 51
360.0
 73
         1
 97
        1
330
482
 75
         0
 76
         1
 98
        1
 10
0.0
 20
0.0
  0
CIRCLE
  5
484
100
AcDbEntity
  8
PART_HOLES_LAYER_TOP
100
AcDbCircle
 10
83.72
 20
10.0
 30
0.0
 40
0.45
  0
HATCH
  5
485
100
AcDbEntity
  8
PART_HOLES_LAYER_TOP
100
AcDbHatch
 10
0.0
 20
0.0
 30
0.0
210
0.0
220
0.0
230
1.0
  2
SOLID
 70
         1
 71
         1
 91
        1
 92
        1
 93
        1
 72
         2
 10
83.719999999999999
 20
10.0
 40
0.45
 50
0.0
 51
360.0
 73
         1
 97
        1
330
484
 75
         0
 76
         1
 98
        1
 10
0.0
 20
0.0
  0
CIRCLE
  5
486
100
AcDbEntity
  8
PART_HOLES_LAYER_TOP
100
AcDbCircle
 10
86.82
 20
7.28
 30
0.0
 40
1.25
  0
HATCH
  5
487
100
AcDbEntity
  8
PART_HOLES_LAYER_TOP
100
AcDbHatch
 10
0.0
 20
0.0
 30
0.0
210
0.0
220
0.0
230
1.0
  2
SOLID
 70
         1
 71
         1
 91
        1
 92
        1
 93
        1
 72
         2
 10
86.819999999999993
 20
7.2800000000000002
 40
1.25
 50
0.0
 51
360.0
 73
         1
 97
        1
330
486
 75
         0
 76
         1
 98
        1
 10
0.0
 20
0.0
  0
CIRCLE
  5
488
100
AcDbEntity
  8
PART_HOLES_LAYER_TOP
100
AcDbCircle
 10
73.62
 20
7.28
 30
0.0
 40
1.25
  0
HATCH
  5
489
100
AcDbEntity
  8
PART_HOLES_LAYER_TOP
100
AcDbHatch
 10
0.0
 20
0.0
 30
0.0
210
0.0
220
0.0
230
1.0
  2
SOLID
 70
         1
 71
         1
 91
        1
 92
        1
 93
        1
 72
         2
 10
73.620000000000005
 20
7.2800000000000002
 40
1.25
 50
0.0
 51
360.0
 73
         1
 97
        1
330
488
 75
         0
 76
         1
 98
        1
 10
0.0
 20
0.0
  0
CIRCLE
  5
48A
100
AcDbEntity
  8
PART_HOLES_LAYER_TOP
100
AcDbCircle
 10
79.22
 20
10.0
 30
0.0
 40
0.45
  0
HATCH
  5
48B
100
AcDbEntity
  8
PART_HOLES_LAYER_TOP
100
AcDbHatch
 10
0.0
 20
0.0
 30
0.0
210
0.0
220
0.0
230
1.0
  2
SOLID
 70
         1
 71
         1
 91
        1
 92
        1
 93
        1
 72
         2
 10
79.219999999999999
 20
10.0
 40
0.45
 50
0.0
 51
360.0
 73
         1
 97
        1
330
48A
 75
         0
 76
         1
 98
        1
 10
0.0
 20
0.0
  0
CIRCLE
  5
48C
100
AcDbEntity
  8
PART_HOLES_LAYER_TOP
100
AcDbCircle
 10
81.22
 20
10.0
 30
0.0
 40
0.45
  0
HATCH
  5
48D
100
AcDbEntity
  8
PART_HOLES_LAYER_TOP
100
AcDbHatch
 10
0.0
 20
0.0
 30
0.0
210
0.0
220
0.0
230
1.0
  2
SOLID
 70
         1
 71
         1
 91
        1
 92
        1
 93
        1
 72
         2
 10
81.219999999999999
 20
10.0
 40
0.45
 50
0.0
 51
360.0
 73
         1
 97
        1
330
48C
 75
         0
 76
         1
 98
        1
 10
0.0
 20
0.0
  0
CIRCLE
  5
48E
100
AcDbEntity
  8
PART_HOLES_LAYER_TOP
100
AcDbCircle
 10
67.6
 20
9.7
 30
0.0
 40
0.45
  0
HATCH
  5
48F
100
AcDbEntity
  8
PART_HOLES_LAYER_TOP
100
AcDbHatch
 10
0.0
 20
0.0
 30
0.0
210
0.0
220
0.0
230
1.0
  2
SOLID
 70
         1
 71
         1
 91
        1
 92
        1
 93
        1
 72
         2
 10
67.599999999999994
 20
9.6999999999999993
 40
0.45
 50
0.0
 51
360.0
 73
         1
 97
        1
330
48E
 75
         0
 76
         1
 98
        1
 10
0.0
 20
0.0
  0
CIRCLE
  5
490
100
AcDbEntity
  8
PART_HOLES_LAYER_TOP
100
AcDbCircle
 10
65.06
 20
9.7
 30
0.0
 40
0.45
  0
HATCH
  5
491
100
AcDbEntity
  8
PART_HOLES_LAYER_TOP
100
AcDbHatch
 10
0.0
 20
0.0
 30
0.0
210
0.0
220
0.0
230
1.0
  2
SOLID
 70
         1
 71
         1
 91
        1
 92
        1
 93
        1
 72
         2
 10
65.060000000000002
 20
9.6999999999999993
 40
0.45
 50
0.0
 51
360.0
 73
         1
 97
        1
330
490
 75
         0
 76
         1
 98
        1
 10
0.0
 20
0.0
  0
CIRCLE
  5
492
100
AcDbEntity
  8
PART_HOLES_LAYER_TOP
100
AcDbCircle
 10
-10.7
 20
59.8
 30
0.0
 40
0.45
  0
HATCH
  5
493
100
AcDbEntity
  8
PART_HOLES_LAYER_TOP
100
AcDbHatch
 10
0.0
 20
0.0
 30
0.0
210
0.0
220
0.0
230
1.0
  2
SOLID
 70
         1
 71
         1
 91
        1
 92
        1
 93
        1
 72
         2
 10
-10.699999999999999
 20
59.799999999999997
 40
0.45
 50
0.0
 51
360.0
 73
         1
 97
        1
330
492
 75
         0
 76
         1
 98
        1
 10
0.0
 20
0.0
  0
CIRCLE
  5
494
100
AcDbEntity
  8
PART_HOLES_LAYER_TOP
100
AcDbCircle
 10
-10.7
 20
62.34
 30
0.0
 40
0.45
  0
HATCH
  5
495
100
AcDbEntity
  8
PART_HOLES_LAYER_TOP
100
AcDbHatch
 10
0.0
 20
0.0
 30
0.0
210
0.0
220
0.0
230
1.0
  2
SOLID
 70
         1
 71
         1
 91
        1
 92
        1
 93
        1
 72
         2
 10
-10.699999999999999
 20
62.340000000000003
 40
0.45
 50
0.0
 51
360.0
 73
         1
 97
        1
330
494
 75
         0
 76
         1
 98
        1
 10
0.0
 20
0.0
  0
CIRCLE
  5
496
100
AcDbEntity
  8
PART_HOLES_LAYER_TOP
100
AcDbCircle
 10
44.1
 20
60.0
 30
0.0
 40
0.45
  0
HATCH
  5
497
100
AcDbEntity
  8
PART_HOLES_LAYER_TOP
100
AcDbHatch
 10
0.0
 20
0.0
 30
0.0
210
0.0
220
0.0
230
1.0
  2
SOLID
 70
         1
 71
         1
 91
        1
 92
        1
 93
        1
 72
         2
 10
44.100000000000001
 20
60.0
 40
0.45
 50
0.0
 51
360.0
 73
         1
 97
        1
330
496
 75
         0
 76
         1
 98
        1
 10
0.0
 20
0.0
  0
CIRCLE
  5
498
100
AcDbEntity
  8
PART_HOLES_LAYER_TOP
100
AcDbCircle
 10
44.1
 20
57.46
 30
0.0
 40
0.45
  0
HATCH
  5
499
100
AcDbEntity
  8
PART_HOLES_LAYER_TOP
100
AcDbHatch
 10
0.0
 20
0.0
 30
0.0
210
0.0
220
0.0
230
1.0
  2
SOLID
 70
         1
 71
         1
 91
        1
 92
        1
 93
        1
 72
         2
 10
44.100000000000001
 20
57.460000000000001
 40
0.45
 50
0.0
 51
360.0
 73
         1
 97
        1
330
498
 75
         0
 76
         1
 98
        1
 10
0.0
 20
0.0
  0
CIRCLE
  5
49A
100
AcDbEntity
  8
PART_HOLES_LAYER_TOP
100
AcDbCircle
 10
44.1
 20
54.92
 30
0.0
 40
0.45
  0
HATCH
  5
49B
100
AcDbEntity
  8
PART_HOLES_LAYER_TOP
100
AcDbHatch
 10
0.0
 20
0.0
 30
0.0
210
0.0
220
0.0
230
1.0
  2
SOLID
 70
         1
 71
         1
 91
        1
 92
        1
 93
        1
 72
         2
 10
44.100000000000001
 20
54.920000000000002
 40
0.45
 50
0.0
 51
360.0
 73
         1
 97
        1
330
49A
 75
         0
 76
         1
 98
        1
 10
0.0
 20
0.0
  0
CIRCLE
  5
49C
100
AcDbEntity
  8
PART_HOLES_LAYER_TOP
100
AcDbCircle
 10
64.7
 20
4.7
 30
0.0
 40
0.45
  0
HATCH
  5
49D
100
AcDbEntity
  8
PART_HOLES_LAYER_TOP
100
AcDbHatch
 10
0.0
 20
0.0
 30
0.0
210
0.0
220
0.0
230
1.0
  2
SOLID
 70
         1
 71
         1
 91
        1
 92
        1
 93
        1
 72
         2
 10
64.700000000000003
 20
4.7000000000000002
 40
0.45
 50
0.0
 51
360.0
 73
         1
 97
        1
330
49C
 75
         0
 76
         1
 98
        1
 10
0.0
 20
0.0
  0
CIRCLE
  5
49E
100
AcDbEntity
  8
PART_HOLES_LAYER_TOP
100
AcDbCircle
 10
64.7
 20
2.16
 30
0.0
 40
0.45
  0
HATCH
  5
49F
100
AcDbEntity
  8
PART_HOLES_LAYER_TOP
100
AcDbHatch
 10
0.0
 20
0.0
 30
0.0
210
0.0
220
0.0
230
1.0
  2
SOLID
 70
         1
 71
         1
 91
        1
 92
        1
 93
        1
 72
         2
 10
64.700000000000003
 20
2.1600000000000001
 40
0.45
 50
0.0
 51
360.0
 73
         1
 97
        1
330
49E
 75
         0
 76
         1
 98
        1
 10
0.0
 20
0.0
  0
CIRCLE
  5
4A0
100
AcDbEntity
  8
PART_HOLES_LAYER_TOP
100
AcDbCircle
 10
-3.75
 20
28.25
 30
0.0
 40
0.45
  0
HATCH
  5
4A1
100
AcDbEntity
  8
PART_HOLES_LAYER_TOP
100
AcDbHatch
 10
0.0
 20
0.0
 30
0.0
210
0.0
220
0.0
230
1.0
  2
SOLID
 70
         1
 71
         1
 91
        1
 92
        1
 93
        1
 72
         2
 10
-3.75
 20
28.25
 40
0.45
 50
0.0
 51
360.0
 73
         1
 97
        1
330
4A0
 75
         0
 76
         1
 98
        1
 10
0.0
 20
0.0
  0
CIRCLE
  5
4A2
100
AcDbEntity
  8
PART_HOLES_LAYER_TOP
100
AcDbCircle
 10
-6.29
 20
28.25
 30
0.0
 40
0.45
  0
HATCH
  5
4A3
100
AcDbEntity
  8
PART_HOLES_LAYER_TOP
100
AcDbHatch
 10
0.0
 20
0.0
 30
0.0
210
0.0
220
0.0
230
1.0
  2
SOLID
 70
         1
 71
         1
 91
        1
 92
        1
 93
        1
 72
         2
 10
-6.29
 20
28.25
 40
0.45
 50
0.0
 51
360.0
 73
         1
 97
        1
330
4A2
 75
         0
 76
         1
 98
        1
 10
0.0
 20
0.0
  0
CIRCLE
  5
4A4
100
AcDbEntity
  8
PART_HOLES_LAYER_TOP
100
AcDbCircle
 10
101.015
 20
14.15
 30
0.0
 40
0.45
  0
HATCH
  5
4A5
100
AcDbEntity
  8
PART_HOLES_LAYER_TOP
100
AcDbHatch
 10
0.0
 20
0.0
 30
0.0
210
0.0
220
0.0
230
1.0
  2
SOLID
 70
         1
 71
         1
 91
        1
 92
        1
 93
        1
 72
         2
 10
101.015
 20
14.15
 40
0.45
 50
0.0
 51
360.0
 73
         1
 97
        1
330
4A4
 75
         0
 76
         1
 98
        1
 10
0.0
 20
0.0
  0
CIRCLE
  5
4A6
100
AcDbEntity
  8
PART_HOLES_LAYER_TOP
100
AcDbCircle
 10
99.745
 20
16.69
 30
0.0
 40
0.45
  0
HATCH
  5
4A7
100
AcDbEntity
  8
PART_HOLES_LAYER_TOP
100
AcDbHatch
 10
0.0
 20
0.0
 30
0.0
210
0.0
220
0.0
230
1.0
  2
SOLID
 70
         1
 71
         1
 91
        1
 92
        1
 93
        1
 72
         2
 10
99.745000000000005
 20
16.690000000000001
 40
0.45
 50
0.0
 51
360.0
 73
         1
 97
        1
330
4A6
 75
         0
 76
         1
 98
        1
 10
0.0
 20
0.0
  0
CIRCLE
  5
4A8
100
AcDbEntity
  8
PART_HOLES_LAYER_TOP
100
AcDbCircle
 10
94.67
 20
7.8
 30
0.0
 40
1.625
  0
HATCH
  5
4A9
100
AcDbEntity
  8
PART_HOLES_LAYER_TOP
100
AcDbHatch
 10
0.0
 20
0.0
 30
0.0
210
0.0
220
0.0
230
1.0
  2
SOLID
 70
         1
 71
         1
 91
        1
 92
        1
 93
        1
 72
         2
 10
94.670000000000002
 20
7.7999999999999998
 40
1.625
 50
0.0
 51
360.0
 73
         1
 97
        1
330
4A8
 75
         0
 76
         1
 98
        1
 10
0.0
 20
0.0
  0
CIRCLE
  5
4AA
100
AcDbEntity
  8
PART_HOLES_LAYER_TOP
100
AcDbCircle
 10
106.09
 20
7.8
 30
0.0
 40
1.625
  0
HATCH
  5
4AB
100
AcDbEntity
  8
PART_HOLES_LAYER_TOP
100
AcDbHatch
 10
0.0
 20
0.0
 30
0.0
210
0.0
220
0.0
230
1.0
  2
SOLID
 70
         1
 71
         1
 91
        1
 92
        1
 93
        1
 72
         2
 10
106.09
 20
7.7999999999999998
 40
1.625
 50
0.0
 51
360.0
 73
         1
 97
        1
330
4AA
 75
         0
 76
         1
 98
        1
 10
0.0
 20
0.0
  0
CIRCLE
  5
4AC
100
AcDbEntity
  8
PART_HOLES_LAYER_TOP
100
AcDbCircle
 10
108.25
 20
10.85
 30
0.0
 40
0.95
  0
HATCH
  5
4AD
100
AcDbEntity
  8
PART_HOLES_LAYER_TOP
100
AcDbHatch
 10
0.0
 20
0.0
 30
0.0
210
0.0
220
0.0
230
1.0
  2
SOLID
 70
         1
 71
         1
 91
        1
 92
        1
 93
        1
 72
         2
 10
108.25
 20
10.85
 40
0.95
 50
0.0
 51
360.0
 73
         1
 97
        1
330
4AC
 75
         0
 76
         1
 98
        1
 10
0.0
 20
0.0
  0
CIRCLE
  5
4AE
100
AcDbEntity
  8
PART_HOLES_LAYER_TOP
100
AcDbCircle
 10
95.935
 20
14.15
 30
0.0
 40
0.45
  0
HATCH
  5
4AF
100
AcDbEntity
  8
PART_HOLES_LAYER_TOP
100
AcDbHatch
 10
0.0
 20
0.0
 30
0.0
210
0.0
220
0.0
230
1.0
  2
SOLID
 70
         1
 71
         1
 91
        1
 92
        1
 93
        1
 72
         2
 10
95.935000000000002
 20
14.15
 40
0.45
 50
0.0
 51
360.0
 73
         1
 97
        1
330
4AE
 75
         0
 76
         1
 98
        1
 10
0.0
 20
0.0
  0
CIRCLE
  5
4B0
100
AcDbEntity
  8
PART_HOLES_LAYER_TOP
100
AcDbCircle
 10
94.05
 20
2.72
 30
0.0
 40
0.6
  0
HATCH
  5
4B1
100
AcDbEntity
  8
PART_HOLES_LAYER_TOP
100
AcDbHatch
 10
0.0
 20
0.0
 30
0.0
210
0.0
220
0.0
230
1.0
  2
SOLID
 70
         1
 71
         1
 91
        1
 92
        1
 93
        1
 72
         2
 10
94.049999999999997
 20
2.7200000000000002
 40
0.6
 50
0.0
 51
360.0
 73
         1
 97
        1
330
4B0
 75
         0
 76
         1
 98
        1
 10
0.0
 20
0.0
  0
CIRCLE
  5
4B2
100
AcDbEntity
  8
PART_HOLES_LAYER_TOP
100
AcDbCircle
 10
94.92
 20
21.52
 30
0.0
 40
0.75
  0
HATCH
  5
4B3
100
AcDbEntity
  8
PART_HOLES_LAYER_TOP
100
AcDbHatch
 10
0.0
 20
0.0
 30
0.0
210
0.0
220
0.0
230
1.0
  2
SOLID
 70
         1
 71
         1
 91
        1
 92
        1
 93
        1
 72
         2
 10
94.920000000000002
 20
21.52
 40
0.75
 50
0.0
 51
360.0
 73
         1
 97
        1
330
4B2
 75
         0
 76
         1
 98
        1
 10
0.0
 20
0.0
  0
CIRCLE
  5
4B4
100
AcDbEntity
  8
PART_HOLES_LAYER_TOP
100
AcDbCircle
 10
106.71
 20
4.42
 30
0.0
 40
0.6
  0
HATCH
  5
4B5
100
AcDbEntity
  8
PART_HOLES_LAYER_TOP
100
AcDbHatch
 10
0.0
 20
0.0
 30
0.0
210
0.0
220
0.0
230
1.0
  2
SOLID
 70
         1
 71
         1
 91
        1
 92
        1
 93
        1
 72
         2
 10
106.70999999999999
 20
4.4199999999999999
 40
0.6
 50
0.0
 51
360.0
 73
         1
 97
        1
330
4B4
 75
         0
 76
         1
 98
        1
 10
0.0
 20
0.0
  0
CIRCLE
  5
4B6
100
AcDbEntity
  8
PART_HOLES_LAYER_TOP
100
AcDbCircle
 10
105.84
 20
21.52
 30
0.0
 40
0.75
  0
HATCH
  5
4B7
100
AcDbEntity
  8
PART_HOLES_LAYER_TOP
100
AcDbHatch
 10
0.0
 20
0.0
 30
0.0
210
0.0
220
0.0
230
1.0
  2
SOLID
 70
         1
 71
         1
 91
        1
 92
        1
 93
        1
 72
         2
 10
105.84
 20
21.52
 40
0.75
 50
0.0
 51
360.0
 73
         1
 97
        1
330
4B6
 75
         0
 76
         1
 98
        1
 10
0.0
 20
0.0
  0
CIRCLE
  5
4B8
100
AcDbEntity
  8
PART_HOLES_LAYER_TOP
100
AcDbCircle
 10
96.59
 20
4.42
 30
0.0
 40
0.6
  0
HATCH
  5
4B9
100
AcDbEntity
  8
PART_HOLES_LAYER_TOP
100
AcDbHatch
 10
0.0
 20
0.0
 30
0.0
210
0.0
220
0.0
230
1.0
  2
SOLID
 70
         1
 71
         1
 91
        1
 92
        1
 93
        1
 72
         2
 10
96.590000000000003
 20
4.4199999999999999
 40
0.6
 50
0.0
 51
360.0
 73
         1
 97
        1
330
4B8
 75
         0
 76
         1
 98
        1
 10
0.0
 20
0.0
  0
CIRCLE
  5
4BA
100
AcDbEntity
  8
PART_HOLES_LAYER_TOP
100
AcDbCircle
 10
97.46
 20
21.52
 30
0.0
 40
0.75
  0
HATCH
  5
4BB
100
AcDbEntity
  8
PART_HOLES_LAYER_TOP
100
AcDbHatch
 10
0.0
 20
0.0
 30
0.0
210
0.0
220
0.0
230
1.0
  2
SOLID
 70
         1
 71
         1
 91
        1
 92
        1
 93
        1
 72
         2
 10
97.459999999999994
 20
21.52
 40
0.75
 50
0.0
 51
360.0
 73
         1
 97
        1
330
4BA
 75
         0
 76
         1
 98
        1
 10
0.0
 20
0.0
  0
CIRCLE
  5
4BC
100
AcDbEntity
  8
PART_HOLES_LAYER_TOP
100
AcDbCircle
 10
104.17
 20
2.72
 30
0.0
 40
0.6
  0
HATCH
  5
4BD
100
AcDbEntity
  8
PART_HOLES_LAYER_TOP
100
AcDbHatch
 10
0.0
 20
0.0
 30
0.0
210
0.0
220
0.0
230
1.0
  2
SOLID
 70
         1
 71
         1
 91
        1
 92
        1
 93
        1
 72
         2
 10
104.17
 20
2.7200000000000002
 40
0.6
 50
0.0
 51
360.0
 73
         1
 97
        1
330
4BC
 75
         0
 76
         1
 98
        1
 10
0.0
 20
0.0
  0
CIRCLE
  5
4BE
100
AcDbEntity
  8
PART_HOLES_LAYER_TOP
100
AcDbCircle
 10
103.3
 20
21.52
 30
0.0
 40
0.75
  0
HATCH
  5
4BF
100
AcDbEntity
  8
PART_HOLES_LAYER_TOP
100
AcDbHatch
 10
0.0
 20
0.0
 30
0.0
210
0.0
220
0.0
230
1.0
  2
SOLID
 70
         1
 71
         1
 91
        1
 92
        1
 93
        1
 72
         2
 10
103.3
 20
21.52
 40
0.75
 50
0.0
 51
360.0
 73
         1
 97
        1
330
4BE
 75
         0
 76
         1
 98
        1
 10
0.0
 20
0.0
  0
CIRCLE
  5
4C0
100
AcDbEntity
  8
PART_HOLES_LAYER_TOP
100
AcDbCircle
 10
103.555
 20
14.15
 30
0.0
 40
0.45
  0
HATCH
  5
4C1
100
AcDbEntity
  8
PART_HOLES_LAYER_TOP
100
AcDbHatch
 10
0.0
 20
0.0
 30
0.0
210
0.0
220
0.0
230
1.0
  2
SOLID
 70
         1
 71
         1
 91
        1
 92
        1
 93
        1
 72
         2
 10
103.55500000000001
 20
14.15
 40
0.45
 50
0.0
 51
360.0
 73
         1
 97
        1
330
4C0
 75
         0
 76
         1
 98
        1
 10
0.0
 20
0.0
  0
CIRCLE
  5
4C2
100
AcDbEntity
  8
PART_HOLES_LAYER_TOP
100
AcDbCircle
 10
104.825
 20
16.69
 30
0.0
 40
0.45
  0
HATCH
  5
4C3
100
AcDbEntity
  8
PART_HOLES_LAYER_TOP
100
AcDbHatch
 10
0.0
 20
0.0
 30
0.0
210
0.0
220
0.0
230
1.0
  2
SOLID
 70
         1
 71
         1
 91
        1
 92
        1
 93
        1
 72
         2
 10
104.825
 20
16.690000000000001
 40
0.45
 50
0.0
 51
360.0
 73
         1
 97
        1
330
4C2
 75
         0
 76
         1
 98
        1
 10
0.0
 20
0.0
  0
CIRCLE
  5
4C4
100
AcDbEntity
  8
PART_HOLES_LAYER_TOP
100
AcDbCircle
 10
97.205
 20
16.69
 30
0.0
 40
0.45
  0
HATCH
  5
4C5
100
AcDbEntity
  8
PART_HOLES_LAYER_TOP
100
AcDbHatch
 10
0.0
 20
0.0
 30
0.0
210
0.0
220
0.0
230
1.0
  2
SOLID
 70
         1
 71
         1
 91
        1
 92
        1
 93
        1
 72
         2
 10
97.204999999999998
 20
16.690000000000001
 40
0.45
 50
0.0
 51
360.0
 73
         1
 97
        1
330
4C4
 75
         0
 76
         1
 98
        1
 10
0.0
 20
0.0
  0
CIRCLE
  5
4C6
100
AcDbEntity
  8
PART_HOLES_LAYER_TOP
100
AcDbCircle
 10
92.51
 20
10.85
 30
0.0
 40
0.95
  0
HATCH
  5
4C7
100
AcDbEntity
  8
PART_HOLES_LAYER_TOP
100
AcDbHatch
 10
0.0
 20
0.0
 30
0.0
210
0.0
220
0.0
230
1.0
  2
SOLID
 70
         1
 71
         1
 91
        1
 92
        1
 93
        1
 72
         2
 10
92.510000000000005
 20
10.85
 40
0.95
 50
0.0
 51
360.0
 73
         1
 97
        1
330
4C6
 75
         0
 76
         1
 98
        1
 10
0.0
 20
0.0
  0
CIRCLE
  5
4C8
100
AcDbEntity
  8
PART_HOLES_LAYER_TOP
100
AcDbCircle
 10
102.285
 20
16.69
 30
0.0
 40
0.45
  0
HATCH
  5
4C9
100
AcDbEntity
  8
PART_HOLES_LAYER_TOP
100
AcDbHatch
 10
0.0
 20
0.0
 30
0.0
210
0.0
220
0.0
230
1.0
  2
SOLID
 70
         1
 71
         1
 91
        1
 92
        1
 93
        1
 72
         2
 10
102.285
 20
16.690000000000001
 40
0.45
 50
0.0
 51
360.0
 73
         1
 97
        1
330
4C8
 75
         0
 76
         1
 98
        1
 10
0.0
 20
0.0
  0
CIRCLE
  5
4CA
100
AcDbEntity
  8
PART_HOLES_LAYER_TOP
100
AcDbCircle
 10
98.475
 20
14.15
 30
0.0
 40
0.45
  0
HATCH
  5
4CB
100
AcDbEntity
  8
PART_HOLES_LAYER_TOP
100
AcDbHatch
 10
0.0
 20
0.0
 30
0.0
210
0.0
220
0.0
230
1.0
  2
SOLID
 70
         1
 71
         1
 91
        1
 92
        1
 93
        1
 72
         2
 10
98.474999999999994
 20
14.15
 40
0.45
 50
0.0
 51
360.0
 73
         1
 97
        1
330
4CA
 75
         0
 76
         1
 98
        1
 10
0.0
 20
0.0
  0
CIRCLE
  5
4CC
100
AcDbEntity
  8
PART_HOLES_LAYER_TOP
100
AcDbCircle
 10
87.4
 20
21.3
 30
0.0
 40
0.45
  0
HATCH
  5
4CD
100
AcDbEntity
  8
PART_HOLES_LAYER_TOP
100
AcDbHatch
 10
0.0
 20
0.0
 30
0.0
210
0.0
220
0.0
230
1.0
  2
SOLID
 70
         1
 71
         1
 91
        1
 92
        1
 93
        1
 72
         2
 10
87.400000000000006
 20
21.300000000000001
 40
0.45
 50
0.0
 51
360.0
 73
         1
 97
        1
330
4CC
 75
         0
 76
         1
 98
        1
 10
0.0
 20
0.0
  0
CIRCLE
  5
4CE
100
AcDbEntity
  8
PART_HOLES_LAYER_TOP
100
AcDbCircle
 10
89.94
 20
21.3
 30
0.0
 40
0.45
  0
HATCH
  5
4CF
100
AcDbEntity
  8
PART_HOLES_LAYER_TOP
100
AcDbHatch
 10
0.0
 20
0.0
 30
0.0
210
0.0
220
0.0
230
1.0
  2
SOLID
 70
         1
 71
         1
 91
        1
 92
        1
 93
        1
 72
         2
 10
89.939999999999998
 20
21.300000000000001
 40
0.45
 50
0.0
 51
360.0
 73
         1
 97
        1
330
4CE
 75
         0
 76
         1
 98
        1
 10
0.0
 20
0.0
  0
CIRCLE
  5
4D0
100
AcDbEntity
  8
PART_HOLES_LAYER_TOP
100
AcDbCircle
 10
-18.079998
 20
7.549998
 30
0.0
 40
1.4
  0
HATCH
  5
4D1
100
AcDbEntity
  8
PART_HOLES_LAYER_TOP
100
AcDbHatch
 10
0.0
 20
0.0
 30
0.0
210
0.0
220
0.0
230
1.0
  2
SOLID
 70
         1
 71
         1
 91
        1
 92
        1
 93
        1
 72
         2
 10
-18.079998
 20
7.5499980000000004
 40
1.3999999999999999
 50
0.0
 51
360.0
 73
         1
 97
        1
330
4D0
 75
         0
 76
         1
 98
        1
 10
0.0
 20
0.0
  0
CIRCLE
  5
4D2
100
AcDbEntity
  8
PART_HOLES_LAYER_TOP
100
AcDbCircle
 10
-22.779998
 20
4.55
 30
0.0
 40
1.4
  0
HATCH
  5
4D3
100
AcDbEntity
  8
PART_HOLES_LAYER_TOP
100
AcDbHatch
 10
0.0
 20
0.0
 30
0.0
210
0.0
220
0.0
230
1.0
  2
SOLID
 70
         1
 71
         1
 91
        1
 92
        1
 93
        1
 72
         2
 10
-22.779997999999999
 20
4.5499999999999998
 40
1.3999999999999999
 50
0.0
 51
360.0
 73
         1
 97
        1
330
4D2
 75
         0
 76
         1
 98
        1
 10
0.0
 20
0.0
  0
CIRCLE
  5
4D4
100
AcDbEntity
  8
PART_HOLES_LAYER_TOP
100
AcDbCircle
 10
-22.779998
 20
10.75
 30
0.0
 40
1.4
  0
HATCH
  5
4D5
100
AcDbEntity
  8
PART_HOLES_LAYER_TOP
100
AcDbHatch
 10
0.0
 20
0.0
 30
0.0
210
0.0
220
0.0
230
1.0
  2
SOLID
 70
         1
 71
         1
 91
        1
 92
        1
 93
        1
 72
         2
 10
-22.779997999999999
 20
10.75
 40
1.3999999999999999
 50
0.0
 51
360.0
 73
         1
 97
        1
330
4D4
 75
         0
 76
         1
 98
        1
 10
0.0
 20
0.0
  0
CIRCLE
  5
4D6
100
AcDbEntity
  8
PART_HOLES_LAYER_TOP
100
AcDbCircle
 10
21.3
 20
17.65
 30
0.0
 40
0.45
  0
HATCH
  5
4D7
100
AcDbEntity
  8
PART_HOLES_LAYER_TOP
100
AcDbHatch
 10
0.0
 20
0.0
 30
0.0
210
0.0
220
0.0
230
1.0
  2
SOLID
 70
         1
 71
         1
 91
        1
 92
        1
 93
        1
 72
         2
 10
21.300000000000001
 20
17.649999999999999
 40
0.45
 50
0.0
 51
360.0
 73
         1
 97
        1
330
4D6
 75
         0
 76
         1
 98
        1
 10
0.0
 20
0.0
  0
CIRCLE
  5
4D8
100
AcDbEntity
  8
PART_HOLES_LAYER_TOP
100
AcDbCircle
 10
34.0
 20
17.65
 30
0.0
 40
0.45
  0
HATCH
  5
4D9
100
AcDbEntity
  8
PART_HOLES_LAYER_TOP
100
AcDbHatch
 10
0.0
 20
0.0
 30
0.0
210
0.0
220
0.0
230
1.0
  2
SOLID
 70
         1
 71
         1
 91
        1
 92
        1
 93
        1
 72
         2
 10
34.0
 20
17.649999999999999
 40
0.45
 50
0.0
 51
360.0
 73
         1
 97
        1
330
4D8
 75
         0
 76
         1
 98
        1
 10
0.0
 20
0.0
  0
CIRCLE
  5
4DA
100
AcDbEntity
  8
PART_HOLES_LAYER_TOP
100
AcDbCircle
 10
26.38
 20
17.65
 30
0.0
 40
0.45
  0
HATCH
  5
4DB
100
AcDbEntity
  8
PART_HOLES_LAYER_TOP
100
AcDbHatch
 10
0.0
 20
0.0
 30
0.0
210
0.0
220
0.0
230
1.0
  2
SOLID
 70
         1
 71
         1
 91
        1
 92
        1
 93
        1
 72
         2
 10
26.379999999999999
 20
17.649999999999999
 40
0.45
 50
0.0
 51
360.0
 73
         1
 97
        1
330
4DA
 75
         0
 76
         1
 98
        1
 10
0.0
 20
0.0
  0
CIRCLE
  5
4DC
100
AcDbEntity
  8
PART_HOLES_LAYER_TOP
100
AcDbCircle
 10
23.84
 20
17.65
 30
0.0
 40
0.45
  0
HATCH
  5
4DD
100
AcDbEntity
  8
PART_HOLES_LAYER_TOP
100
AcDbHatch
 10
0.0
 20
0.0
 30
0.0
210
0.0
220
0.0
230
1.0
  2
SOLID
 70
         1
 71
         1
 91
        1
 92
        1
 93
        1
 72
         2
 10
23.84
 20
17.649999999999999
 40
0.45
 50
0.0
 51
360.0
 73
         1
 97
        1
330
4DC
 75
         0
 76
         1
 98
        1
 10
0.0
 20
0.0
  0
CIRCLE
  5
4DE
100
AcDbEntity
  8
PART_HOLES_LAYER_TOP
100
AcDbCircle
 10
31.46
 20
17.65
 30
0.0
 40
0.45
  0
HATCH
  5
4DF
100
AcDbEntity
  8
PART_HOLES_LAYER_TOP
100
AcDbHatch
 10
0.0
 20
0.0
 30
0.0
210
0.0
220
0.0
230
1.0
  2
SOLID
 70
         1
 71
         1
 91
        1
 92
        1
 93
        1
 72
         2
 10
31.460000000000001
 20
17.649999999999999
 40
0.45
 50
0.0
 51
360.0
 73
         1
 97
        1
330
4DE
 75
         0
 76
         1
 98
        1
 10
0.0
 20
0.0
  0
CIRCLE
  5
4E0
100
AcDbEntity
  8
PART_HOLES_LAYER_TOP
100
AcDbCircle
 10
28.92
 20
17.65
 30
0.0
 40
0.45
  0
HATCH
  5
4E1
100
AcDbEntity
  8
PART_HOLES_LAYER_TOP
100
AcDbHatch
 10
0.0
 20
0.0
 30
0.0
210
0.0
220
0.0
230
1.0
  2
SOLID
 70
         1
 71
         1
 91
        1
 92
        1
 93
        1
 72
         2
 10
28.920000000000002
 20
17.649999999999999
 40
0.45
 50
0.0
 51
360.0
 73
         1
 97
        1
330
4E0
 75
         0
 76
         1
 98
        1
 10
0.0
 20
0.0
  0
CIRCLE
  5
4E2
100
AcDbEntity
  8
PART_HOLES_LAYER_TOP
100
AcDbCircle
 10
84.7
 20
43.5
 30
0.0
 40
0.35
  0
HATCH
  5
4E3
100
AcDbEntity
  8
PART_HOLES_LAYER_TOP
100
AcDbHatch
 10
0.0
 20
0.0
 30
0.0
210
0.0
220
0.0
230
1.0
  2
SOLID
 70
         1
 71
         1
 91
        1
 92
        1
 93
        1
 72
         2
 10
84.700000000000003
 20
43.5
 40
0.35
 50
0.0
 51
360.0
 73
         1
 97
        1
330
4E2
 75
         0
 76
         1
 98
        1
 10
0.0
 20
0.0
  0
CIRCLE
  5
4E4
100
AcDbEntity
  8
PART_HOLES_LAYER_TOP
100
AcDbCircle
 10
84.7
 20
47.31
 30
0.0
 40
0.35
  0
HATCH
  5
4E5
100
AcDbEntity
  8
PART_HOLES_LAYER_TOP
100
AcDbHatch
 10
0.0
 20
0.0
 30
0.0
210
0.0
220
0.0
230
1.0
  2
SOLID
 70
         1
 71
         1
 91
        1
 92
        1
 93
        1
 72
         2
 10
84.700000000000003
 20
47.310000000000002
 40
0.35
 50
0.0
 51
360.0
 73
         1
 97
        1
330
4E4
 75
         0
 76
         1
 98
        1
 10
0.0
 20
0.0
  0
CIRCLE
  5
4E6
100
AcDbEntity
  8
PART_HOLES_LAYER_TOP
100
AcDbCircle
 10
84.7
 20
39.69
 30
0.0
 40
0.35
  0
HATCH
  5
4E7
100
AcDbEntity
  8
PART_HOLES_LAYER_TOP
100
AcDbHatch
 10
0.0
 20
0.0
 30
0.0
210
0.0
220
0.0
230
1.0
  2
SOLID
 70
         1
 71
         1
 91
        1
 92
        1
 93
        1
 72
         2
 10
84.700000000000003
 20
39.689999999999998
 40
0.35
 50
0.0
 51
360.0
 73
         1
 97
        1
330
4E6
 75
         0
 76
         1
 98
        1
 10
0.0
 20
0.0
  0
CIRCLE
  5
4E8
100
AcDbEntity
  8
PART_HOLES_LAYER_TOP
100
AcDbCircle
 10
83.697983
 20
44.768972
 30
0.0
 40
0.35
  0
HATCH
  5
4E9
100
AcDbEntity
  8
PART_HOLES_LAYER_TOP
100
AcDbHatch
 10
0.0
 20
0.0
 30
0.0
210
0.0
220
0.0
230
1.0
  2
SOLID
 70
         1
 71
         1
 91
        1
 92
        1
 93
        1
 72
         2
 10
83.697982999999994
 20
44.768971999999998
 40
0.35
 50
0.0
 51
360.0
 73
         1
 97
        1
330
4E8
 75
         0
 76
         1
 98
        1
 10
0.0
 20
0.0
  0
CIRCLE
  5
4EA
100
AcDbEntity
  8
PART_HOLES_LAYER_TOP
100
AcDbCircle
 10
83.697983
 20
46.038972
 30
0.0
 40
0.35
  0
HATCH
  5
4EB
100
AcDbEntity
  8
PART_HOLES_LAYER_TOP
100
AcDbHatch
 10
0.0
 20
0.0
 30
0.0
210
0.0
220
0.0
230
1.0
  2
SOLID
 70
         1
 71
         1
 91
        1
 92
        1
 93
        1
 72
         2
 10
83.697982999999994
 20
46.038972000000001
 40
0.35
 50
0.0
 51
360.0
 73
         1
 97
        1
330
4EA
 75
         0
 76
         1
 98
        1
 10
0.0
 20
0.0
  0
CIRCLE
  5
4EC
100
AcDbEntity
  8
PART_HOLES_LAYER_TOP
100
AcDbCircle
 10
83.697983
 20
40.958972
 30
0.0
 40
0.35
  0
HATCH
  5
4ED
100
AcDbEntity
  8
PART_HOLES_LAYER_TOP
100
AcDbHatch
 10
0.0
 20
0.0
 30
0.0
210
0.0
220
0.0
230
1.0
  2
SOLID
 70
         1
 71
         1
 91
        1
 92
        1
 93
        1
 72
         2
 10
83.697982999999994
 20
40.958972000000003
 40
0.35
 50
0.0
 51
360.0
 73
         1
 97
        1
330
4EC
 75
         0
 76
         1
 98
        1
 10
0.0
 20
0.0
  0
CIRCLE
  5
4EE
100
AcDbEntity
  8
PART_HOLES_LAYER_TOP
100
AcDbCircle
 10
83.697983
 20
42.228972
 30
0.0
 40
0.35
  0
HATCH
  5
4EF
100
AcDbEntity
  8
PART_HOLES_LAYER_TOP
100
AcDbHatch
 10
0.0
 20
0.0
 30
0.0
210
0.0
220
0.0
230
1.0
  2
SOLID
 70
         1
 71
         1
 91
        1
 92
        1
 93
        1
 72
         2
 10
83.697982999999994
 20
42.228971999999999
 40
0.35
 50
0.0
 51
360.0
 73
         1
 97
        1
330
4EE
 75
         0
 76
         1
 98
        1
 10
0.0
 20
0.0
  0
CIRCLE
  5
4F0
100
AcDbEntity
  8
PART_HOLES_LAYER_TOP
100
AcDbCircle
 10
72.2
 20
68.9
 30
0.0
 40
0.45
  0
HATCH
  5
4F1
100
AcDbEntity
  8
PART_HOLES_LAYER_TOP
100
AcDbHatch
 10
0.0
 20
0.0
 30
0.0
210
0.0
220
0.0
230
1.0
  2
SOLID
 70
         1
 71
         1
 91
        1
 92
        1
 93
        1
 72
         2
 10
72.200000000000003
 20
68.900000000000006
 40
0.45
 50
0.0
 51
360.0
 73
         1
 97
        1
330
4F0
 75
         0
 76
         1
 98
        1
 10
0.0
 20
0.0
  0
CIRCLE
  5
4F2
100
AcDbEntity
  8
PART_HOLES_LAYER_TOP
100
AcDbCircle
 10
59.83
 20
63.55
 30
0.0
 40
0.45
  0
HATCH
  5
4F3
100
AcDbEntity
  8
PART_HOLES_LAYER_TOP
100
AcDbHatch
 10
0.0
 20
0.0
 30
0.0
210
0.0
220
0.0
230
1.0
  2
SOLID
 70
         1
 71
         1
 91
        1
 92
        1
 93
        1
 72
         2
 10
59.829999999999998
 20
63.549999999999997
 40
0.45
 50
0.0
 51
360.0
 73
         1
 97
        1
330
4F2
 75
         0
 76
         1
 98
        1
 10
0.0
 20
0.0
  0
CIRCLE
  5
4F4
100
AcDbEntity
  8
PART_HOLES_LAYER_TOP
100
AcDbCircle
 10
62.370002
 20
63.55
 30
0.0
 40
0.45
  0
HATCH
  5
4F5
100
AcDbEntity
  8
PART_HOLES_LAYER_TOP
100
AcDbHatch
 10
0.0
 20
0.0
 30
0.0
210
0.0
220
0.0
230
1.0
  2
SOLID
 70
         1
 71
         1
 91
        1
 92
        1
 93
        1
 72
         2
 10
62.370001999999999
 20
63.549999999999997
 40
0.45
 50
0.0
 51
360.0
 73
         1
 97
        1
330
4F4
 75
         0
 76
         1
 98
        1
 10
0.0
 20
0.0
  0
CIRCLE
  5
4F6
100
AcDbEntity
  8
PART_HOLES_LAYER_TOP
100
AcDbCircle
 10
43.2
 20
82.05
 30
0.0
 40
0.95
  0
HATCH
  5
4F7
100
AcDbEntity
  8
PART_HOLES_LAYER_TOP
100
AcDbHatch
 10
0.0
 20
0.0
 30
0.0
210
0.0
220
0.0
230
1.0
  2
SOLID
 70
         1
 71
         1
 91
        1
 92
        1
 93
        1
 72
         2
 10
43.200000000000003
 20
82.049999999999997
 40
0.95
 50
0.0
 51
360.0
 73
         1
 97
        1
330
4F6
 75
         0
 76
         1
 98
        1
 10
0.0
 20
0.0
  0
CIRCLE
  5
4F8
100
AcDbEntity
  8
PART_HOLES_LAYER_TOP
100
AcDbCircle
 10
45.3
 20
79.55
 30
0.0
 40
0.95
  0
HATCH
  5
4F9
100
AcDbEntity
  8
PART_HOLES_LAYER_TOP
100
AcDbHatch
 10
0.0
 20
0.0
 30
0.0
210
0.0
220
0.0
230
1.0
  2
SOLID
 70
         1
 71
         1
 91
        1
 92
        1
 93
        1
 72
         2
 10
45.299999999999997
 20
79.549999999999997
 40
0.95
 50
0.0
 51
360.0
 73
         1
 97
        1
330
4F8
 75
         0
 76
         1
 98
        1
 10
0.0
 20
0.0
  0
CIRCLE
  5
4FA
100
AcDbEntity
  8
PART_HOLES_LAYER_TOP
100
AcDbCircle
 10
45.3
 20
73.95
 30
0.0
 40
0.95
  0
HATCH
  5
4FB
100
AcDbEntity
  8
PART_HOLES_LAYER_TOP
100
AcDbHatch
 10
0.0
 20
0.0
 30
0.0
210
0.0
220
0.0
230
1.0
  2
SOLID
 70
         1
 71
         1
 91
        1
 92
        1
 93
        1
 72
         2
 10
45.299999999999997
 20
73.950000000000003
 40
0.95
 50
0.0
 51
360.0
 73
         1
 97
        1
330
4FA
 75
         0
 76
         1
 98
        1
 10
0.0
 20
0.0
  0
CIRCLE
  5
4FC
100
AcDbEntity
  8
PART_HOLES_LAYER_TOP
100
AcDbCircle
 10
18.5
 20
10.85
 30
0.0
 40
0.45
  0
HATCH
  5
4FD
100
AcDbEntity
  8
PART_HOLES_LAYER_TOP
100
AcDbHatch
 10
0.0
 20
0.0
 30
0.0
210
0.0
220
0.0
230
1.0
  2
SOLID
 70
         1
 71
         1
 91
        1
 92
        1
 93
        1
 72
         2
 10
18.5
 20
10.85
 40
0.45
 50
0.0
 51
360.0
 73
         1
 97
        1
330
4FC
 75
         0
 76
         1
 98
        1
 10
0.0
 20
0.0
  0
CIRCLE
  5
4FE
100
AcDbEntity
  8
PART_HOLES_LAYER_TOP
100
AcDbCircle
 10
23.58
 20
10.85
 30
0.0
 40
0.45
  0
HATCH
  5
4FF
100
AcDbEntity
  8
PART_HOLES_LAYER_TOP
100
AcDbHatch
 10
0.0
 20
0.0
 30
0.0
210
0.0
220
0.0
230
1.0
  2
SOLID
 70
         1
 71
         1
 91
        1
 92
        1
 93
        1
 72
         2
 10
23.579999999999998
 20
10.85
 40
0.45
 50
0.0
 51
360.0
 73
         1
 97
        1
330
4FE
 75
         0
 76
         1
 98
        1
 10
0.0
 20
0.0
  0
CIRCLE
  5
500
100
AcDbEntity
  8
PART_HOLES_LAYER_TOP
100
AcDbCircle
 10
21.04
 20
10.85
 30
0.0
 40
0.45
  0
HATCH
  5
501
100
AcDbEntity
  8
PART_HOLES_LAYER_TOP
100
AcDbHatch
 10
0.0
 20
0.0
 30
0.0
210
0.0
220
0.0
230
1.0
  2
SOLID
 70
         1
 71
         1
 91
        1
 92
        1
 93
        1
 72
         2
 10
21.039999999999999
 20
10.85
 40
0.45
 50
0.0
 51
360.0
 73
         1
 97
        1
330
500
 75
         0
 76
         1
 98
        1
 10
0.0
 20
0.0
  0
CIRCLE
  5
502
100
AcDbEntity
  8
PART_HOLES_LAYER_TOP
100
AcDbCircle
 10
94.16
 20
64.7
 30
0.0
 40
0.45
  0
HATCH
  5
503
100
AcDbEntity
  8
PART_HOLES_LAYER_TOP
100
AcDbHatch
 10
0.0
 20
0.0
 30
0.0
210
0.0
220
0.0
230
1.0
  2
SOLID
 70
         1
 71
         1
 91
        1
 92
        1
 93
        1
 72
         2
 10
94.159999999999997
 20
64.700000000000003
 40
0.45
 50
0.0
 51
360.0
 73
         1
 97
        1
330
502
 75
         0
 76
         1
 98
        1
 10
0.0
 20
0.0
  0
CIRCLE
  5
504
100
AcDbEntity
  8
PART_HOLES_LAYER_TOP
100
AcDbCircle
 10
96.7
 20
59.62
 30
0.0
 40
0.45
  0
HATCH
  5
505
100
AcDbEntity
  8
PART_HOLES_LAYER_TOP
100
AcDbHatch
 10
0.0
 20
0.0
 30
0.0
210
0.0
220
0.0
230
1.0
  2
SOLID
 70
         1
 71
         1
 91
        1
 92
        1
 93
        1
 72
         2
 10
96.700000000000003
 20
59.619999999999997
 40
0.45
 50
0.0
 51
360.0
 73
         1
 97
        1
330
504
 75
         0
 76
         1
 98
        1
 10
0.0
 20
0.0
  0
CIRCLE
  5
506
100
AcDbEntity
  8
PART_HOLES_LAYER_TOP
100
AcDbCircle
 10
96.7
 20
57.08
 30
0.0
 40
0.45
  0
HATCH
  5
507
100
AcDbEntity
  8
PART_HOLES_LAYER_TOP
100
AcDbHatch
 10
0.0
 20
0.0
 30
0.0
210
0.0
220
0.0
230
1.0
  2
SOLID
 70
         1
 71
         1
 91
        1
 92
        1
 93
        1
 72
         2
 10
96.700000000000003
 20
57.079999999999998
 40
0.45
 50
0.0
 51
360.0
 73
         1
 97
        1
330
506
 75
         0
 76
         1
 98
        1
 10
0.0
 20
0.0
  0
CIRCLE
  5
508
100
AcDbEntity
  8
PART_HOLES_LAYER_TOP
100
AcDbCircle
 10
96.7
 20
54.54
 30
0.0
 40
0.45
  0
HATCH
  5
509
100
AcDbEntity
  8
PART_HOLES_LAYER_TOP
100
AcDbHatch
 10
0.0
 20
0.0
 30
0.0
210
0.0
220
0.0
230
1.0
  2
SOLID
 70
         1
 71
         1
 91
        1
 92
        1
 93
        1
 72
         2
 10
96.700000000000003
 20
54.539999999999999
 40
0.45
 50
0.0
 51
360.0
 73
         1
 97
        1
330
508
 75
         0
 76
         1
 98
        1
 10
0.0
 20
0.0
  0
CIRCLE
  5
50A
100
AcDbEntity
  8
PART_HOLES_LAYER_TOP
100
AcDbCircle
 10
94.16
 20
52.0
 30
0.0
 40
0.45
  0
HATCH
  5
50B
100
AcDbEntity
  8
PART_HOLES_LAYER_TOP
100
AcDbHatch
 10
0.0
 20
0.0
 30
0.0
210
0.0
220
0.0
230
1.0
  2
SOLID
 70
         1
 71
         1
 91
        1
 92
        1
 93
        1
 72
         2
 10
94.159999999999997
 20
52.0
 40
0.45
 50
0.0
 51
360.0
 73
         1
 97
        1
330
50A
 75
         0
 76
         1
 98
        1
 10
0.0
 20
0.0
  0
CIRCLE
  5
50C
100
AcDbEntity
  8
PART_HOLES_LAYER_TOP
100
AcDbCircle
 10
96.7
 20
49.46
 30
0.0
 40
0.45
  0
HATCH
  5
50D
100
AcDbEntity
  8
PART_HOLES_LAYER_TOP
100
AcDbHatch
 10
0.0
 20
0.0
 30
0.0
210
0.0
220
0.0
230
1.0
  2
SOLID
 70
         1
 71
         1
 91
        1
 92
        1
 93
        1
 72
         2
 10
96.700000000000003
 20
49.460000000000001
 40
0.45
 50
0.0
 51
360.0
 73
         1
 97
        1
330
50C
 75
         0
 76
         1
 98
        1
 10
0.0
 20
0.0
  0
CIRCLE
  5
50E
100
AcDbEntity
  8
PART_HOLES_LAYER_TOP
100
AcDbCircle
 10
96.7
 20
46.92
 30
0.0
 40
0.45
  0
HATCH
  5
50F
100
AcDbEntity
  8
PART_HOLES_LAYER_TOP
100
AcDbHatch
 10
0.0
 20
0.0
 30
0.0
210
0.0
220
0.0
230
1.0
  2
SOLID
 70
         1
 71
         1
 91
        1
 92
        1
 93
        1
 72
         2
 10
96.700000000000003
 20
46.920000000000002
 40
0.45
 50
0.0
 51
360.0
 73
         1
 97
        1
330
50E
 75
         0
 76
         1
 98
        1
 10
0.0
 20
0.0
  0
CIRCLE
  5
510
100
AcDbEntity
  8
PART_HOLES_LAYER_TOP
100
AcDbCircle
 10
96.7
 20
44.38
 30
0.0
 40
0.45
  0
HATCH
  5
511
100
AcDbEntity
  8
PART_HOLES_LAYER_TOP
100
AcDbHatch
 10
0.0
 20
0.0
 30
0.0
210
0.0
220
0.0
230
1.0
  2
SOLID
 70
         1
 71
         1
 91
        1
 92
        1
 93
        1
 72
         2
 10
96.700000000000003
 20
44.380000000000003
 40
0.45
 50
0.0
 51
360.0
 73
         1
 97
        1
330
510
 75
         0
 76
         1
 98
        1
 10
0.0
 20
0.0
  0
CIRCLE
  5
512
100
AcDbEntity
  8
PART_HOLES_LAYER_TOP
100
AcDbCircle
 10
96.7
 20
41.84
 30
0.0
 40
0.45
  0
HATCH
  5
513
100
AcDbEntity
  8
PART_HOLES_LAYER_TOP
100
AcDbHatch
 10
0.0
 20
0.0
 30
0.0
210
0.0
220
0.0
230
1.0
  2
SOLID
 70
         1
 71
         1
 91
        1
 92
        1
 93
        1
 72
         2
 10
96.700000000000003
 20
41.840000000000003
 40
0.45
 50
0.0
 51
360.0
 73
         1
 97
        1
330
512
 75
         0
 76
         1
 98
        1
 10
0.0
 20
0.0
  0
CIRCLE
  5
514
100
AcDbEntity
  8
PART_HOLES_LAYER_TOP
100
AcDbCircle
 10
96.7
 20
52.0
 30
0.0
 40
0.45
  0
HATCH
  5
515
100
AcDbEntity
  8
PART_HOLES_LAYER_TOP
100
AcDbHatch
 10
0.0
 20
0.0
 30
0.0
210
0.0
220
0.0
230
1.0
  2
SOLID
 70
         1
 71
         1
 91
        1
 92
        1
 93
        1
 72
         2
 10
96.700000000000003
 20
52.0
 40
0.45
 50
0.0
 51
360.0
 73
         1
 97
        1
330
514
 75
         0
 76
         1
 98
        1
 10
0.0
 20
0.0
  0
CIRCLE
  5
516
100
AcDbEntity
  8
PART_HOLES_LAYER_TOP
100
AcDbCircle
 10
96.7
 20
62.16
 30
0.0
 40
0.45
  0
HATCH
  5
517
100
AcDbEntity
  8
PART_HOLES_LAYER_TOP
100
AcDbHatch
 10
0.0
 20
0.0
 30
0.0
210
0.0
220
0.0
230
1.0
  2
SOLID
 70
         1
 71
         1
 91
        1
 92
        1
 93
        1
 72
         2
 10
96.700000000000003
 20
62.159999999999997
 40
0.45
 50
0.0
 51
360.0
 73
         1
 97
        1
330
516
 75
         0
 76
         1
 98
        1
 10
0.0
 20
0.0
  0
CIRCLE
  5
518
100
AcDbEntity
  8
PART_HOLES_LAYER_TOP
100
AcDbCircle
 10
94.16
 20
46.92
 30
0.0
 40
0.45
  0
HATCH
  5
519
100
AcDbEntity
  8
PART_HOLES_LAYER_TOP
100
AcDbHatch
 10
0.0
 20
0.0
 30
0.0
210
0.0
220
0.0
230
1.0
  2
SOLID
 70
         1
 71
         1
 91
        1
 92
        1
 93
        1
 72
         2
 10
94.159999999999997
 20
46.920000000000002
 40
0.45
 50
0.0
 51
360.0
 73
         1
 97
        1
330
518
 75
         0
 76
         1
 98
        1
 10
0.0
 20
0.0
  0
CIRCLE
  5
51A
100
AcDbEntity
  8
PART_HOLES_LAYER_TOP
100
AcDbCircle
 10
96.7
 20
64.7
 30
0.0
 40
0.45
  0
HATCH
  5
51B
100
AcDbEntity
  8
PART_HOLES_LAYER_TOP
100
AcDbHatch
 10
0.0
 20
0.0
 30
0.0
210
0.0
220
0.0
230
1.0
  2
SOLID
 70
         1
 71
         1
 91
        1
 92
        1
 93
        1
 72
         2
 10
96.700000000000003
 20
64.700000000000003
 40
0.45
 50
0.0
 51
360.0
 73
         1
 97
        1
330
51A
 75
         0
 76
         1
 98
        1
 10
0.0
 20
0.0
  0
CIRCLE
  5
51C
100
AcDbEntity
  8
PART_HOLES_LAYER_TOP
100
AcDbCircle
 10
94.16
 20
54.54
 30
0.0
 40
0.45
  0
HATCH
  5
51D
100
AcDbEntity
  8
PART_HOLES_LAYER_TOP
100
AcDbHatch
 10
0.0
 20
0.0
 30
0.0
210
0.0
220
0.0
230
1.0
  2
SOLID
 70
         1
 71
         1
 91
        1
 92
        1
 93
        1
 72
         2
 10
94.159999999999997
 20
54.539999999999999
 40
0.45
 50
0.0
 51
360.0
 73
         1
 97
        1
330
51C
 75
         0
 76
         1
 98
        1
 10
0.0
 20
0.0
  0
CIRCLE
  5
51E
100
AcDbEntity
  8
PART_HOLES_LAYER_TOP
100
AcDbCircle
 10
94.16
 20
59.62
 30
0.0
 40
0.45
  0
HATCH
  5
51F
100
AcDbEntity
  8
PART_HOLES_LAYER_TOP
100
AcDbHatch
 10
0.0
 20
0.0
 30
0.0
210
0.0
220
0.0
230
1.0
  2
SOLID
 70
         1
 71
         1
 91
        1
 92
        1
 93
        1
 72
         2
 10
94.159999999999997
 20
59.619999999999997
 40
0.45
 50
0.0
 51
360.0
 73
         1
 97
        1
330
51E
 75
         0
 76
         1
 98
        1
 10
0.0
 20
0.0
  0
CIRCLE
  5
520
100
AcDbEntity
  8
PART_HOLES_LAYER_TOP
100
AcDbCircle
 10
94.16
 20
49.46
 30
0.0
 40
0.45
  0
HATCH
  5
521
100
AcDbEntity
  8
PART_HOLES_LAYER_TOP
100
AcDbHatch
 10
0.0
 20
0.0
 30
0.0
210
0.0
220
0.0
230
1.0
  2
SOLID
 70
         1
 71
         1
 91
        1
 92
        1
 93
        1
 72
         2
 10
94.159999999999997
 20
49.460000000000001
 40
0.45
 50
0.0
 51
360.0
 73
         1
 97
        1
330
520
 75
         0
 76
         1
 98
        1
 10
0.0
 20
0.0
  0
CIRCLE
  5
522
100
AcDbEntity
  8
PART_HOLES_LAYER_TOP
100
AcDbCircle
 10
94.16
 20
57.08
 30
0.0
 40
0.45
  0
HATCH
  5
523
100
AcDbEntity
  8
PART_HOLES_LAYER_TOP
100
AcDbHatch
 10
0.0
 20
0.0
 30
0.0
210
0.0
220
0.0
230
1.0
  2
SOLID
 70
         1
 71
         1
 91
        1
 92
        1
 93
        1
 72
         2
 10
94.159999999999997
 20
57.079999999999998
 40
0.45
 50
0.0
 51
360.0
 73
         1
 97
        1
330
522
 75
         0
 76
         1
 98
        1
 10
0.0
 20
0.0
  0
CIRCLE
  5
524
100
AcDbEntity
  8
PART_HOLES_LAYER_TOP
100
AcDbCircle
 10
94.16
 20
62.16
 30
0.0
 40
0.45
  0
HATCH
  5
525
100
AcDbEntity
  8
PART_HOLES_LAYER_TOP
100
AcDbHatch
 10
0.0
 20
0.0
 30
0.0
210
0.0
220
0.0
230
1.0
  2
SOLID
 70
         1
 71
         1
 91
        1
 92
        1
 93
        1
 72
         2
 10
94.159999999999997
 20
62.159999999999997
 40
0.45
 50
0.0
 51
360.0
 73
         1
 97
        1
330
524
 75
         0
 76
         1
 98
        1
 10
0.0
 20
0.0
  0
CIRCLE
  5
526
100
AcDbEntity
  8
PART_HOLES_LAYER_TOP
100
AcDbCircle
 10
94.16
 20
44.38
 30
0.0
 40
0.45
  0
HATCH
  5
527
100
AcDbEntity
  8
PART_HOLES_LAYER_TOP
100
AcDbHatch
 10
0.0
 20
0.0
 30
0.0
210
0.0
220
0.0
230
1.0
  2
SOLID
 70
         1
 71
         1
 91
        1
 92
        1
 93
        1
 72
         2
 10
94.159999999999997
 20
44.380000000000003
 40
0.45
 50
0.0
 51
360.0
 73
         1
 97
        1
330
526
 75
         0
 76
         1
 98
        1
 10
0.0
 20
0.0
  0
CIRCLE
  5
528
100
AcDbEntity
  8
PART_HOLES_LAYER_TOP
100
AcDbCircle
 10
94.16
 20
41.84
 30
0.0
 40
0.45
  0
HATCH
  5
529
100
AcDbEntity
  8
PART_HOLES_LAYER_TOP
100
AcDbHatch
 10
0.0
 20
0.0
 30
0.0
210
0.0
220
0.0
230
1.0
  2
SOLID
 70
         1
 71
         1
 91
        1
 92
        1
 93
        1
 72
         2
 10
94.159999999999997
 20
41.840000000000003
 40
0.45
 50
0.0
 51
360.0
 73
         1
 97
        1
330
528
 75
         0
 76
         1
 98
        1
 10
0.0
 20
0.0
  0
CIRCLE
  5
52A
100
AcDbEntity
  8
PART_HOLES_LAYER_TOP
100
AcDbCircle
 10
24.55
 20
24.75
 30
0.0
 40
0.45
  0
HATCH
  5
52B
100
AcDbEntity
  8
PART_HOLES_LAYER_TOP
100
AcDbHatch
 10
0.0
 20
0.0
 30
0.0
210
0.0
220
0.0
230
1.0
  2
SOLID
 70
         1
 71
         1
 91
        1
 92
        1
 93
        1
 72
         2
 10
24.550000000000001
 20
24.75
 40
0.45
 50
0.0
 51
360.0
 73
         1
 97
        1
330
52A
 75
         0
 76
         1
 98
        1
 10
0.0
 20
0.0
  0
CIRCLE
  5
52C
100
AcDbEntity
  8
PART_HOLES_LAYER_TOP
100
AcDbCircle
 10
22.01
 20
24.75
 30
0.0
 40
0.45
  0
HATCH
  5
52D
100
AcDbEntity
  8
PART_HOLES_LAYER_TOP
100
AcDbHatch
 10
0.0
 20
0.0
 30
0.0
210
0.0
220
0.0
230
1.0
  2
SOLID
 70
         1
 71
         1
 91
        1
 92
        1
 93
        1
 72
         2
 10
22.010000000000002
 20
24.75
 40
0.45
 50
0.0
 51
360.0
 73
         1
 97
        1
330
52C
 75
         0
 76
         1
 98
        1
 10
0.0
 20
0.0
  0
CIRCLE
  5
52E
100
AcDbEntity
  8
PART_HOLES_LAYER_TOP
100
AcDbCircle
 10
22.01
 20
47.61
 30
0.0
 40
0.45
  0
HATCH
  5
52F
100
AcDbEntity
  8
PART_HOLES_LAYER_TOP
100
AcDbHatch
 10
0.0
 20
0.0
 30
0.0
210
0.0
220
0.0
230
1.0
  2
SOLID
 70
         1
 71
         1
 91
        1
 92
        1
 93
        1
 72
         2
 10
22.010000000000002
 20
47.609999999999999
 40
0.45
 50
0.0
 51
360.0
 73
         1
 97
        1
330
52E
 75
         0
 76
         1
 98
        1
 10
0.0
 20
0.0
  0
CIRCLE
  5
530
100
AcDbEntity
  8
PART_HOLES_LAYER_TOP
100
AcDbCircle
 10
22.01
 20
45.07
 30
0.0
 40
0.45
  0
HATCH
  5
531
100
AcDbEntity
  8
PART_HOLES_LAYER_TOP
100
AcDbHatch
 10
0.0
 20
0.0
 30
0.0
210
0.0
220
0.0
230
1.0
  2
SOLID
 70
         1
 71
         1
 91
        1
 92
        1
 93
        1
 72
         2
 10
22.010000000000002
 20
45.07
 40
0.45
 50
0.0
 51
360.0
 73
         1
 97
        1
330
530
 75
         0
 76
         1
 98
        1
 10
0.0
 20
0.0
  0
CIRCLE
  5
532
100
AcDbEntity
  8
PART_HOLES_LAYER_TOP
100
AcDbCircle
 10
24.55
 20
34.91
 30
0.0
 40
0.45
  0
HATCH
  5
533
100
AcDbEntity
  8
PART_HOLES_LAYER_TOP
100
AcDbHatch
 10
0.0
 20
0.0
 30
0.0
210
0.0
220
0.0
230
1.0
  2
SOLID
 70
         1
 71
         1
 91
        1
 92
        1
 93
        1
 72
         2
 10
24.550000000000001
 20
34.909999999999997
 40
0.45
 50
0.0
 51
360.0
 73
         1
 97
        1
330
532
 75
         0
 76
         1
 98
        1
 10
0.0
 20
0.0
  0
CIRCLE
  5
534
100
AcDbEntity
  8
PART_HOLES_LAYER_TOP
100
AcDbCircle
 10
22.01
 20
34.91
 30
0.0
 40
0.45
  0
HATCH
  5
535
100
AcDbEntity
  8
PART_HOLES_LAYER_TOP
100
AcDbHatch
 10
0.0
 20
0.0
 30
0.0
210
0.0
220
0.0
230
1.0
  2
SOLID
 70
         1
 71
         1
 91
        1
 92
        1
 93
        1
 72
         2
 10
22.010000000000002
 20
34.909999999999997
 40
0.45
 50
0.0
 51
360.0
 73
         1
 97
        1
330
534
 75
         0
 76
         1
 98
        1
 10
0.0
 20
0.0
  0
CIRCLE
  5
536
100
AcDbEntity
  8
PART_HOLES_LAYER_TOP
100
AcDbCircle
 10
24.55
 20
27.29
 30
0.0
 40
0.45
  0
HATCH
  5
537
100
AcDbEntity
  8
PART_HOLES_LAYER_TOP
100
AcDbHatch
 10
0.0
 20
0.0
 30
0.0
210
0.0
220
0.0
230
1.0
  2
SOLID
 70
         1
 71
         1
 91
        1
 92
        1
 93
        1
 72
         2
 10
24.550000000000001
 20
27.289999999999999
 40
0.45
 50
0.0
 51
360.0
 73
         1
 97
        1
330
536
 75
         0
 76
         1
 98
        1
 10
0.0
 20
0.0
  0
CIRCLE
  5
538
100
AcDbEntity
  8
PART_HOLES_LAYER_TOP
100
AcDbCircle
 10
22.01
 20
27.29
 30
0.0
 40
0.45
  0
HATCH
  5
539
100
AcDbEntity
  8
PART_HOLES_LAYER_TOP
100
AcDbHatch
 10
0.0
 20
0.0
 30
0.0
210
0.0
220
0.0
230
1.0
  2
SOLID
 70
         1
 71
         1
 91
        1
 92
        1
 93
        1
 72
         2
 10
22.010000000000002
 20
27.289999999999999
 40
0.45
 50
0.0
 51
360.0
 73
         1
 97
        1
330
538
 75
         0
 76
         1
 98
        1
 10
0.0
 20
0.0
  0
CIRCLE
  5
53A
100
AcDbEntity
  8
PART_HOLES_LAYER_TOP
100
AcDbCircle
 10
24.55
 20
29.83
 30
0.0
 40
0.45
  0
HATCH
  5
53B
100
AcDbEntity
  8
PART_HOLES_LAYER_TOP
100
AcDbHatch
 10
0.0
 20
0.0
 30
0.0
210
0.0
220
0.0
230
1.0
  2
SOLID
 70
         1
 71
         1
 91
        1
 92
        1
 93
        1
 72
         2
 10
24.550000000000001
 20
29.829999999999998
 40
0.45
 50
0.0
 51
360.0
 73
         1
 97
        1
330
53A
 75
         0
 76
         1
 98
        1
 10
0.0
 20
0.0
  0
CIRCLE
  5
53C
100
AcDbEntity
  8
PART_HOLES_LAYER_TOP
100
AcDbCircle
 10
22.01
 20
29.83
 30
0.0
 40
0.45
  0
HATCH
  5
53D
100
AcDbEntity
  8
PART_HOLES_LAYER_TOP
100
AcDbHatch
 10
0.0
 20
0.0
 30
0.0
210
0.0
220
0.0
230
1.0
  2
SOLID
 70
         1
 71
         1
 91
        1
 92
        1
 93
        1
 72
         2
 10
22.010000000000002
 20
29.829999999999998
 40
0.45
 50
0.0
 51
360.0
 73
         1
 97
        1
330
53C
 75
         0
 76
         1
 98
        1
 10
0.0
 20
0.0
  0
CIRCLE
  5
53E
100
AcDbEntity
  8
PART_HOLES_LAYER_TOP
100
AcDbCircle
 10
24.55
 20
32.37
 30
0.0
 40
0.45
  0
HATCH
  5
53F
100
AcDbEntity
  8
PART_HOLES_LAYER_TOP
100
AcDbHatch
 10
0.0
 20
0.0
 30
0.0
210
0.0
220
0.0
230
1.0
  2
SOLID
 70
         1
 71
         1
 91
        1
 92
        1
 93
        1
 72
         2
 10
24.550000000000001
 20
32.369999999999997
 40
0.45
 50
0.0
 51
360.0
 73
         1
 97
        1
330
53E
 75
         0
 76
         1
 98
        1
 10
0.0
 20
0.0
  0
CIRCLE
  5
540
100
AcDbEntity
  8
PART_HOLES_LAYER_TOP
100
AcDbCircle
 10
22.01
 20
32.37
 30
0.0
 40
0.45
  0
HATCH
  5
541
100
AcDbEntity
  8
PART_HOLES_LAYER_TOP
100
AcDbHatch
 10
0.0
 20
0.0
 30
0.0
210
0.0
220
0.0
230
1.0
  2
SOLID
 70
         1
 71
         1
 91
        1
 92
        1
 93
        1
 72
         2
 10
22.010000000000002
 20
32.369999999999997
 40
0.45
 50
0.0
 51
360.0
 73
         1
 97
        1
330
540
 75
         0
 76
         1
 98
        1
 10
0.0
 20
0.0
  0
CIRCLE
  5
542
100
AcDbEntity
  8
PART_HOLES_LAYER_TOP
100
AcDbCircle
 10
24.55
 20
37.45
 30
0.0
 40
0.45
  0
HATCH
  5
543
100
AcDbEntity
  8
PART_HOLES_LAYER_TOP
100
AcDbHatch
 10
0.0
 20
0.0
 30
0.0
210
0.0
220
0.0
230
1.0
  2
SOLID
 70
         1
 71
         1
 91
        1
 92
        1
 93
        1
 72
         2
 10
24.550000000000001
 20
37.450000000000003
 40
0.45
 50
0.0
 51
360.0
 73
         1
 97
        1
330
542
 75
         0
 76
         1
 98
        1
 10
0.0
 20
0.0
  0
CIRCLE
  5
544
100
AcDbEntity
  8
PART_HOLES_LAYER_TOP
100
AcDbCircle
 10
22.01
 20
37.45
 30
0.0
 40
0.45
  0
HATCH
  5
545
100
AcDbEntity
  8
PART_HOLES_LAYER_TOP
100
AcDbHatch
 10
0.0
 20
0.0
 30
0.0
210
0.0
220
0.0
230
1.0
  2
SOLID
 70
         1
 71
         1
 91
        1
 92
        1
 93
        1
 72
         2
 10
22.010000000000002
 20
37.450000000000003
 40
0.45
 50
0.0
 51
360.0
 73
         1
 97
        1
330
544
 75
         0
 76
         1
 98
        1
 10
0.0
 20
0.0
  0
CIRCLE
  5
546
100
AcDbEntity
  8
PART_HOLES_LAYER_TOP
100
AcDbCircle
 10
24.55
 20
47.61
 30
0.0
 40
0.45
  0
HATCH
  5
547
100
AcDbEntity
  8
PART_HOLES_LAYER_TOP
100
AcDbHatch
 10
0.0
 20
0.0
 30
0.0
210
0.0
220
0.0
230
1.0
  2
SOLID
 70
         1
 71
         1
 91
        1
 92
        1
 93
        1
 72
         2
 10
24.550000000000001
 20
47.609999999999999
 40
0.45
 50
0.0
 51
360.0
 73
         1
 97
        1
330
546
 75
         0
 76
         1
 98
        1
 10
0.0
 20
0.0
  0
CIRCLE
  5
548
100
AcDbEntity
  8
PART_HOLES_LAYER_TOP
100
AcDbCircle
 10
24.55
 20
42.53
 30
0.0
 40
0.45
  0
HATCH
  5
549
100
AcDbEntity
  8
PART_HOLES_LAYER_TOP
100
AcDbHatch
 10
0.0
 20
0.0
 30
0.0
210
0.0
220
0.0
230
1.0
  2
SOLID
 70
         1
 71
         1
 91
        1
 92
        1
 93
        1
 72
         2
 10
24.550000000000001
 20
42.530000000000001
 40
0.45
 50
0.0
 51
360.0
 73
         1
 97
        1
330
548
 75
         0
 76
         1
 98
        1
 10
0.0
 20
0.0
  0
CIRCLE
  5
54A
100
AcDbEntity
  8
PART_HOLES_LAYER_TOP
100
AcDbCircle
 10
22.01
 20
42.53
 30
0.0
 40
0.45
  0
HATCH
  5
54B
100
AcDbEntity
  8
PART_HOLES_LAYER_TOP
100
AcDbHatch
 10
0.0
 20
0.0
 30
0.0
210
0.0
220
0.0
230
1.0
  2
SOLID
 70
         1
 71
         1
 91
        1
 92
        1
 93
        1
 72
         2
 10
22.010000000000002
 20
42.530000000000001
 40
0.45
 50
0.0
 51
360.0
 73
         1
 97
        1
330
54A
 75
         0
 76
         1
 98
        1
 10
0.0
 20
0.0
  0
CIRCLE
  5
54C
100
AcDbEntity
  8
PART_HOLES_LAYER_TOP
100
AcDbCircle
 10
24.55
 20
45.07
 30
0.0
 40
0.45
  0
HATCH
  5
54D
100
AcDbEntity
  8
PART_HOLES_LAYER_TOP
100
AcDbHatch
 10
0.0
 20
0.0
 30
0.0
210
0.0
220
0.0
230
1.0
  2
SOLID
 70
         1
 71
         1
 91
        1
 92
        1
 93
        1
 72
         2
 10
24.550000000000001
 20
45.07
 40
0.45
 50
0.0
 51
360.0
 73
         1
 97
        1
330
54C
 75
         0
 76
         1
 98
        1
 10
0.0
 20
0.0
  0
CIRCLE
  5
54E
100
AcDbEntity
  8
PART_HOLES_LAYER_TOP
100
AcDbCircle
 10
22.01
 20
39.99
 30
0.0
 40
0.45
  0
HATCH
  5
54F
100
AcDbEntity
  8
PART_HOLES_LAYER_TOP
100
AcDbHatch
 10
0.0
 20
0.0
 30
0.0
210
0.0
220
0.0
230
1.0
  2
SOLID
 70
         1
 71
         1
 91
        1
 92
        1
 93
        1
 72
         2
 10
22.010000000000002
 20
39.990000000000002
 40
0.45
 50
0.0
 51
360.0
 73
         1
 97
        1
330
54E
 75
         0
 76
         1
 98
        1
 10
0.0
 20
0.0
  0
CIRCLE
  5
550
100
AcDbEntity
  8
PART_HOLES_LAYER_TOP
100
AcDbCircle
 10
24.55
 20
39.99
 30
0.0
 40
0.45
  0
HATCH
  5
551
100
AcDbEntity
  8
PART_HOLES_LAYER_TOP
100
AcDbHatch
 10
0.0
 20
0.0
 30
0.0
210
0.0
220
0.0
230
1.0
  2
SOLID
 70
         1
 71
         1
 91
        1
 92
        1
 93
        1
 72
         2
 10
24.550000000000001
 20
39.990000000000002
 40
0.45
 50
0.0
 51
360.0
 73
         1
 97
        1
330
550
 75
         0
 76
         1
 98
        1
 10
0.0
 20
0.0
  0
CIRCLE
  5
552
100
AcDbEntity
  8
PART_HOLES_LAYER_TOP
100
AcDbCircle
 10
48.25
 20
80.95
 30
0.0
 40
0.45
  0
HATCH
  5
553
100
AcDbEntity
  8
PART_HOLES_LAYER_TOP
100
AcDbHatch
 10
0.0
 20
0.0
 30
0.0
210
0.0
220
0.0
230
1.0
  2
SOLID
 70
         1
 71
         1
 91
        1
 92
        1
 93
        1
 72
         2
 10
48.25
 20
80.950000000000003
 40
0.45
 50
0.0
 51
360.0
 73
         1
 97
        1
330
552
 75
         0
 76
         1
 98
        1
 10
0.0
 20
0.0
  0
CIRCLE
  5
554
100
AcDbEntity
  8
PART_HOLES_LAYER_TOP
100
AcDbCircle
 10
50.79
 20
80.95
 30
0.0
 40
0.45
  0
HATCH
  5
555
100
AcDbEntity
  8
PART_HOLES_LAYER_TOP
100
AcDbHatch
 10
0.0
 20
0.0
 30
0.0
210
0.0
220
0.0
230
1.0
  2
SOLID
 70
         1
 71
         1
 91
        1
 92
        1
 93
        1
 72
         2
 10
50.789999999999999
 20
80.950000000000003
 40
0.45
 50
0.0
 51
360.0
 73
         1
 97
        1
330
554
 75
         0
 76
         1
 98
        1
 10
0.0
 20
0.0
  0
CIRCLE
  5
556
100
AcDbEntity
  8
PART_HOLES_LAYER_TOP
100
AcDbCircle
 10
51.6
 20
12.5
 30
0.0
 40
0.45
  0
HATCH
  5
557
100
AcDbEntity
  8
PART_HOLES_LAYER_TOP
100
AcDbHatch
 10
0.0
 20
0.0
 30
0.0
210
0.0
220
0.0
230
1.0
  2
SOLID
 70
         1
 71
         1
 91
        1
 92
        1
 93
        1
 72
         2
 10
51.600000000000001
 20
12.5
 40
0.45
 50
0.0
 51
360.0
 73
         1
 97
        1
330
556
 75
         0
 76
         1
 98
        1
 10
0.0
 20
0.0
  0
CIRCLE
  5
558
100
AcDbEntity
  8
PART_HOLES_LAYER_TOP
100
AcDbCircle
 10
59.22
 20
12.5
 30
0.0
 40
0.4
  0
HATCH
  5
559
100
AcDbEntity
  8
PART_HOLES_LAYER_TOP
100
AcDbHatch
 10
0.0
 20
0.0
 30
0.0
210
0.0
220
0.0
230
1.0
  2
SOLID
 70
         1
 71
         1
 91
        1
 92
        1
 93
        1
 72
         2
 10
59.219999999999999
 20
12.5
 40
0.4
 50
0.0
 51
360.0
 73
         1
 97
        1
330
558
 75
         0
 76
         1
 98
        1
 10
0.0
 20
0.0
  0
CIRCLE
  5
55A
100
AcDbEntity
  8
PART_HOLES_LAYER_TOP
100
AcDbCircle
 10
54.14
 20
12.5
 30
0.0
 40
0.45
  0
HATCH
  5
55B
100
AcDbEntity
  8
PART_HOLES_LAYER_TOP
100
AcDbHatch
 10
0.0
 20
0.0
 30
0.0
210
0.0
220
0.0
230
1.0
  2
SOLID
 70
         1
 71
         1
 91
        1
 92
        1
 93
        1
 72
         2
 10
54.140000000000001
 20
12.5
 40
0.45
 50
0.0
 51
360.0
 73
         1
 97
        1
330
55A
 75
         0
 76
         1
 98
        1
 10
0.0
 20
0.0
  0
CIRCLE
  5
55C
100
AcDbEntity
  8
PART_HOLES_LAYER_TOP
100
AcDbCircle
 10
56.68
 20
12.5
 30
0.0
 40
0.45
  0
HATCH
  5
55D
100
AcDbEntity
  8
PART_HOLES_LAYER_TOP
100
AcDbHatch
 10
0.0
 20
0.0
 30
0.0
210
0.0
220
0.0
230
1.0
  2
SOLID
 70
         1
 71
         1
 91
        1
 92
        1
 93
        1
 72
         2
 10
56.68
 20
12.5
 40
0.45
 50
0.0
 51
360.0
 73
         1
 97
        1
330
55C
 75
         0
 76
         1
 98
        1
 10
0.0
 20
0.0
  0
CIRCLE
  5
55E
100
AcDbEntity
  8
PART_HOLES_LAYER_TOP
100
AcDbCircle
 10
58.91
 20
10.0
 30
0.0
 40
0.45
  0
HATCH
  5
55F
100
AcDbEntity
  8
PART_HOLES_LAYER_TOP
100
AcDbHatch
 10
0.0
 20
0.0
 30
0.0
210
0.0
220
0.0
230
1.0
  2
SOLID
 70
         1
 71
         1
 91
        1
 92
        1
 93
        1
 72
         2
 10
58.909999999999997
 20
10.0
 40
0.45
 50
0.0
 51
360.0
 73
         1
 97
        1
330
55E
 75
         0
 76
         1
 98
        1
 10
0.0
 20
0.0
  0
CIRCLE
  5
560
100
AcDbEntity
  8
PART_HOLES_LAYER_TOP
100
AcDbCircle
 10
51.91
 20
10.0
 30
0.0
 40
0.45
  0
HATCH
  5
561
100
AcDbEntity
  8
PART_HOLES_LAYER_TOP
100
AcDbHatch
 10
0.0
 20
0.0
 30
0.0
210
0.0
220
0.0
230
1.0
  2
SOLID
 70
         1
 71
         1
 91
        1
 92
        1
 93
        1
 72
         2
 10
51.909999999999997
 20
10.0
 40
0.45
 50
0.0
 51
360.0
 73
         1
 97
        1
330
560
 75
         0
 76
         1
 98
        1
 10
0.0
 20
0.0
  0
CIRCLE
  5
562
100
AcDbEntity
  8
PART_HOLES_LAYER_TOP
100
AcDbCircle
 10
62.01
 20
7.28
 30
0.0
 40
1.25
  0
HATCH
  5
563
100
AcDbEntity
  8
PART_HOLES_LAYER_TOP
100
AcDbHatch
 10
0.0
 20
0.0
 30
0.0
210
0.0
220
0.0
230
1.0
  2
SOLID
 70
         1
 71
         1
 91
        1
 92
        1
 93
        1
 72
         2
 10
62.009999999999998
 20
7.2800000000000002
 40
1.25
 50
0.0
 51
360.0
 73
         1
 97
        1
330
562
 75
         0
 76
         1
 98
        1
 10
0.0
 20
0.0
  0
CIRCLE
  5
564
100
AcDbEntity
  8
PART_HOLES_LAYER_TOP
100
AcDbCircle
 10
48.81
 20
7.28
 30
0.0
 40
1.25
  0
HATCH
  5
565
100
AcDbEntity
  8
PART_HOLES_LAYER_TOP
100
AcDbHatch
 10
0.0
 20
0.0
 30
0.0
210
0.0
220
0.0
230
1.0
  2
SOLID
 70
         1
 71
         1
 91
        1
 92
        1
 93
        1
 72
         2
 10
48.810000000000002
 20
7.2800000000000002
 40
1.25
 50
0.0
 51
360.0
 73
         1
 97
        1
330
564
 75
         0
 76
         1
 98
        1
 10
0.0
 20
0.0
  0
CIRCLE
  5
566
100
AcDbEntity
  8
PART_HOLES_LAYER_TOP
100
AcDbCircle
 10
54.41
 20
10.0
 30
0.0
 40
0.45
  0
HATCH
  5
567
100
AcDbEntity
  8
PART_HOLES_LAYER_TOP
100
AcDbHatch
 10
0.0
 20
0.0
 30
0.0
210
0.0
220
0.0
230
1.0
  2
SOLID
 70
         1
 71
         1
 91
        1
 92
        1
 93
        1
 72
         2
 10
54.409999999999997
 20
10.0
 40
0.45
 50
0.0
 51
360.0
 73
         1
 97
        1
330
566
 75
         0
 76
         1
 98
        1
 10
0.0
 20
0.0
  0
CIRCLE
  5
568
100
AcDbEntity
  8
PART_HOLES_LAYER_TOP
100
AcDbCircle
 10
56.41
 20
10.0
 30
0.0
 40
0.45
  0
HATCH
  5
569
100
AcDbEntity
  8
PART_HOLES_LAYER_TOP
100
AcDbHatch
 10
0.0
 20
0.0
 30
0.0
210
0.0
220
0.0
230
1.0
  2
SOLID
 70
         1
 71
         1
 91
        1
 92
        1
 93
        1
 72
         2
 10
56.409999999999997
 20
10.0
 40
0.45
 50
0.0
 51
360.0
 73
         1
 97
        1
330
568
 75
         0
 76
         1
 98
        1
 10
0.0
 20
0.0
  0
CIRCLE
  5
56A
100
AcDbEntity
  8
PART_HOLES_LAYER_TOP
100
AcDbCircle
 10
34.85
 20
82.05
 30
0.0
 40
0.95
  0
HATCH
  5
56B
100
AcDbEntity
  8
PART_HOLES_LAYER_TOP
100
AcDbHatch
 10
0.0
 20
0.0
 30
0.0
210
0.0
220
0.0
230
1.0
  2
SOLID
 70
         1
 71
         1
 91
        1
 92
        1
 93
        1
 72
         2
 10
34.850000000000001
 20
82.049999999999997
 40
0.95
 50
0.0
 51
360.0
 73
         1
 97
        1
330
56A
 75
         0
 76
         1
 98
        1
 10
0.0
 20
0.0
  0
CIRCLE
  5
56C
100
AcDbEntity
  8
PART_HOLES_LAYER_TOP
100
AcDbCircle
 10
36.95
 20
79.55
 30
0.0
 40
0.95
  0
HATCH
  5
56D
100
AcDbEntity
  8
PART_HOLES_LAYER_TOP
100
AcDbHatch
 10
0.0
 20
0.0
 30
0.0
210
0.0
220
0.0
230
1.0
  2
SOLID
 70
         1
 71
         1
 91
        1
 92
        1
 93
        1
 72
         2
 10
36.950000000000003
 20
79.549999999999997
 40
0.95
 50
0.0
 51
360.0
 73
         1
 97
        1
330
56C
 75
         0
 76
         1
 98
        1
 10
0.0
 20
0.0
  0
CIRCLE
  5
56E
100
AcDbEntity
  8
PART_HOLES_LAYER_TOP
100
AcDbCircle
 10
36.95
 20
73.95
 30
0.0
 40
0.95
  0
HATCH
  5
56F
100
AcDbEntity
  8
PART_HOLES_LAYER_TOP
100
AcDbHatch
 10
0.0
 20
0.0
 30
0.0
210
0.0
220
0.0
230
1.0
  2
SOLID
 70
         1
 71
         1
 91
        1
 92
        1
 93
        1
 72
         2
 10
36.950000000000003
 20
73.950000000000003
 40
0.95
 50
0.0
 51
360.0
 73
         1
 97
        1
330
56E
 75
         0
 76
         1
 98
        1
 10
0.0
 20
0.0
  0
ENDSEC
  0
SECTION
  2
OBJECTS
  0
DICTIONARY
  5
19
100
AcDbDictionary
  3
ACAD_GROUP
350
1A
  3
ACAD_MLINESTYLE
350
1B
  0
DICTIONARY
  5
1A
102
{ACAD_REACTORS
330
19
102
}
100
AcDbDictionary
  0
DICTIONARY
  5
1B
102
{ACAD_REACTORS
330
19
102
}
100
AcDbDictionary
  3
STANDARD
350
1C
  0
MLINESTYLE
  5
1C
102
{ACAD_REACTORS
330
1B
102
}
100
AcDbMlineStyle
  2
STANDARD
 70
         0
  3

 62
         0
 51
90.0
 52
90.0
 71
         2
 49
0.5
 62
       256
  6
BYLAYER
 49
-0.5
 62
       256
  6
BYLAYER
  0
DICTIONARY
  5
22
102
{ACAD_REACTORS
330
19
102
}
100
AcDbDictionary
  0
ENDSEC
  0
EOF
