  0
SECTION
  2
HEADER
  9
$ACADVER
  1
AC1014
  9
$ACADMAINTVER
 70
         0
  9
$DWGCODEPAGE
  3
ANSI_1252
  9
$INSBASE
 10
0.0
 20
0.0
 30
0.0
  9
$EXTMIN
 10
-9.59939
 20
-25.5
 30
0.0
  9
$EXTMAX
 10
150.097484
 20
73.632278
 30
0.0
  9
$LIMMIN
 10
0.0
 20
0.0
  9
$LIMMAX
 10
0.0
 20
0.0
  9
$ORTHOMODE
 70
         0
  9
$REGENMODE
 70
         1
  9
$FILLMODE
 70
         1
  9
$QTEXTMODE
 70
         0
  9
$MIRRTEXT
 70
         1
  9
$DRAGMODE
 70
         2
  9
$LTSCALE
 40
1.0
  9
$OSMODE
 70
         0
  9
$ATTMODE
 70
         1
  9
$TEXTSIZE
 40
0.2
  9
$TRACEWID
 40
0.05
  9
$TEXTSTYLE
  7
STANDARD
  9
$CLAYER
  8
0
  9
$CELTYPE
  6
CONTINUOUS
  9
$CECOLOR
 62
       256
  9
$CELTSCALE
 40
1.0
  9
$DELOBJ
 70
         1
  9
$DISPSILH
 70
         0
  9
$DIMSCALE
 40
1.0
  9
$DIMASZ
 40
0.18
  9
$DIMEXO
 40
0.0625
  9
$DIMDLI
 40
0.38
  9
$DIMRND
 40
0.0
  9
$DIMDLE
 40
0.0
  9
$DIMEXE
 40
0.18
  9
$DIMTP
 40
0.0
  9
$DIMTM
 40
0.0
  9
$DIMTXT
 40
0.18
  9
$DIMCEN
 40
0.09
  9
$DIMTSZ
 40
0.0
  9
$DIMTOL
 70
         0
  9
$DIMLIM
 70
         0
  9
$DIMTIH
 70
         1
  9
$DIMTOH
 70
         1
  9
$DIMSE1
 70
         0
  9
$DIMSE2
 70
         0
  9
$DIMTAD
 70
         0
  9
$DIMZIN
 70
         0
  9
$DIMBLK
  1

  9
$DIMASO
 70
         1
  9
$DIMSHO
 70
         1
  9
$DIMPOST
  1

  9
$DIMAPOST
  1

  9
$DIMALT
 70
         0
  9
$DIMALTD
 70
         2
  9
$DIMALTF
 40
25.4
  9
$DIMLFAC
 40
1.0
  9
$DIMTOFL
 70
         0
  9
$DIMTVP
 40
0.0
  9
$DIMTIX
 70
         0
  9
$DIMSOXD
 70
         0
  9
$DIMSAH
 70
         0
  9
$DIMBLK1
  1

  9
$DIMBLK2
  1

  9
$DIMSTYLE
  2
STANDARD
  9
$DIMCLRD
 70
         0
  9
$DIMCLRE
 70
         0
  9
$DIMCLRT
 70
         0
  9
$DIMTFAC
 40
1.0
  9
$DIMGAP
 40
0.09
  9
$DIMJUST
 70
         0
  9
$DIMSD1
 70
         0
  9
$DIMSD2
 70
         0
  9
$DIMTOLJ
 70
         1
  9
$DIMTZIN
 70
         0
  9
$DIMALTZ
 70
         0
  9
$DIMALTTZ
 70
         0
  9
$DIMFIT
 70
         3
  9
$DIMUPT
 70
         0
  9
$DIMUNIT
 70
         2
  9
$DIMDEC
 70
         4
  9
$DIMTDEC
 70
         4
  9
$DIMALTU
 70
         2
  9
$DIMALTTD
 70
         2
  9
$DIMTXSTY
  7
STANDARD
  9
$DIMAUNIT
 70
         0
  9
$LUNITS
 70
         2
  9
$LUPREC
 70
         4
  9
$SKETCHINC
 40
0.1
  9
$FILLETRAD
 40
0.0
  9
$AUNITS
 70
         0
  9
$AUPREC
 70
         0
  9
$MENU
  1
acad
  9
$ELEVATION
 40
0.0
  9
$PELEVATION
 40
0.0
  9
$THICKNESS
 40
0.0
  9
$LIMCHECK
 70
         0
  9
$BLIPMODE
 70
         1
  9
$CHAMFERA
 40
0.0
  9
$CHAMFERB
 40
0.0
  9
$CHAMFERC
 40
0.0
  9
$CHAMFERD
 40
0.0
  9
$SKPOLY
 70
         0
  9
$TDCREATE
 40
2456373.430601852
  9
$TDUPDATE
 40
0.000000000
  9
$TDINDWG
 40
0.0000000000
  9
$TDUSRTIMER
 40
0.0000000000
  9
$USRTIMER
 70
         1
  9
$ANGBASE
 50
0.0
  9
$ANGDIR
 70
         0
  9
$PDMODE
 70
         0
  9
$PDSIZE
 40
0.0
  9
$PLINEWID
 40
0.0
  9
$COORDS
 70
         0
  9
$SPLFRAME
 70
         0
  9
$SPLINETYPE
 70
         6
  9
$SPLINESEGS
 70
         8
  9
$ATTDIA
 70
         0
  9
$ATTREQ
 70
         1
  9
$HANDLING
 70
         1
  9
$HANDSEED
  5
484
  9
$SURFTAB1
 70
         6
  9
$SURFTAB2
 70
         6
  9
$SURFTYPE
 70
         6
  9
$SURFU
 70
         6
  9
$SURFV
 70
         6
  9
$UCSNAME
  2

  9
$UCSORG
 10
0.0
 20
0.0
 30
0.0
  9
$UCSXDIR
 10
1.0
 20
0.0
 30
0.0
  9
$UCSYDIR
 10
0.0
 20
1.0
 30
0.0
  9
$PUCSNAME
  2

  9
$PUCSORG
 10
0.0
 20
0.0
 30
0.0
  9
$PUCSXDIR
 10
1.0
 20
0.0
 30
0.0
  9
$PUCSYDIR
 10
0.0
 20
1.0
 30
0.0
  9
$USERI1
 70
        -3
  9
$USERI2
 70
         0
  9
$USERI3
 70
         0
  9
$USERI4
 70
         0
  9
$USERI5
 70
         0
  9
$USERR1
 40
0.0
  9
$USERR2
 40
0.0
  9
$USERR3
 40
0.0
  9
$USERR4
 40
0.0
  9
$USERR5
 40
0.0
  9
$WORLDVIEW
 70
         1
  9
$SHADEDGE
 70
         3
  9
$SHADEDIF
 70
        70
  9
$TILEMODE
 70
         1
  9
$MAXACTVP
 70
        16
  9
$PINSBASE
 10
0.0
 20
0.0
 30
0.0
  9
$PLIMCHECK
 70
         0
  9
$PEXTMIN
 10
1.0000000000E+20
 20
1.0000000000E+20
 30
1.0000000000E+20
  9
$PEXTMAX
 10
-1.0000000000E+20
 20
-1.0000000000E+20
 30
-1.0000000000E+20
  9
$PLIMMIN
 10
0.0
 20
0.0
  9
$PLIMMAX
 10
12.0
 20
9.0
  9
$UNITMODE
 70
         0
  9
$VISRETAIN
 70
         0
  9
$PLINEGEN
 70
         1
  9
$PSLTSCALE
 70
         0
  9
$TREEDEPTH
 70
      3020
  9
$PICKSTYLE
 70
         1
  9
$CMLSTYLE
  2
STANDARD
  9
$CMLJUST
 70
         0
  9
$CMLSCALE
 40
1.0
  9
$PROXYGRAPHICS
 70
         0
  9
$MEASUREMENT
 70
         0
  0
ENDSEC
  0
SECTION
  2
CLASSES
  0
CLASS
  1
LWPOLYLINE
  2
AcDbPolyline
  3
"AutoCAD"
 90
        0
280
         0
281
         1
  0
CLASS
  1
IMAGE
  2
AcDbRasterImage
  3
ISM
 90
      127
280
         0
281
         1
  0
CLASS
  1
OLE2FRAME
  2
AcDbOle2Frame
  3
""
 90
        0
280
         0
281
         1
  0
CLASS
  1
HATCH
  2
AcDbHatch
  3
"ACAD_SEDONA"
 90
        0
280
         0
281
         1
  0
CLASS
  1
DICTIONARYVAR
  2
AcDbDictionaryVar
  3
"AutoCAD"
 90
        0
280
         0
281
         0
  0
CLASS
  1
RASTERVARIABLES
  2
AcDbRasterVariables
  3
ISM
 90
        0
280
         0
281
         0
  0
CLASS
  1
IMAGEDEF
  2
AcDbRasterImageDef
  3
ISM
 90
        0
280
         0
281
         0
  0
CLASS
  1
IMAGEDEF_REACTOR
  2
AcDbRasterImageDefReactor
  3
ISM
 90
        1
280
         0
281
         0
  0
CLASS
  1
IDBUFFER
  2
AcDbIdBuffer
  3
"Acad"
 90
        0
280
         0
281
         0
  0
CLASS
  1
SPATIAL_FILTER
  2
AcDbSpatialFilter
  3
"Acad"
 90
        0
280
         0
281
         0
  0
CLASS
  1
XRECORD
  2
AcDbXrecord
  3
"<Built In>"
 90
        0
280
         0
281
         0
  0
CLASS
  1
SORTENTSTABLE
  2
AcDbSortentsTable
  3
"AutoCAD"
 90
        0
280
         0
281
         0
  0
CLASS
  1
LAYER_INDEX
  2
AcDbLayerIndex
  3
"Acad"
 90
        0
280
         0
281
         0
  0
CLASS
  1
SPATIAL_INDEX
  2
AcDbSpatialIndex
  3
"Acad"
 90
        0
280
         0
281
         0
  0
CLASS
  1
OBJECT_PTR
  2
CAseDLPNTableRecord
  3
"ASE-LPNTableRecord"
 90
        1
280
         0
281
         0
  0
CLASS
  1
LAYOUT
  2
AcDbLayout
  3
"AutoCAD 2000"
 90
        0
280
         0
281
         0
  0
CLASS
  1
PLOTSETTINGS
  2
AcDbPlotSettings
  3
"AutoCAD 2000"
 90
        0
280
         0
281
         0
  0
CLASS
  1
ACDBDICTIONARYWDFLT
  2
AcDbDictionaryWithDefault
  3
"AutoCAD 2000"
 90
        0
280
         0
281
         0
  0
CLASS
  1
ACDBPLACEHOLDER
  2
AcDbPlaceHolder
  3
"AutoCAD 2000"
 90
        0
280
         0
281
         0
  0
CLASS
  1
VBA_PROJECT
  2
AcDbVbaProject
  3
"acadvba"
 90
        0
280
         0
281
         0
  0
CLASS
  1
WIPEOUT
  2
AcDbWipeout
  3
WipeOut|AutoCAD Express Tool|expresstools@autodesk.com
 90
      127
280
         0
281
         1
  0
CLASS
  1
WIPEOUTVARIABLES
  2
AcDbWipeoutVariables
  3
WipeOut|AutoCAD Express Tool|expresstools@autodesk.com
 90
        0
280
         0
281
         0
  0
CLASS
  1
RTEXT
  2
RText
  3
RText|AutoCAD Express Tool|expresstools@autodesk.com
 90
        0
280
         0
281
         1
  0
CLASS
  1
ARCALIGNEDTEXT
  2
AcDbArcAlignedText
  3
ATEXT|AutoCAD Express Tool|expresstools@autodesk.com
 90
        0
280
         0
281
         1
  0
ENDSEC
  0
SECTION
  2
TABLES
  0
TABLE
  2
VPORT
  5
7
100
AcDbSymbolTable
 70
         1
  0
VPORT
  5
15
100
AcDbSymbolTableRecord
100
AcDbViewportTableRecord
  2
*ACTIVE
 70
         0
 10
0.0
 20
0.0
 11
1.0
 21
1.0
 12
6.591288
 22
4.579184
 13
0.0
 23
0.0
 14
1.0
 24
1.0
 15
0.0
 25
0.0
 16
0.0
 26
0.0
 36
1.0
 17
0.0
 27
0.0
 37
0.0
 40
9.158369
 41
0.688564
 42
50.0
 43
0.0
 44
0.0
 50
0.0
 51
0.0
 71
         0
 72
       100
 73
         1
 74
         1
 75
         0
 76
         0
 77
         0
 78
         0
  0
ENDTAB
  0
TABLE
  2
LTYPE
  5
4
100
AcDbSymbolTable
 70
         3
  0
LTYPE
  5
11
100
AcDbSymbolTableRecord
100
AcDbLinetypeTableRecord
  2
BYBLOCK
 70
        64
  3

 72
        65
 73
         0
 40
0.0
  0
LTYPE
  5
12
100
AcDbSymbolTableRecord
100
AcDbLinetypeTableRecord
  2
BYLAYER
 70
        64
  3

 72
        65
 73
         0
 40
0.0
  0
LTYPE
  5
13
100
AcDbSymbolTableRecord
100
AcDbLinetypeTableRecord
  2
CONTINUOUS
 70
        64
  3
Solid line
 72
        65
 73
         0
 40
0.0
  0
ENDTAB
  0
TABLE
  2
LAYER
  5
2
100
AcDbSymbolTable
 70
         6
  0
LAYER
  5
14
100
AcDbSymbolTableRecord
100
AcDbLayerTableRecord
  2
0
 70
         0
 62
         7
  6
CONTINUOUS
  0
LAYER
  5
24
100
AcDbSymbolTableRecord
100
AcDbLayerTableRecord
  2
ASSEMBLY_OUTLINES_TOP
 70
         0
 62
       102
  6
CONTINUOUS
  0
LAYER
  5
25
100
AcDbSymbolTableRecord
100
AcDbLayerTableRecord
  2
ASSEMBLY_REF_DES_TOP
 70
         0
 62
       102
  6
CONTINUOUS
  0
LAYER
  5
26
100
AcDbSymbolTableRecord
100
AcDbLayerTableRecord
  2
BOARD_OUTLINE
 70
         0
 62
        10
  6
CONTINUOUS
  0
LAYER
  5
27
100
AcDbSymbolTableRecord
100
AcDbLayerTableRecord
  2
MOUNTING_HOLES_LAYER_TOP
 70
         0
 62
        42
  6
CONTINUOUS
  0
LAYER
  5
28
100
AcDbSymbolTableRecord
100
AcDbLayerTableRecord
  2
PART_HOLES_LAYER_TOP
 70
         0
 62
        30
  6
CONTINUOUS
  0
ENDTAB
  0
TABLE
  2
STYLE
  5
3
100
AcDbSymbolTable
 70
         4
  0
STYLE
  5
17
100
AcDbSymbolTableRecord
100
AcDbTextStyleTableRecord
  2
STANDARD
 70
         0
 40
0.0
 41
1.0
 50
0.0
 71
         0
 42
0.0
  3
txt
  4

  0
STYLE
  5
9D
100
AcDbSymbolTableRecord
100
AcDbTextStyleTableRecord
  2
VERIBEST_GERBER_1
 70
         0
 40
0.0
 41
1.0
 50
0.0
 71
         0
 42
0.0
  3

  4

  0
STYLE
  5
29E
100
AcDbSymbolTableRecord
100
AcDbTextStyleTableRecord
  2
GOST_TYPE_B
 70
         0
 40
0.0
 41
1.0
 50
0.0
 71
         0
 42
0.0
  3
gost_0.ttf
  4

  0
STYLE
  5
2AA
100
AcDbSymbolTableRecord
100
AcDbTextStyleTableRecord
  2
VERIBEST_GERBER_0
 70
         0
 40
0.0
 41
1.0
 50
0.0
 71
         0
 42
0.0
  3
gost_0.ttf
  4

  0
ENDTAB
  0
TABLE
  2
VIEW
  5
5
100
AcDbSymbolTable
 70
         0
  0
ENDTAB
  0
TABLE
  2
UCS
  5
6
100
AcDbSymbolTable
 70
         0
  0
ENDTAB
  0
TABLE
  2
APPID
  5
8
100
AcDbSymbolTable
 70
         1
  0
APPID
  5
16
100
AcDbSymbolTableRecord
100
AcDbRegAppTableRecord
  2
ACAD
 70
         0
  0
ENDTAB
  0
TABLE
  2
DIMSTYLE
  5
9
100
AcDbSymbolTable
 70
         1
  0
DIMSTYLE
105
18
100
AcDbSymbolTableRecord
100
AcDbDimStyleTableRecord
  2
STANDARD
 70
         0
  3

  4

  5

  6

  7

 40
1.0
 41
0.18
 42
0.0625
 43
0.38
 44
0.18
 45
0.0
 46
0.0
 47
0.0
 48
0.0
 71
         0
 72
         0
 73
         1
 74
         1
 75
         0
 76
         0
 77
         0
 78
         0
140
0.18
141
0.09
142
0.0
143
25.4
144
1.0
145
0.0
146
1.0
147
0.09
170
         0
171
         2
172
         0
173
         0
174
         0
175
         0
176
         0
177
         0
178
         0
270
         2
271
         4
272
         4
273
         2
274
         2
275
         0
280
         0
281
         0
282
         0
283
         1
284
         0
285
         0
286
         0
287
         3
288
         0
340
17
  0
ENDTAB
  0
TABLE
  2
BLOCK_RECORD
  5
1
100
AcDbSymbolTable
 70
         0
  0
BLOCK_RECORD
  5
A
100
AcDbSymbolTableRecord
100
AcDbBlockTableRecord
  2
*MODEL_SPACE
  0
BLOCK_RECORD
  5
B
100
AcDbSymbolTableRecord
100
AcDbBlockTableRecord
  2
*PAPER_SPACE
  0
ENDTAB
  0
ENDSEC
  0
SECTION
  2
BLOCKS
  0
BLOCK
  5
D
100
AcDbEntity
  8
0
100
AcDbBlockBegin
  2
*MODEL_SPACE
 70
         0
 10
0.0
 20
0.0
 30
0.0
  3
*MODEL_SPACE
  1

  0
ENDBLK
  5
E
100
AcDbEntity
  8
0
100
AcDbBlockEnd
  0
BLOCK
  5
F
100
AcDbEntity
 67
         1
  8
0
100
AcDbBlockBegin
  2
*PAPER_SPACE
 70
         0
 10
0.0
 20
0.0
 30
0.0
  3
*PAPER_SPACE
  1

  0
ENDBLK
  5
10
100
AcDbEntity
 67
         1
  8
0
100
AcDbBlockEnd
  0
ENDSEC
  0
SECTION
  2
ENTITIES
  0
LWPOLYLINE
  5
29
100
AcDbEntity
  8
ASSEMBLY_OUTLINES_TOP
100
AcDbPolyline
 90
        3
 70
         1
 10
63.5
 20
68.513696
 10
62.357
 20
67.942197
 10
62.357
 20
69.085196
  0
HATCH
  5
2A
100
AcDbEntity
  8
ASSEMBLY_OUTLINES_TOP
100
AcDbHatch
 10
0.0
 20
0.0
 30
0.0
210
0.0
220
0.0
230
1.0
  2
SOLID
 70
         1
 71
         1
 91
        1
 92
        2
 72
         0
 73
         1
 93
        3
 10
63.5
 20
68.513695999999996
 10
62.356999999999999
 20
67.942196999999993
 10
62.356999999999999
 20
69.085195999999996
 97
        1
330
29
 75
         0
 76
         1
 98
        1
 10
0.0
 20
0.0
  0
LWPOLYLINE
  5
2B
100
AcDbEntity
  8
ASSEMBLY_OUTLINES_TOP
100
AcDbPolyline
 90
        3
 70
         1
 10
2.0
 20
68.513696
 10
3.143
 20
69.085196
 10
3.143
 20
67.942196
  0
HATCH
  5
2C
100
AcDbEntity
  8
ASSEMBLY_OUTLINES_TOP
100
AcDbHatch
 10
0.0
 20
0.0
 30
0.0
210
0.0
220
0.0
230
1.0
  2
SOLID
 70
         1
 71
         1
 91
        1
 92
        2
 72
         0
 73
         1
 93
        3
 10
2.0
 20
68.513695999999996
 10
3.1429999999999998
 20
69.085195999999996
 10
3.1429999999999998
 20
67.942195999999996
 97
        1
330
2B
 75
         0
 76
         1
 98
        1
 10
0.0
 20
0.0
  0
LWPOLYLINE
  5
2D
100
AcDbEntity
  8
ASSEMBLY_OUTLINES_TOP
100
AcDbPolyline
 90
        2
 70
         0
 43
0.2032
 10
36.536061
 20
68.513696
 10
62.9285
 20
68.513696
  0
LWPOLYLINE
  5
2E
100
AcDbEntity
  8
ASSEMBLY_OUTLINES_TOP
100
AcDbPolyline
 90
        2
 70
         0
 43
0.2032
 10
2.5715
 20
68.513696
 10
28.96394
 20
68.513696
  0
LWPOLYLINE
  5
2F
100
AcDbEntity
  8
ASSEMBLY_OUTLINES_TOP
100
AcDbPolyline
 90
        2
 70
         0
 43
0.2032
 10
63.5
 20
62.008
 10
63.5
 20
69.021696
  0
LWPOLYLINE
  5
30
100
AcDbEntity
  8
ASSEMBLY_OUTLINES_TOP
100
AcDbPolyline
 90
        2
 70
         0
 43
0.2032
 10
2.0
 20
66.008
 10
2.0
 20
69.021696
  0
LWPOLYLINE
  5
31
100
AcDbEntity
  8
ASSEMBLY_OUTLINES_TOP
100
AcDbPolyline
 90
        3
 70
         1
 10
-8.98979
 20
61.5
 10
-8.418291
 20
60.357
 10
-9.56129
 20
60.357001
  0
HATCH
  5
32
100
AcDbEntity
  8
ASSEMBLY_OUTLINES_TOP
100
AcDbHatch
 10
0.0
 20
0.0
 30
0.0
210
0.0
220
0.0
230
1.0
  2
SOLID
 70
         1
 71
         1
 91
        1
 92
        2
 72
         0
 73
         1
 93
        3
 10
-8.9897899999999993
 20
61.5
 10
-8.418291
 20
60.356999999999999
 10
-9.5612899999999996
 20
60.357000999999997
 97
        1
330
31
 75
         0
 76
         1
 98
        1
 10
0.0
 20
0.0
  0
LWPOLYLINE
  5
33
100
AcDbEntity
  8
ASSEMBLY_OUTLINES_TOP
100
AcDbPolyline
 90
        3
 70
         1
 10
-8.98979
 20
65.5
 10
-9.56129
 20
66.643
 10
-8.41829
 20
66.643
  0
HATCH
  5
34
100
AcDbEntity
  8
ASSEMBLY_OUTLINES_TOP
100
AcDbHatch
 10
0.0
 20
0.0
 30
0.0
210
0.0
220
0.0
230
1.0
  2
SOLID
 70
         1
 71
         1
 91
        1
 92
        2
 72
         0
 73
         1
 93
        3
 10
-8.9897899999999993
 20
65.5
 10
-9.5612899999999996
 20
66.643000000000001
 10
-8.4182900000000007
 20
66.643000000000001
 97
        1
330
33
 75
         0
 76
         1
 98
        1
 10
0.0
 20
0.0
  0
LWPOLYLINE
  5
35
100
AcDbEntity
  8
ASSEMBLY_OUTLINES_TOP
100
AcDbPolyline
 90
        2
 70
         0
 43
0.2032
 10
-8.98979
 20
60.9285
 10
-8.98979
 20
58.6425
  0
LWPOLYLINE
  5
36
100
AcDbEntity
  8
ASSEMBLY_OUTLINES_TOP
100
AcDbPolyline
 90
        2
 70
         0
 43
0.2032
 10
-8.98979
 20
66.0715
 10
-8.98979
 20
68.3575
  0
LWPOLYLINE
  5
37
100
AcDbEntity
  8
ASSEMBLY_OUTLINES_TOP
100
AcDbPolyline
 90
        2
 70
         0
 43
0.2032
 10
5.492
 20
61.5
 10
-9.49779
 20
61.5
  0
LWPOLYLINE
  5
38
100
AcDbEntity
  8
ASSEMBLY_OUTLINES_TOP
100
AcDbPolyline
 90
        2
 70
         0
 43
0.2032
 10
1.492
 20
65.5
 10
-9.49779
 20
65.5
  0
LWPOLYLINE
  5
39
100
AcDbEntity
  8
ASSEMBLY_OUTLINES_TOP
100
AcDbPolyline
 90
        3
 70
         1
 10
6.0
 20
69.020345
 10
7.143
 20
69.591845
 10
7.143
 20
68.448845
  0
HATCH
  5
3A
100
AcDbEntity
  8
ASSEMBLY_OUTLINES_TOP
100
AcDbHatch
 10
0.0
 20
0.0
 30
0.0
210
0.0
220
0.0
230
1.0
  2
SOLID
 70
         1
 71
         1
 91
        1
 92
        2
 72
         0
 73
         1
 93
        3
 10
6.0
 20
69.020345000000006
 10
7.1429999999999998
 20
69.591845000000006
 10
7.1429999999999998
 20
68.448845000000006
 97
        1
330
39
 75
         0
 76
         1
 98
        1
 10
0.0
 20
0.0
  0
LWPOLYLINE
  5
3B
100
AcDbEntity
  8
ASSEMBLY_OUTLINES_TOP
100
AcDbPolyline
 90
        3
 70
         1
 10
2.0
 20
69.020345
 10
0.857
 20
68.448846
 10
0.857
 20
69.591845
  0
HATCH
  5
3C
100
AcDbEntity
  8
ASSEMBLY_OUTLINES_TOP
100
AcDbHatch
 10
0.0
 20
0.0
 30
0.0
210
0.0
220
0.0
230
1.0
  2
SOLID
 70
         1
 71
         1
 91
        1
 92
        2
 72
         0
 73
         1
 93
        3
 10
2.0
 20
69.020345000000006
 10
0.857
 20
68.448846000000003
 10
0.857
 20
69.591845000000006
 97
        1
330
3B
 75
         0
 76
         1
 98
        1
 10
0.0
 20
0.0
  0
LWPOLYLINE
  5
3D
100
AcDbEntity
  8
ASSEMBLY_OUTLINES_TOP
100
AcDbPolyline
 90
        2
 70
         0
 43
0.2032
 10
6.5715
 20
69.020345
 10
8.8575
 20
69.020345
  0
LWPOLYLINE
  5
3E
100
AcDbEntity
  8
ASSEMBLY_OUTLINES_TOP
100
AcDbPolyline
 90
        2
 70
         0
 43
0.2032
 10
1.4285
 20
69.020345
 10
-0.8575
 20
69.020345
  0
LWPOLYLINE
  5
3F
100
AcDbEntity
  8
ASSEMBLY_OUTLINES_TOP
100
AcDbPolyline
 90
        2
 70
         0
 43
0.2032
 10
6.0
 20
62.008
 10
6.0
 20
69.528345
  0
LWPOLYLINE
  5
40
100
AcDbEntity
  8
ASSEMBLY_OUTLINES_TOP
100
AcDbPolyline
 90
        2
 70
         0
 43
0.2032
 10
2.0
 20
66.008
 10
2.0
 20
69.528345
  0
LWPOLYLINE
  5
41
100
AcDbEntity
  8
ASSEMBLY_OUTLINES_TOP
100
AcDbPolyline
 90
        3
 70
         1
 10
149.487884
 20
54.0
 10
148.916384
 20
55.143
 10
150.059384
 20
55.143
  0
HATCH
  5
42
100
AcDbEntity
  8
ASSEMBLY_OUTLINES_TOP
100
AcDbHatch
 10
0.0
 20
0.0
 30
0.0
210
0.0
220
0.0
230
1.0
  2
SOLID
 70
         1
 71
         1
 91
        1
 92
        2
 72
         0
 73
         1
 93
        3
 10
149.48788400000001
 20
54.0
 10
148.91638399999999
 20
55.143000000000001
 10
150.05938399999999
 20
55.143000000000001
 97
        1
330
41
 75
         0
 76
         1
 98
        1
 10
0.0
 20
0.0
  0
LWPOLYLINE
  5
43
100
AcDbEntity
  8
ASSEMBLY_OUTLINES_TOP
100
AcDbPolyline
 90
        3
 70
         1
 10
149.487884
 20
65.5
 10
150.059383
 20
64.357
 10
148.916384
 20
64.357001
  0
HATCH
  5
44
100
AcDbEntity
  8
ASSEMBLY_OUTLINES_TOP
100
AcDbHatch
 10
0.0
 20
0.0
 30
0.0
210
0.0
220
0.0
230
1.0
  2
SOLID
 70
         1
 71
         1
 91
        1
 92
        2
 72
         0
 73
         1
 93
        3
 10
149.48788400000001
 20
65.5
 10
150.059383
 20
64.356999999999999
 10
148.91638399999999
 20
64.357000999999997
 97
        1
330
43
 75
         0
 76
         1
 98
        1
 10
0.0
 20
0.0
  0
LWPOLYLINE
  5
45
100
AcDbEntity
  8
ASSEMBLY_OUTLINES_TOP
100
AcDbPolyline
 90
        2
 70
         0
 43
0.2032
 10
149.487884
 20
56.037282
 10
149.487884
 20
54.5715
  0
LWPOLYLINE
  5
46
100
AcDbEntity
  8
ASSEMBLY_OUTLINES_TOP
100
AcDbPolyline
 90
        2
 70
         0
 43
0.2032
 10
149.487884
 20
64.9285
 10
149.487884
 20
63.462717
  0
LWPOLYLINE
  5
47
100
AcDbEntity
  8
ASSEMBLY_OUTLINES_TOP
100
AcDbPolyline
 90
        2
 70
         0
 43
0.2032
 10
129.008
 20
54.0
 10
149.995884
 20
54.0
  0
LWPOLYLINE
  5
48
100
AcDbEntity
  8
ASSEMBLY_OUTLINES_TOP
100
AcDbPolyline
 90
        2
 70
         0
 43
0.2032
 10
140.008
 20
65.5
 10
149.995884
 20
65.5
  0
LWPOLYLINE
  5
49
100
AcDbEntity
  8
ASSEMBLY_OUTLINES_TOP
100
AcDbPolyline
 90
        3
 70
         1
 10
139.5
 20
73.022678
 10
138.357
 20
72.451179
 10
138.357
 20
73.594178
  0
HATCH
  5
4A
100
AcDbEntity
  8
ASSEMBLY_OUTLINES_TOP
100
AcDbHatch
 10
0.0
 20
0.0
 30
0.0
210
0.0
220
0.0
230
1.0
  2
SOLID
 70
         1
 71
         1
 91
        1
 92
        2
 72
         0
 73
         1
 93
        3
 10
139.5
 20
73.022677999999999
 10
138.357
 20
72.451178999999996
 10
138.357
 20
73.594177999999999
 97
        1
330
49
 75
         0
 76
         1
 98
        1
 10
0.0
 20
0.0
  0
LWPOLYLINE
  5
4B
100
AcDbEntity
  8
ASSEMBLY_OUTLINES_TOP
100
AcDbPolyline
 90
        3
 70
         1
 10
128.5
 20
73.022678
 10
129.643
 20
73.594178
 10
129.643
 20
72.451178
  0
HATCH
  5
4C
100
AcDbEntity
  8
ASSEMBLY_OUTLINES_TOP
100
AcDbHatch
 10
0.0
 20
0.0
 30
0.0
210
0.0
220
0.0
230
1.0
  2
SOLID
 70
         1
 71
         1
 91
        1
 92
        2
 72
         0
 73
         1
 93
        3
 10
128.5
 20
73.022677999999999
 10
129.643
 20
73.594177999999999
 10
129.643
 20
72.451177999999999
 97
        1
330
4B
 75
         0
 76
         1
 98
        1
 10
0.0
 20
0.0
  0
LWPOLYLINE
  5
4D
100
AcDbEntity
  8
ASSEMBLY_OUTLINES_TOP
100
AcDbPolyline
 90
        2
 70
         0
 43
0.2032
 10
136.605913
 20
73.022678
 10
138.9285
 20
73.022678
  0
LWPOLYLINE
  5
4E
100
AcDbEntity
  8
ASSEMBLY_OUTLINES_TOP
100
AcDbPolyline
 90
        2
 70
         0
 43
0.2032
 10
129.0715
 20
73.022678
 10
131.394087
 20
73.022678
  0
LWPOLYLINE
  5
4F
100
AcDbEntity
  8
ASSEMBLY_OUTLINES_TOP
100
AcDbPolyline
 90
        2
 70
         0
 43
0.2032
 10
139.5
 20
66.008
 10
139.5
 20
73.530678
  0
LWPOLYLINE
  5
50
100
AcDbEntity
  8
ASSEMBLY_OUTLINES_TOP
100
AcDbPolyline
 90
        2
 70
         0
 43
0.2032
 10
128.5
 20
54.508
 10
128.5
 20
73.530678
  0
LWPOLYLINE
  5
51
100
AcDbEntity
  8
ASSEMBLY_OUTLINES_TOP
100
AcDbPolyline
 90
        4
 70
         1
 10
67.5
 20
-25.5
 10
67.5
 20
-1.0
 10
92.5
 20
-1.0
 10
92.5
 20
-25.5
  0
LWPOLYLINE
  5
52
100
AcDbEntity
  8
ASSEMBLY_OUTLINES_TOP
100
AcDbPolyline
 90
        4
 70
         1
 10
42.5
 20
-25.5
 10
42.5
 20
-1.0
 10
67.5
 20
-1.0
 10
67.5
 20
-25.5
  0
LWPOLYLINE
  5
53
100
AcDbEntity
  8
ASSEMBLY_OUTLINES_TOP
100
AcDbPolyline
 90
        2
 70
         0
 43
0.2032
 10
2.0
 20
-0.508
 10
2.0
 20
-5.835482
  0
LWPOLYLINE
  5
54
100
AcDbEntity
  8
ASSEMBLY_OUTLINES_TOP
100
AcDbPolyline
 90
        2
 70
         0
 43
0.2032
 10
11.0
 20
14.492
 10
11.0
 20
-5.835482
  0
LWPOLYLINE
  5
55
100
AcDbEntity
  8
ASSEMBLY_OUTLINES_TOP
100
AcDbPolyline
 90
        2
 70
         0
 43
0.2032
 10
2.5715
 20
-5.327482
 10
4.377481
 20
-5.327482
  0
LWPOLYLINE
  5
56
100
AcDbEntity
  8
ASSEMBLY_OUTLINES_TOP
100
AcDbPolyline
 90
        2
 70
         0
 43
0.2032
 10
8.622519
 20
-5.327482
 10
10.4285
 20
-5.327482
  0
LWPOLYLINE
  5
57
100
AcDbEntity
  8
ASSEMBLY_OUTLINES_TOP
100
AcDbPolyline
 90
        3
 70
         1
 10
2.0
 20
-5.327482
 10
3.143
 20
-4.755982
 10
3.143
 20
-5.898982
  0
HATCH
  5
58
100
AcDbEntity
  8
ASSEMBLY_OUTLINES_TOP
100
AcDbHatch
 10
0.0
 20
0.0
 30
0.0
210
0.0
220
0.0
230
1.0
  2
SOLID
 70
         1
 71
         1
 91
        1
 92
        2
 72
         0
 73
         1
 93
        3
 10
2.0
 20
-5.3274819999999998
 10
3.1429999999999998
 20
-4.7559820000000004
 10
3.1429999999999998
 20
-5.8989820000000002
 97
        1
330
57
 75
         0
 76
         1
 98
        1
 10
0.0
 20
0.0
  0
LWPOLYLINE
  5
59
100
AcDbEntity
  8
ASSEMBLY_OUTLINES_TOP
100
AcDbPolyline
 90
        3
 70
         1
 10
11.0
 20
-5.327482
 10
9.857
 20
-5.898981
 10
9.857
 20
-4.755982
  0
HATCH
  5
5A
100
AcDbEntity
  8
ASSEMBLY_OUTLINES_TOP
100
AcDbHatch
 10
0.0
 20
0.0
 30
0.0
210
0.0
220
0.0
230
1.0
  2
SOLID
 70
         1
 71
         1
 91
        1
 92
        2
 72
         0
 73
         1
 93
        3
 10
11.0
 20
-5.3274819999999998
 10
9.8569999999999993
 20
-5.898981
 10
9.8569999999999993
 20
-4.7559820000000004
 97
        1
330
59
 75
         0
 76
         1
 98
        1
 10
0.0
 20
0.0
  0
LWPOLYLINE
  5
5B
100
AcDbEntity
  8
ASSEMBLY_OUTLINES_TOP
100
AcDbPolyline
 90
        2
 70
         0
 43
0.2032
 10
10.492
 20
15.0
 10
-4.858538
 20
15.0
  0
LWPOLYLINE
  5
5C
100
AcDbEntity
  8
ASSEMBLY_OUTLINES_TOP
100
AcDbPolyline
 90
        2
 70
         0
 43
0.2032
 10
1.492
 20
0.0
 10
-4.858538
 20
0.0
  0
LWPOLYLINE
  5
5D
100
AcDbEntity
  8
ASSEMBLY_OUTLINES_TOP
100
AcDbPolyline
 90
        2
 70
         0
 43
0.2032
 10
-4.350538
 20
14.4285
 10
-4.350538
 20
10.179254
  0
LWPOLYLINE
  5
5E
100
AcDbEntity
  8
ASSEMBLY_OUTLINES_TOP
100
AcDbPolyline
 90
        2
 70
         0
 43
0.2032
 10
-4.350538
 20
4.820743
 10
-4.350538
 20
0.5715
  0
LWPOLYLINE
  5
5F
100
AcDbEntity
  8
ASSEMBLY_OUTLINES_TOP
100
AcDbPolyline
 90
        3
 70
         1
 10
-4.350538
 20
15.0
 10
-3.779039
 20
13.857
 10
-4.922038
 20
13.857001
  0
HATCH
  5
60
100
AcDbEntity
  8
ASSEMBLY_OUTLINES_TOP
100
AcDbHatch
 10
0.0
 20
0.0
 30
0.0
210
0.0
220
0.0
230
1.0
  2
SOLID
 70
         1
 71
         1
 91
        1
 92
        2
 72
         0
 73
         1
 93
        3
 10
-4.3505380000000002
 20
15.0
 10
-3.779039
 20
13.856999999999999
 10
-4.9220379999999997
 20
13.857001
 97
        1
330
5F
 75
         0
 76
         1
 98
        1
 10
0.0
 20
0.0
  0
LWPOLYLINE
  5
61
100
AcDbEntity
  8
ASSEMBLY_OUTLINES_TOP
100
AcDbPolyline
 90
        3
 70
         1
 10
-4.350538
 20
0.0
 10
-4.922038
 20
1.143
 10
-3.779038
 20
1.143
  0
HATCH
  5
62
100
AcDbEntity
  8
ASSEMBLY_OUTLINES_TOP
100
AcDbHatch
 10
0.0
 20
0.0
 30
0.0
210
0.0
220
0.0
230
1.0
  2
SOLID
 70
         1
 71
         1
 91
        1
 92
        2
 72
         0
 73
         1
 93
        3
 10
-4.3505380000000002
 20
0.0
 10
-4.9220379999999997
 20
1.143
 10
-3.7790379999999999
 20
1.143
 97
        1
330
61
 75
         0
 76
         1
 98
        1
 10
0.0
 20
0.0
  0
LWPOLYLINE
  5
63
100
AcDbEntity
  8
ASSEMBLY_OUTLINES_TOP
100
AcDbPolyline
 90
        2
 70
         0
 43
0.2032
 10
2.0
 20
66.008
 10
2.0
 20
70.679724
  0
LWPOLYLINE
  5
64
100
AcDbEntity
  8
ASSEMBLY_OUTLINES_TOP
100
AcDbPolyline
 90
        2
 70
         0
 43
0.2032
 10
139.5
 20
66.008
 10
139.5
 20
70.679724
  0
LWPOLYLINE
  5
65
100
AcDbEntity
  8
ASSEMBLY_OUTLINES_TOP
100
AcDbPolyline
 90
        2
 70
         0
 43
0.2032
 10
2.5715
 20
70.171724
 10
66.333861
 20
70.171724
  0
LWPOLYLINE
  5
66
100
AcDbEntity
  8
ASSEMBLY_OUTLINES_TOP
100
AcDbPolyline
 90
        2
 70
         0
 43
0.2032
 10
75.166139
 20
70.171724
 10
138.9285
 20
70.171724
  0
LWPOLYLINE
  5
67
100
AcDbEntity
  8
ASSEMBLY_OUTLINES_TOP
100
AcDbPolyline
 90
        3
 70
         1
 10
2.0
 20
70.171724
 10
3.143
 20
70.743224
 10
3.143
 20
69.600224
  0
HATCH
  5
68
100
AcDbEntity
  8
ASSEMBLY_OUTLINES_TOP
100
AcDbHatch
 10
0.0
 20
0.0
 30
0.0
210
0.0
220
0.0
230
1.0
  2
SOLID
 70
         1
 71
         1
 91
        1
 92
        2
 72
         0
 73
         1
 93
        3
 10
2.0
 20
70.171723999999998
 10
3.1429999999999998
 20
70.743223999999998
 10
3.1429999999999998
 20
69.600223999999997
 97
        1
330
67
 75
         0
 76
         1
 98
        1
 10
0.0
 20
0.0
  0
LWPOLYLINE
  5
69
100
AcDbEntity
  8
ASSEMBLY_OUTLINES_TOP
100
AcDbPolyline
 90
        3
 70
         1
 10
139.5
 20
70.171724
 10
138.357
 20
69.600225
 10
138.357
 20
70.743224
  0
HATCH
  5
6A
100
AcDbEntity
  8
ASSEMBLY_OUTLINES_TOP
100
AcDbHatch
 10
0.0
 20
0.0
 30
0.0
210
0.0
220
0.0
230
1.0
  2
SOLID
 70
         1
 71
         1
 91
        1
 92
        2
 72
         0
 73
         1
 93
        3
 10
139.5
 20
70.171723999999998
 10
138.357
 20
69.600224999999995
 10
138.357
 20
70.743223999999998
 97
        1
330
69
 75
         0
 76
         1
 98
        1
 10
0.0
 20
0.0
  0
LWPOLYLINE
  5
6B
100
AcDbEntity
  8
ASSEMBLY_OUTLINES_TOP
100
AcDbPolyline
 90
        2
 70
         0
 43
0.2032
 10
140.008
 20
65.5
 10
145.813084
 20
65.5
  0
LWPOLYLINE
  5
6C
100
AcDbEntity
  8
ASSEMBLY_OUTLINES_TOP
100
AcDbPolyline
 90
        2
 70
         0
 43
0.2032
 10
140.008
 20
0.0
 10
145.813084
 20
0.0
  0
LWPOLYLINE
  5
6D
100
AcDbEntity
  8
ASSEMBLY_OUTLINES_TOP
100
AcDbPolyline
 90
        2
 70
         0
 43
0.2032
 10
145.305084
 20
64.9285
 10
145.305084
 20
36.609402
  0
LWPOLYLINE
  5
6E
100
AcDbEntity
  8
ASSEMBLY_OUTLINES_TOP
100
AcDbPolyline
 90
        2
 70
         0
 43
0.2032
 10
145.305084
 20
28.890597
 10
145.305084
 20
0.5715
  0
LWPOLYLINE
  5
6F
100
AcDbEntity
  8
ASSEMBLY_OUTLINES_TOP
100
AcDbPolyline
 90
        3
 70
         1
 10
145.305084
 20
65.5
 10
145.876583
 20
64.357
 10
144.733584
 20
64.357001
  0
HATCH
  5
70
100
AcDbEntity
  8
ASSEMBLY_OUTLINES_TOP
100
AcDbHatch
 10
0.0
 20
0.0
 30
0.0
210
0.0
220
0.0
230
1.0
  2
SOLID
 70
         1
 71
         1
 91
        1
 92
        2
 72
         0
 73
         1
 93
        3
 10
145.30508399999999
 20
65.5
 10
145.87658300000001
 20
64.356999999999999
 10
144.73358400000001
 20
64.357000999999997
 97
        1
330
6F
 75
         0
 76
         1
 98
        1
 10
0.0
 20
0.0
  0
LWPOLYLINE
  5
71
100
AcDbEntity
  8
ASSEMBLY_OUTLINES_TOP
100
AcDbPolyline
 90
        3
 70
         1
 10
145.305084
 20
0.0
 10
144.733584
 20
1.143
 10
145.876584
 20
1.143
  0
HATCH
  5
72
100
AcDbEntity
  8
ASSEMBLY_OUTLINES_TOP
100
AcDbHatch
 10
0.0
 20
0.0
 30
0.0
210
0.0
220
0.0
230
1.0
  2
SOLID
 70
         1
 71
         1
 91
        1
 92
        2
 72
         0
 73
         1
 93
        3
 10
145.30508399999999
 20
0.0
 10
144.73358400000001
 20
1.143
 10
145.87658400000001
 20
1.143
 97
        1
330
71
 75
         0
 76
         1
 98
        1
 10
0.0
 20
0.0
  0
LWPOLYLINE
  5
73
100
AcDbEntity
  8
ASSEMBLY_OUTLINES_TOP
100
AcDbPolyline
 90
        2
 70
         0
 43
0.2032
 10
2.508
 20
0.0
 10
64.785057
 20
0.0
  0
LWPOLYLINE
  5
74
100
AcDbEntity
  8
ASSEMBLY_OUTLINES_TOP
100
AcDbPolyline
 90
        2
 70
         0
 43
0.2032
 10
49.318
 20
-3.0
 10
64.785057
 20
-3.0
  0
LWPOLYLINE
  5
75
100
AcDbEntity
  8
ASSEMBLY_OUTLINES_TOP
100
AcDbPolyline
 90
        2
 70
         0
 43
0.2032
 10
64.277057
 20
0.5715
 10
64.277057
 20
2.8575
  0
LWPOLYLINE
  5
76
100
AcDbEntity
  8
ASSEMBLY_OUTLINES_TOP
100
AcDbPolyline
 90
        2
 70
         0
 43
0.2032
 10
64.277057
 20
-3.5715
 10
64.277057
 20
-5.8575
  0
LWPOLYLINE
  5
77
100
AcDbEntity
  8
ASSEMBLY_OUTLINES_TOP
100
AcDbPolyline
 90
        3
 70
         1
 10
64.277057
 20
0.0
 10
63.705557
 20
1.143
 10
64.848557
 20
1.143
  0
HATCH
  5
78
100
AcDbEntity
  8
ASSEMBLY_OUTLINES_TOP
100
AcDbHatch
 10
0.0
 20
0.0
 30
0.0
210
0.0
220
0.0
230
1.0
  2
SOLID
 70
         1
 71
         1
 91
        1
 92
        2
 72
         0
 73
         1
 93
        3
 10
64.277056999999999
 20
0.0
 10
63.705556999999999
 20
1.143
 10
64.848557
 20
1.143
 97
        1
330
77
 75
         0
 76
         1
 98
        1
 10
0.0
 20
0.0
  0
LWPOLYLINE
  5
79
100
AcDbEntity
  8
ASSEMBLY_OUTLINES_TOP
100
AcDbPolyline
 90
        3
 70
         1
 10
64.277057
 20
-3.0
 10
64.848556
 20
-4.143
 10
63.705557
 20
-4.142999
  0
HATCH
  5
7A
100
AcDbEntity
  8
ASSEMBLY_OUTLINES_TOP
100
AcDbHatch
 10
0.0
 20
0.0
 30
0.0
210
0.0
220
0.0
230
1.0
  2
SOLID
 70
         1
 71
         1
 91
        1
 92
        2
 72
         0
 73
         1
 93
        3
 10
64.277056999999999
 20
-3.0
 10
64.848556000000002
 20
-4.1429999999999998
 10
63.705556999999999
 20
-4.1429989999999997
 97
        1
330
79
 75
         0
 76
         1
 98
        1
 10
0.0
 20
0.0
  0
LWPOLYLINE
  5
7B
100
AcDbEntity
  8
ASSEMBLY_OUTLINES_TOP
100
AcDbPolyline
 90
        2
 70
         0
 43
0.2032
 10
138.992
 20
0.0
 10
69.796471
 20
0.0
  0
LWPOLYLINE
  5
7C
100
AcDbEntity
  8
ASSEMBLY_OUTLINES_TOP
100
AcDbPolyline
 90
        2
 70
         0
 43
0.2032
 10
73.112
 20
-3.0
 10
69.796471
 20
-3.0
  0
LWPOLYLINE
  5
7D
100
AcDbEntity
  8
ASSEMBLY_OUTLINES_TOP
100
AcDbPolyline
 90
        2
 70
         0
 43
0.2032
 10
70.304471
 20
0.5715
 10
70.304471
 20
2.8575
  0
LWPOLYLINE
  5
7E
100
AcDbEntity
  8
ASSEMBLY_OUTLINES_TOP
100
AcDbPolyline
 90
        2
 70
         0
 43
0.2032
 10
70.304471
 20
-3.5715
 10
70.304471
 20
-5.8575
  0
LWPOLYLINE
  5
7F
100
AcDbEntity
  8
ASSEMBLY_OUTLINES_TOP
100
AcDbPolyline
 90
        3
 70
         1
 10
70.304471
 20
0.0
 10
69.732971
 20
1.143
 10
70.875971
 20
1.143
  0
HATCH
  5
80
100
AcDbEntity
  8
ASSEMBLY_OUTLINES_TOP
100
AcDbHatch
 10
0.0
 20
0.0
 30
0.0
210
0.0
220
0.0
230
1.0
  2
SOLID
 70
         1
 71
         1
 91
        1
 92
        2
 72
         0
 73
         1
 93
        3
 10
70.304471000000007
 20
0.0
 10
69.732971000000006
 20
1.143
 10
70.875971000000007
 20
1.143
 97
        1
330
7F
 75
         0
 76
         1
 98
        1
 10
0.0
 20
0.0
  0
LWPOLYLINE
  5
81
100
AcDbEntity
  8
ASSEMBLY_OUTLINES_TOP
100
AcDbPolyline
 90
        3
 70
         1
 10
70.304471
 20
-3.0
 10
70.87597
 20
-4.143
 10
69.732971
 20
-4.142999
  0
HATCH
  5
82
100
AcDbEntity
  8
ASSEMBLY_OUTLINES_TOP
100
AcDbHatch
 10
0.0
 20
0.0
 30
0.0
210
0.0
220
0.0
230
1.0
  2
SOLID
 70
         1
 71
         1
 91
        1
 92
        2
 72
         0
 73
         1
 93
        3
 10
70.304471000000007
 20
-3.0
 10
70.875969999999995
 20
-4.1429999999999998
 10
69.732971000000006
 20
-4.1429989999999997
 97
        1
330
81
 75
         0
 76
         1
 98
        1
 10
0.0
 20
0.0
  0
LWPOLYLINE
  5
83
100
AcDbEntity
  8
ASSEMBLY_OUTLINES_TOP
100
AcDbPolyline
 90
        2
 70
         0
 43
0.2032
 10
1.492
 20
0.0
 10
-1.110791
 20
0.0
  0
LWPOLYLINE
  5
84
100
AcDbEntity
  8
ASSEMBLY_OUTLINES_TOP
100
AcDbPolyline
 90
        2
 70
         0
 43
0.2032
 10
1.862002
 20
-3.000002
 10
-1.110791
 20
-3.000002
  0
LWPOLYLINE
  5
85
100
AcDbEntity
  8
ASSEMBLY_OUTLINES_TOP
100
AcDbPolyline
 90
        2
 70
         0
 43
0.2032
 10
-0.602791
 20
0.5715
 10
-0.602791
 20
2.8575
  0
LWPOLYLINE
  5
86
100
AcDbEntity
  8
ASSEMBLY_OUTLINES_TOP
100
AcDbPolyline
 90
        2
 70
         0
 43
0.2032
 10
-0.602791
 20
-3.571502
 10
-0.602791
 20
-5.857502
  0
LWPOLYLINE
  5
87
100
AcDbEntity
  8
ASSEMBLY_OUTLINES_TOP
100
AcDbPolyline
 90
        3
 70
         1
 10
-0.602791
 20
0.0
 10
-1.174291
 20
1.143
 10
-0.031291
 20
1.143
  0
HATCH
  5
88
100
AcDbEntity
  8
ASSEMBLY_OUTLINES_TOP
100
AcDbHatch
 10
0.0
 20
0.0
 30
0.0
210
0.0
220
0.0
230
1.0
  2
SOLID
 70
         1
 71
         1
 91
        1
 92
        2
 72
         0
 73
         1
 93
        3
 10
-0.602791
 20
0.0
 10
-1.174291
 20
1.143
 10
-0.031291
 20
1.143
 97
        1
330
87
 75
         0
 76
         1
 98
        1
 10
0.0
 20
0.0
  0
LWPOLYLINE
  5
89
100
AcDbEntity
  8
ASSEMBLY_OUTLINES_TOP
100
AcDbPolyline
 90
        3
 70
         1
 10
-0.602791
 20
-3.000002
 10
-0.031292
 20
-4.143002
 10
-1.174291
 20
-4.143001
  0
HATCH
  5
8A
100
AcDbEntity
  8
ASSEMBLY_OUTLINES_TOP
100
AcDbHatch
 10
0.0
 20
0.0
 30
0.0
210
0.0
220
0.0
230
1.0
  2
SOLID
 70
         1
 71
         1
 91
        1
 92
        2
 72
         0
 73
         1
 93
        3
 10
-0.602791
 20
-3.0000019999999998
 10
-0.031292
 20
-4.1430020000000001
 10
-1.174291
 20
-4.1430009999999999
 97
        1
330
89
 75
         0
 76
         1
 98
        1
 10
0.0
 20
0.0
  0
LWPOLYLINE
  5
8B
100
AcDbEntity
  8
ASSEMBLY_OUTLINES_TOP
100
AcDbPolyline
 90
        2
 70
         0
 43
0.2032
 10
135.5
 20
14.492
 10
135.5
 20
-8.963646
  0
LWPOLYLINE
  5
8C
100
AcDbEntity
  8
ASSEMBLY_OUTLINES_TOP
100
AcDbPolyline
 90
        2
 70
         0
 43
0.2032
 10
139.5
 20
-0.508
 10
139.5
 20
-8.963646
  0
LWPOLYLINE
  5
8D
100
AcDbEntity
  8
ASSEMBLY_OUTLINES_TOP
100
AcDbPolyline
 90
        2
 70
         0
 43
0.2032
 10
134.9285
 20
-8.455646
 10
132.6425
 20
-8.455646
  0
LWPOLYLINE
  5
8E
100
AcDbEntity
  8
ASSEMBLY_OUTLINES_TOP
100
AcDbPolyline
 90
        2
 70
         0
 43
0.2032
 10
140.0715
 20
-8.455646
 10
142.3575
 20
-8.455646
  0
LWPOLYLINE
  5
8F
100
AcDbEntity
  8
ASSEMBLY_OUTLINES_TOP
100
AcDbPolyline
 90
        3
 70
         1
 10
135.5
 20
-8.455646
 10
134.357
 20
-9.027145
 10
134.357
 20
-7.884146
  0
HATCH
  5
90
100
AcDbEntity
  8
ASSEMBLY_OUTLINES_TOP
100
AcDbHatch
 10
0.0
 20
0.0
 30
0.0
210
0.0
220
0.0
230
1.0
  2
SOLID
 70
         1
 71
         1
 91
        1
 92
        2
 72
         0
 73
         1
 93
        3
 10
135.5
 20
-8.4556459999999998
 10
134.357
 20
-9.0271450000000009
 10
134.357
 20
-7.8841460000000003
 97
        1
330
8F
 75
         0
 76
         1
 98
        1
 10
0.0
 20
0.0
  0
LWPOLYLINE
  5
91
100
AcDbEntity
  8
ASSEMBLY_OUTLINES_TOP
100
AcDbPolyline
 90
        3
 70
         1
 10
139.5
 20
-8.455646
 10
140.643
 20
-7.884146
 10
140.643
 20
-9.027146
  0
HATCH
  5
92
100
AcDbEntity
  8
ASSEMBLY_OUTLINES_TOP
100
AcDbHatch
 10
0.0
 20
0.0
 30
0.0
210
0.0
220
0.0
230
1.0
  2
SOLID
 70
         1
 71
         1
 91
        1
 92
        2
 72
         0
 73
         1
 93
        3
 10
139.5
 20
-8.4556459999999998
 10
140.643
 20
-7.8841460000000003
 10
140.643
 20
-9.0271460000000001
 97
        1
330
91
 75
         0
 76
         1
 98
        1
 10
0.0
 20
0.0
  0
LWPOLYLINE
  5
93
100
AcDbEntity
  8
ASSEMBLY_OUTLINES_TOP
100
AcDbPolyline
 90
        2
 70
         0
 43
0.2032
 10
136.008
 20
15.0
 10
144.236281
 20
15.0
  0
LWPOLYLINE
  5
94
100
AcDbEntity
  8
ASSEMBLY_OUTLINES_TOP
100
AcDbPolyline
 90
        2
 70
         0
 43
0.2032
 10
140.008
 20
0.0
 10
144.236281
 20
0.0
  0
LWPOLYLINE
  5
95
100
AcDbEntity
  8
ASSEMBLY_OUTLINES_TOP
100
AcDbPolyline
 90
        2
 70
         0
 43
0.2032
 10
143.728281
 20
14.4285
 10
143.728281
 20
10.179255
  0
LWPOLYLINE
  5
96
100
AcDbEntity
  8
ASSEMBLY_OUTLINES_TOP
100
AcDbPolyline
 90
        2
 70
         0
 43
0.2032
 10
143.728281
 20
4.820745
 10
143.728281
 20
0.5715
  0
LWPOLYLINE
  5
97
100
AcDbEntity
  8
ASSEMBLY_OUTLINES_TOP
100
AcDbPolyline
 90
        3
 70
         1
 10
143.728281
 20
15.0
 10
144.29978
 20
13.857
 10
143.156781
 20
13.857001
  0
HATCH
  5
98
100
AcDbEntity
  8
ASSEMBLY_OUTLINES_TOP
100
AcDbHatch
 10
0.0
 20
0.0
 30
0.0
210
0.0
220
0.0
230
1.0
  2
SOLID
 70
         1
 71
         1
 91
        1
 92
        2
 72
         0
 73
         1
 93
        3
 10
143.72828100000001
 20
15.0
 10
144.29978
 20
13.856999999999999
 10
143.156781
 20
13.857001
 97
        1
330
97
 75
         0
 76
         1
 98
        1
 10
0.0
 20
0.0
  0
LWPOLYLINE
  5
99
100
AcDbEntity
  8
ASSEMBLY_OUTLINES_TOP
100
AcDbPolyline
 90
        3
 70
         1
 10
143.728281
 20
0.0
 10
143.156781
 20
1.143
 10
144.299781
 20
1.143
  0
HATCH
  5
9A
100
AcDbEntity
  8
ASSEMBLY_OUTLINES_TOP
100
AcDbHatch
 10
0.0
 20
0.0
 30
0.0
210
0.0
220
0.0
230
1.0
  2
SOLID
 70
         1
 71
         1
 91
        1
 92
        2
 72
         0
 73
         1
 93
        3
 10
143.72828100000001
 20
0.0
 10
143.156781
 20
1.143
 10
144.299781
 20
1.143
 97
        1
330
99
 75
         0
 76
         1
 98
        1
 10
0.0
 20
0.0
  0
LWPOLYLINE
  5
9B
100
AcDbEntity
  8
ASSEMBLY_OUTLINES_TOP
100
AcDbPolyline
 90
        4
 70
         1
 43
0.1
 10
66.05
 20
15.5
 10
66.05
 20
23.0
 10
79.35
 20
23.0
 10
79.35
 20
15.5
  0
LWPOLYLINE
  5
9C
100
AcDbEntity
  8
ASSEMBLY_OUTLINES_TOP
100
AcDbPolyline
 90
        4
 70
         1
 43
0.1
 10
51.25
 20
15.5
 10
51.25
 20
23.0
 10
64.55
 20
23.0
 10
64.55
 20
15.5
  0
TEXT
  5
9E
100
AcDbEntity
  8
ASSEMBLY_OUTLINES_TOP
100
AcDbText
 10
29.36799
 20
67.878696
 30
0.0
 40
1.27
  1
61.5mm
  7
VERIBEST_GERBER_1
 72
         1
 11
32.75
 21
68.513696
 31
0.0
100
AcDbText
 73
         2
  0
TEXT
  5
9F
100
AcDbEntity
  8
ASSEMBLY_OUTLINES_TOP
100
AcDbText
 10
-8.35479
 20
68.580734
 30
0.0
 40
1.27
  1
4mm
 50
90.0
  7
VERIBEST_GERBER_1
 72
         1
 11
-8.98979
 21
70.378419
 31
0.0
100
AcDbText
 73
         2
  0
TEXT
  5
A0
100
AcDbEntity
  8
ASSEMBLY_OUTLINES_TOP
100
AcDbText
 10
-4.676104
 20
68.385345
 30
0.0
 40
1.27
  1
4mm
  7
VERIBEST_GERBER_1
 72
         1
 11
-2.878419
 21
69.020345
 31
0.0
100
AcDbText
 73
         2
  0
TEXT
  5
A1
100
AcDbEntity
  8
ASSEMBLY_OUTLINES_TOP
100
AcDbText
 10
150.122884
 20
56.437841
 30
0.0
 40
1.27
  1
11.5mm
 50
90.0
  7
VERIBEST_GERBER_1
 72
         1
 11
149.487884
 21
59.750001
 31
0.0
100
AcDbText
 73
         2
  0
TEXT
  5
A2
100
AcDbEntity
  8
ASSEMBLY_OUTLINES_TOP
100
AcDbText
 10
131.74194
 20
72.387678
 30
0.0
 40
1.27
  1
11mm
  7
VERIBEST_GERBER_1
 72
         1
 11
134.0
 21
73.022678
 31
0.0
100
AcDbText
 73
         2
  0
TEXT
  5
A3
100
AcDbEntity
  8
ASSEMBLY_OUTLINES_TOP
100
AcDbText
 10
4.702315
 20
-5.962482
 30
0.0
 40
1.27
  1
9mm
  7
VERIBEST_GERBER_1
 72
         1
 11
6.5
 21
-5.327482
 31
0.0
100
AcDbText
 73
         2
  0
TEXT
  5
A4
100
AcDbEntity
  8
ASSEMBLY_OUTLINES_TOP
100
AcDbText
 10
-3.715538
 20
5.17209
 30
0.0
 40
1.27
  1
15mm
 50
90.0
  7
VERIBEST_GERBER_1
 72
         1
 11
-4.350538
 21
7.5
 31
0.0
100
AcDbText
 73
         2
  0
TEXT
  5
A5
100
AcDbEntity
  8
ASSEMBLY_OUTLINES_TOP
100
AcDbText
 10
66.767915
 20
69.536724
 30
0.0
 40
1.27
  1
137.5mm
  7
VERIBEST_GERBER_1
 72
         1
 11
70.75
 21
70.171724
 31
0.0
100
AcDbText
 73
         2
  0
TEXT
  5
A6
100
AcDbEntity
  8
ASSEMBLY_OUTLINES_TOP
100
AcDbText
 10
145.940084
 20
29.298141
 30
0.0
 40
1.27
  1
65.5mm
 50
90.0
  7
VERIBEST_GERBER_1
 72
         1
 11
145.305084
 21
32.750001
 31
0.0
100
AcDbText
 73
         2
  0
TEXT
  5
A7
100
AcDbEntity
  8
ASSEMBLY_OUTLINES_TOP
100
AcDbText
 10
64.912057
 20
3.080734
 30
0.0
 40
1.27
  1
3mm
 50
90.0
  7
VERIBEST_GERBER_1
 72
         1
 11
64.277057
 21
4.878419
 31
0.0
100
AcDbText
 73
         2
  0
TEXT
  5
A8
100
AcDbEntity
  8
ASSEMBLY_OUTLINES_TOP
100
AcDbText
 10
70.939471
 20
3.080734
 30
0.0
 40
1.27
  1
3mm
 50
90.0
  7
VERIBEST_GERBER_1
 72
         1
 11
70.304471
 21
4.878419
 31
0.0
100
AcDbText
 73
         2
  0
TEXT
  5
A9
100
AcDbEntity
  8
ASSEMBLY_OUTLINES_TOP
100
AcDbText
 10
0.032209
 20
3.080734
 30
0.0
 40
1.27
  1
3mm
 50
90.0
  7
VERIBEST_GERBER_1
 72
         1
 11
-0.602791
 21
4.878419
 31
0.0
100
AcDbText
 73
         2
  0
TEXT
  5
AA
100
AcDbEntity
  8
ASSEMBLY_OUTLINES_TOP
100
AcDbText
 10
128.823896
 20
-9.090646
 30
0.0
 40
1.27
  1
4mm
  7
VERIBEST_GERBER_1
 72
         1
 11
130.621581
 21
-8.455646
 31
0.0
100
AcDbText
 73
         2
  0
TEXT
  5
AB
100
AcDbEntity
  8
ASSEMBLY_OUTLINES_TOP
100
AcDbText
 10
144.36328
 20
5.17209
 30
0.0
 40
1.27
  1
15mm
 50
90.0
  7
VERIBEST_GERBER_1
 72
         1
 11
143.72828
 21
7.5
 31
0.0
100
AcDbText
 73
         2
  0
LWPOLYLINE
  5
AC
100
AcDbEntity
  8
ASSEMBLY_OUTLINES_TOP
100
AcDbPolyline
 90
        4
 70
         1
 43
0.1
 10
12.9
 20
9.7
 10
12.9
 20
12.7
 10
14.3
 20
12.7
 10
14.3
 20
9.7
  0
LWPOLYLINE
  5
AD
100
AcDbEntity
  8
ASSEMBLY_OUTLINES_TOP
100
AcDbPolyline
 90
        2
 70
         0
 43
0.1
 10
14.3
 20
9.8
 10
14.2
 20
9.7
  0
LWPOLYLINE
  5
AE
100
AcDbEntity
  8
ASSEMBLY_OUTLINES_TOP
100
AcDbPolyline
 90
        2
 70
         0
 43
0.1
 10
14.3
 20
9.9
 10
14.1
 20
9.7
  0
LWPOLYLINE
  5
AF
100
AcDbEntity
  8
ASSEMBLY_OUTLINES_TOP
100
AcDbPolyline
 90
        2
 70
         0
 43
0.1
 10
14.3
 20
10.0
 10
14.0
 20
9.7
  0
LWPOLYLINE
  5
B0
100
AcDbEntity
  8
ASSEMBLY_OUTLINES_TOP
100
AcDbPolyline
 90
        2
 70
         0
 43
0.1
 10
14.3
 20
10.1
 10
13.9
 20
9.7
  0
LWPOLYLINE
  5
B1
100
AcDbEntity
  8
ASSEMBLY_OUTLINES_TOP
100
AcDbPolyline
 90
        2
 70
         0
 43
0.1
 10
14.3
 20
10.2
 10
13.8
 20
9.7
  0
LWPOLYLINE
  5
B2
100
AcDbEntity
  8
ASSEMBLY_OUTLINES_TOP
100
AcDbPolyline
 90
        2
 70
         0
 43
0.1
 10
14.3
 20
10.3
 10
13.7
 20
9.7
  0
LWPOLYLINE
  5
B3
100
AcDbEntity
  8
ASSEMBLY_OUTLINES_TOP
100
AcDbPolyline
 90
        4
 70
         1
 43
0.1
 10
4.95
 20
44.45
 10
4.95
 20
47.75
 10
6.75
 20
47.75
 10
6.75
 20
44.45
  0
LWPOLYLINE
  5
B4
100
AcDbEntity
  8
ASSEMBLY_OUTLINES_TOP
100
AcDbPolyline
 90
        4
 70
         1
 10
92.38
 20
-3.0
 10
92.38
 20
22.4
 10
108.38
 20
22.4
 10
108.38
 20
-3.0
  0
LWPOLYLINE
  5
B5
100
AcDbEntity
  8
ASSEMBLY_OUTLINES_TOP
100
AcDbPolyline
 90
        4
 70
         1
 43
0.1
 10
7.9
 20
38.0
 10
7.9
 20
41.0
 10
10.9
 20
41.0
 10
10.9
 20
38.0
  0
LWPOLYLINE
  5
B6
100
AcDbEntity
  8
ASSEMBLY_OUTLINES_TOP
100
AcDbPolyline
 90
        2
 70
         0
 43
0.1
 10
10.9
 20
38.1
 10
10.8
 20
38.0
  0
LWPOLYLINE
  5
B7
100
AcDbEntity
  8
ASSEMBLY_OUTLINES_TOP
100
AcDbPolyline
 90
        2
 70
         0
 43
0.1
 10
10.9
 20
38.2
 10
10.7
 20
38.0
  0
LWPOLYLINE
  5
B8
100
AcDbEntity
  8
ASSEMBLY_OUTLINES_TOP
100
AcDbPolyline
 90
        2
 70
         0
 43
0.1
 10
10.9
 20
38.3
 10
10.6
 20
38.0
  0
LWPOLYLINE
  5
B9
100
AcDbEntity
  8
ASSEMBLY_OUTLINES_TOP
100
AcDbPolyline
 90
        2
 70
         0
 43
0.1
 10
10.9
 20
38.4
 10
10.5
 20
38.0
  0
LWPOLYLINE
  5
BA
100
AcDbEntity
  8
ASSEMBLY_OUTLINES_TOP
100
AcDbPolyline
 90
        2
 70
         0
 43
0.1
 10
10.9
 20
38.5
 10
10.4
 20
38.0
  0
LWPOLYLINE
  5
BB
100
AcDbEntity
  8
ASSEMBLY_OUTLINES_TOP
100
AcDbPolyline
 90
        2
 70
         0
 43
0.1
 10
10.9
 20
38.6
 10
10.3
 20
38.0
  0
LWPOLYLINE
  5
BC
100
AcDbEntity
  8
ASSEMBLY_OUTLINES_TOP
100
AcDbPolyline
 90
        4
 70
         1
 10
9.23
 20
58.375
 10
9.23
 20
63.455
 10
60.03
 20
63.455
 10
60.03
 20
58.375
  0
CIRCLE
  5
BD
100
AcDbEntity
  8
ASSEMBLY_OUTLINES_TOP
100
AcDbCircle
 10
10.498225
 20
59.63456
 30
0.0
 40
0.45
  0
HATCH
  5
BE
100
AcDbEntity
  8
ASSEMBLY_OUTLINES_TOP
100
AcDbHatch
 10
0.0
 20
0.0
 30
0.0
210
0.0
220
0.0
230
1.0
  2
SOLID
 70
         1
 71
         1
 91
        1
 92
        1
 93
        1
 72
         2
 10
10.498225
 20
59.63456
 40
0.45
 50
0.0
 51
360.0
 73
         1
 97
        1
330
BD
 75
         0
 76
         1
 98
        1
 10
0.0
 20
0.0
  0
CIRCLE
  5
BF
100
AcDbEntity
  8
ASSEMBLY_OUTLINES_TOP
100
AcDbCircle
 10
13.038225
 20
59.63456
 30
0.0
 40
0.45
  0
HATCH
  5
C0
100
AcDbEntity
  8
ASSEMBLY_OUTLINES_TOP
100
AcDbHatch
 10
0.0
 20
0.0
 30
0.0
210
0.0
220
0.0
230
1.0
  2
SOLID
 70
         1
 71
         1
 91
        1
 92
        1
 93
        1
 72
         2
 10
13.038225000000001
 20
59.63456
 40
0.45
 50
0.0
 51
360.0
 73
         1
 97
        1
330
BF
 75
         0
 76
         1
 98
        1
 10
0.0
 20
0.0
  0
CIRCLE
  5
C1
100
AcDbEntity
  8
ASSEMBLY_OUTLINES_TOP
100
AcDbCircle
 10
15.578225
 20
59.63456
 30
0.0
 40
0.45
  0
HATCH
  5
C2
100
AcDbEntity
  8
ASSEMBLY_OUTLINES_TOP
100
AcDbHatch
 10
0.0
 20
0.0
 30
0.0
210
0.0
220
0.0
230
1.0
  2
SOLID
 70
         1
 71
         1
 91
        1
 92
        1
 93
        1
 72
         2
 10
15.578225
 20
59.63456
 40
0.45
 50
0.0
 51
360.0
 73
         1
 97
        1
330
C1
 75
         0
 76
         1
 98
        1
 10
0.0
 20
0.0
  0
CIRCLE
  5
C3
100
AcDbEntity
  8
ASSEMBLY_OUTLINES_TOP
100
AcDbCircle
 10
18.118225
 20
59.63456
 30
0.0
 40
0.45
  0
HATCH
  5
C4
100
AcDbEntity
  8
ASSEMBLY_OUTLINES_TOP
100
AcDbHatch
 10
0.0
 20
0.0
 30
0.0
210
0.0
220
0.0
230
1.0
  2
SOLID
 70
         1
 71
         1
 91
        1
 92
        1
 93
        1
 72
         2
 10
18.118224999999999
 20
59.63456
 40
0.45
 50
0.0
 51
360.0
 73
         1
 97
        1
330
C3
 75
         0
 76
         1
 98
        1
 10
0.0
 20
0.0
  0
CIRCLE
  5
C5
100
AcDbEntity
  8
ASSEMBLY_OUTLINES_TOP
100
AcDbCircle
 10
20.658225
 20
59.63456
 30
0.0
 40
0.45
  0
HATCH
  5
C6
100
AcDbEntity
  8
ASSEMBLY_OUTLINES_TOP
100
AcDbHatch
 10
0.0
 20
0.0
 30
0.0
210
0.0
220
0.0
230
1.0
  2
SOLID
 70
         1
 71
         1
 91
        1
 92
        1
 93
        1
 72
         2
 10
20.658225000000002
 20
59.63456
 40
0.45
 50
0.0
 51
360.0
 73
         1
 97
        1
330
C5
 75
         0
 76
         1
 98
        1
 10
0.0
 20
0.0
  0
CIRCLE
  5
C7
100
AcDbEntity
  8
ASSEMBLY_OUTLINES_TOP
100
AcDbCircle
 10
23.198225
 20
59.63456
 30
0.0
 40
0.45
  0
HATCH
  5
C8
100
AcDbEntity
  8
ASSEMBLY_OUTLINES_TOP
100
AcDbHatch
 10
0.0
 20
0.0
 30
0.0
210
0.0
220
0.0
230
1.0
  2
SOLID
 70
         1
 71
         1
 91
        1
 92
        1
 93
        1
 72
         2
 10
23.198225000000001
 20
59.63456
 40
0.45
 50
0.0
 51
360.0
 73
         1
 97
        1
330
C7
 75
         0
 76
         1
 98
        1
 10
0.0
 20
0.0
  0
CIRCLE
  5
C9
100
AcDbEntity
  8
ASSEMBLY_OUTLINES_TOP
100
AcDbCircle
 10
25.738225
 20
59.63456
 30
0.0
 40
0.45
  0
HATCH
  5
CA
100
AcDbEntity
  8
ASSEMBLY_OUTLINES_TOP
100
AcDbHatch
 10
0.0
 20
0.0
 30
0.0
210
0.0
220
0.0
230
1.0
  2
SOLID
 70
         1
 71
         1
 91
        1
 92
        1
 93
        1
 72
         2
 10
25.738225
 20
59.63456
 40
0.45
 50
0.0
 51
360.0
 73
         1
 97
        1
330
C9
 75
         0
 76
         1
 98
        1
 10
0.0
 20
0.0
  0
CIRCLE
  5
CB
100
AcDbEntity
  8
ASSEMBLY_OUTLINES_TOP
100
AcDbCircle
 10
28.278225
 20
59.63456
 30
0.0
 40
0.45
  0
HATCH
  5
CC
100
AcDbEntity
  8
ASSEMBLY_OUTLINES_TOP
100
AcDbHatch
 10
0.0
 20
0.0
 30
0.0
210
0.0
220
0.0
230
1.0
  2
SOLID
 70
         1
 71
         1
 91
        1
 92
        1
 93
        1
 72
         2
 10
28.278224999999999
 20
59.63456
 40
0.45
 50
0.0
 51
360.0
 73
         1
 97
        1
330
CB
 75
         0
 76
         1
 98
        1
 10
0.0
 20
0.0
  0
CIRCLE
  5
CD
100
AcDbEntity
  8
ASSEMBLY_OUTLINES_TOP
100
AcDbCircle
 10
30.818225
 20
59.63456
 30
0.0
 40
0.45
  0
HATCH
  5
CE
100
AcDbEntity
  8
ASSEMBLY_OUTLINES_TOP
100
AcDbHatch
 10
0.0
 20
0.0
 30
0.0
210
0.0
220
0.0
230
1.0
  2
SOLID
 70
         1
 71
         1
 91
        1
 92
        1
 93
        1
 72
         2
 10
30.818225000000002
 20
59.63456
 40
0.45
 50
0.0
 51
360.0
 73
         1
 97
        1
330
CD
 75
         0
 76
         1
 98
        1
 10
0.0
 20
0.0
  0
CIRCLE
  5
CF
100
AcDbEntity
  8
ASSEMBLY_OUTLINES_TOP
100
AcDbCircle
 10
33.358225
 20
59.63456
 30
0.0
 40
0.45
  0
HATCH
  5
D0
100
AcDbEntity
  8
ASSEMBLY_OUTLINES_TOP
100
AcDbHatch
 10
0.0
 20
0.0
 30
0.0
210
0.0
220
0.0
230
1.0
  2
SOLID
 70
         1
 71
         1
 91
        1
 92
        1
 93
        1
 72
         2
 10
33.358224999999997
 20
59.63456
 40
0.45
 50
0.0
 51
360.0
 73
         1
 97
        1
330
CF
 75
         0
 76
         1
 98
        1
 10
0.0
 20
0.0
  0
CIRCLE
  5
D1
100
AcDbEntity
  8
ASSEMBLY_OUTLINES_TOP
100
AcDbCircle
 10
35.901774
 20
59.62544
 30
0.0
 40
0.45
  0
HATCH
  5
D2
100
AcDbEntity
  8
ASSEMBLY_OUTLINES_TOP
100
AcDbHatch
 10
0.0
 20
0.0
 30
0.0
210
0.0
220
0.0
230
1.0
  2
SOLID
 70
         1
 71
         1
 91
        1
 92
        1
 93
        1
 72
         2
 10
35.901774000000003
 20
59.625439999999998
 40
0.45
 50
0.0
 51
360.0
 73
         1
 97
        1
330
D1
 75
         0
 76
         1
 98
        1
 10
0.0
 20
0.0
  0
CIRCLE
  5
D3
100
AcDbEntity
  8
ASSEMBLY_OUTLINES_TOP
100
AcDbCircle
 10
38.441774
 20
59.62544
 30
0.0
 40
0.45
  0
HATCH
  5
D4
100
AcDbEntity
  8
ASSEMBLY_OUTLINES_TOP
100
AcDbHatch
 10
0.0
 20
0.0
 30
0.0
210
0.0
220
0.0
230
1.0
  2
SOLID
 70
         1
 71
         1
 91
        1
 92
        1
 93
        1
 72
         2
 10
38.441774000000002
 20
59.625439999999998
 40
0.45
 50
0.0
 51
360.0
 73
         1
 97
        1
330
D3
 75
         0
 76
         1
 98
        1
 10
0.0
 20
0.0
  0
CIRCLE
  5
D5
100
AcDbEntity
  8
ASSEMBLY_OUTLINES_TOP
100
AcDbCircle
 10
40.981774
 20
59.62544
 30
0.0
 40
0.45
  0
HATCH
  5
D6
100
AcDbEntity
  8
ASSEMBLY_OUTLINES_TOP
100
AcDbHatch
 10
0.0
 20
0.0
 30
0.0
210
0.0
220
0.0
230
1.0
  2
SOLID
 70
         1
 71
         1
 91
        1
 92
        1
 93
        1
 72
         2
 10
40.981774000000001
 20
59.625439999999998
 40
0.45
 50
0.0
 51
360.0
 73
         1
 97
        1
330
D5
 75
         0
 76
         1
 98
        1
 10
0.0
 20
0.0
  0
CIRCLE
  5
D7
100
AcDbEntity
  8
ASSEMBLY_OUTLINES_TOP
100
AcDbCircle
 10
43.521774
 20
59.62544
 30
0.0
 40
0.45
  0
HATCH
  5
D8
100
AcDbEntity
  8
ASSEMBLY_OUTLINES_TOP
100
AcDbHatch
 10
0.0
 20
0.0
 30
0.0
210
0.0
220
0.0
230
1.0
  2
SOLID
 70
         1
 71
         1
 91
        1
 92
        1
 93
        1
 72
         2
 10
43.521774000000001
 20
59.625439999999998
 40
0.45
 50
0.0
 51
360.0
 73
         1
 97
        1
330
D7
 75
         0
 76
         1
 98
        1
 10
0.0
 20
0.0
  0
CIRCLE
  5
D9
100
AcDbEntity
  8
ASSEMBLY_OUTLINES_TOP
100
AcDbCircle
 10
46.061774
 20
59.62544
 30
0.0
 40
0.45
  0
HATCH
  5
DA
100
AcDbEntity
  8
ASSEMBLY_OUTLINES_TOP
100
AcDbHatch
 10
0.0
 20
0.0
 30
0.0
210
0.0
220
0.0
230
1.0
  2
SOLID
 70
         1
 71
         1
 91
        1
 92
        1
 93
        1
 72
         2
 10
46.061774
 20
59.625439999999998
 40
0.45
 50
0.0
 51
360.0
 73
         1
 97
        1
330
D9
 75
         0
 76
         1
 98
        1
 10
0.0
 20
0.0
  0
CIRCLE
  5
DB
100
AcDbEntity
  8
ASSEMBLY_OUTLINES_TOP
100
AcDbCircle
 10
48.601774
 20
59.62544
 30
0.0
 40
0.45
  0
HATCH
  5
DC
100
AcDbEntity
  8
ASSEMBLY_OUTLINES_TOP
100
AcDbHatch
 10
0.0
 20
0.0
 30
0.0
210
0.0
220
0.0
230
1.0
  2
SOLID
 70
         1
 71
         1
 91
        1
 92
        1
 93
        1
 72
         2
 10
48.601773999999999
 20
59.625439999999998
 40
0.45
 50
0.0
 51
360.0
 73
         1
 97
        1
330
DB
 75
         0
 76
         1
 98
        1
 10
0.0
 20
0.0
  0
CIRCLE
  5
DD
100
AcDbEntity
  8
ASSEMBLY_OUTLINES_TOP
100
AcDbCircle
 10
51.141774
 20
59.62544
 30
0.0
 40
0.45
  0
HATCH
  5
DE
100
AcDbEntity
  8
ASSEMBLY_OUTLINES_TOP
100
AcDbHatch
 10
0.0
 20
0.0
 30
0.0
210
0.0
220
0.0
230
1.0
  2
SOLID
 70
         1
 71
         1
 91
        1
 92
        1
 93
        1
 72
         2
 10
51.141773999999998
 20
59.625439999999998
 40
0.45
 50
0.0
 51
360.0
 73
         1
 97
        1
330
DD
 75
         0
 76
         1
 98
        1
 10
0.0
 20
0.0
  0
CIRCLE
  5
DF
100
AcDbEntity
  8
ASSEMBLY_OUTLINES_TOP
100
AcDbCircle
 10
53.681774
 20
59.62544
 30
0.0
 40
0.45
  0
HATCH
  5
E0
100
AcDbEntity
  8
ASSEMBLY_OUTLINES_TOP
100
AcDbHatch
 10
0.0
 20
0.0
 30
0.0
210
0.0
220
0.0
230
1.0
  2
SOLID
 70
         1
 71
         1
 91
        1
 92
        1
 93
        1
 72
         2
 10
53.681773999999997
 20
59.625439999999998
 40
0.45
 50
0.0
 51
360.0
 73
         1
 97
        1
330
DF
 75
         0
 76
         1
 98
        1
 10
0.0
 20
0.0
  0
CIRCLE
  5
E1
100
AcDbEntity
  8
ASSEMBLY_OUTLINES_TOP
100
AcDbCircle
 10
56.221774
 20
59.62544
 30
0.0
 40
0.45
  0
HATCH
  5
E2
100
AcDbEntity
  8
ASSEMBLY_OUTLINES_TOP
100
AcDbHatch
 10
0.0
 20
0.0
 30
0.0
210
0.0
220
0.0
230
1.0
  2
SOLID
 70
         1
 71
         1
 91
        1
 92
        1
 93
        1
 72
         2
 10
56.221774000000003
 20
59.625439999999998
 40
0.45
 50
0.0
 51
360.0
 73
         1
 97
        1
330
E1
 75
         0
 76
         1
 98
        1
 10
0.0
 20
0.0
  0
CIRCLE
  5
E3
100
AcDbEntity
  8
ASSEMBLY_OUTLINES_TOP
100
AcDbCircle
 10
58.761774
 20
59.62544
 30
0.0
 40
0.45
  0
HATCH
  5
E4
100
AcDbEntity
  8
ASSEMBLY_OUTLINES_TOP
100
AcDbHatch
 10
0.0
 20
0.0
 30
0.0
210
0.0
220
0.0
230
1.0
  2
SOLID
 70
         1
 71
         1
 91
        1
 92
        1
 93
        1
 72
         2
 10
58.761774000000003
 20
59.625439999999998
 40
0.45
 50
0.0
 51
360.0
 73
         1
 97
        1
330
E3
 75
         0
 76
         1
 98
        1
 10
0.0
 20
0.0
  0
CIRCLE
  5
E5
100
AcDbEntity
  8
ASSEMBLY_OUTLINES_TOP
100
AcDbCircle
 10
10.5
 20
62.17
 30
0.0
 40
0.45
  0
HATCH
  5
E6
100
AcDbEntity
  8
ASSEMBLY_OUTLINES_TOP
100
AcDbHatch
 10
0.0
 20
0.0
 30
0.0
210
0.0
220
0.0
230
1.0
  2
SOLID
 70
         1
 71
         1
 91
        1
 92
        1
 93
        1
 72
         2
 10
10.5
 20
62.170000000000002
 40
0.45
 50
0.0
 51
360.0
 73
         1
 97
        1
330
E5
 75
         0
 76
         1
 98
        1
 10
0.0
 20
0.0
  0
CIRCLE
  5
E7
100
AcDbEntity
  8
ASSEMBLY_OUTLINES_TOP
100
AcDbCircle
 10
13.04
 20
62.17
 30
0.0
 40
0.45
  0
HATCH
  5
E8
100
AcDbEntity
  8
ASSEMBLY_OUTLINES_TOP
100
AcDbHatch
 10
0.0
 20
0.0
 30
0.0
210
0.0
220
0.0
230
1.0
  2
SOLID
 70
         1
 71
         1
 91
        1
 92
        1
 93
        1
 72
         2
 10
13.039999999999999
 20
62.170000000000002
 40
0.45
 50
0.0
 51
360.0
 73
         1
 97
        1
330
E7
 75
         0
 76
         1
 98
        1
 10
0.0
 20
0.0
  0
CIRCLE
  5
E9
100
AcDbEntity
  8
ASSEMBLY_OUTLINES_TOP
100
AcDbCircle
 10
15.58
 20
62.17
 30
0.0
 40
0.45
  0
HATCH
  5
EA
100
AcDbEntity
  8
ASSEMBLY_OUTLINES_TOP
100
AcDbHatch
 10
0.0
 20
0.0
 30
0.0
210
0.0
220
0.0
230
1.0
  2
SOLID
 70
         1
 71
         1
 91
        1
 92
        1
 93
        1
 72
         2
 10
15.58
 20
62.170000000000002
 40
0.45
 50
0.0
 51
360.0
 73
         1
 97
        1
330
E9
 75
         0
 76
         1
 98
        1
 10
0.0
 20
0.0
  0
CIRCLE
  5
EB
100
AcDbEntity
  8
ASSEMBLY_OUTLINES_TOP
100
AcDbCircle
 10
18.12
 20
62.17
 30
0.0
 40
0.45
  0
HATCH
  5
EC
100
AcDbEntity
  8
ASSEMBLY_OUTLINES_TOP
100
AcDbHatch
 10
0.0
 20
0.0
 30
0.0
210
0.0
220
0.0
230
1.0
  2
SOLID
 70
         1
 71
         1
 91
        1
 92
        1
 93
        1
 72
         2
 10
18.120000000000001
 20
62.170000000000002
 40
0.45
 50
0.0
 51
360.0
 73
         1
 97
        1
330
EB
 75
         0
 76
         1
 98
        1
 10
0.0
 20
0.0
  0
CIRCLE
  5
ED
100
AcDbEntity
  8
ASSEMBLY_OUTLINES_TOP
100
AcDbCircle
 10
20.66
 20
62.17
 30
0.0
 40
0.45
  0
HATCH
  5
EE
100
AcDbEntity
  8
ASSEMBLY_OUTLINES_TOP
100
AcDbHatch
 10
0.0
 20
0.0
 30
0.0
210
0.0
220
0.0
230
1.0
  2
SOLID
 70
         1
 71
         1
 91
        1
 92
        1
 93
        1
 72
         2
 10
20.66
 20
62.170000000000002
 40
0.45
 50
0.0
 51
360.0
 73
         1
 97
        1
330
ED
 75
         0
 76
         1
 98
        1
 10
0.0
 20
0.0
  0
CIRCLE
  5
EF
100
AcDbEntity
  8
ASSEMBLY_OUTLINES_TOP
100
AcDbCircle
 10
23.2
 20
62.17
 30
0.0
 40
0.45
  0
HATCH
  5
F0
100
AcDbEntity
  8
ASSEMBLY_OUTLINES_TOP
100
AcDbHatch
 10
0.0
 20
0.0
 30
0.0
210
0.0
220
0.0
230
1.0
  2
SOLID
 70
         1
 71
         1
 91
        1
 92
        1
 93
        1
 72
         2
 10
23.199999999999999
 20
62.170000000000002
 40
0.45
 50
0.0
 51
360.0
 73
         1
 97
        1
330
EF
 75
         0
 76
         1
 98
        1
 10
0.0
 20
0.0
  0
CIRCLE
  5
F1
100
AcDbEntity
  8
ASSEMBLY_OUTLINES_TOP
100
AcDbCircle
 10
25.74
 20
62.17
 30
0.0
 40
0.45
  0
HATCH
  5
F2
100
AcDbEntity
  8
ASSEMBLY_OUTLINES_TOP
100
AcDbHatch
 10
0.0
 20
0.0
 30
0.0
210
0.0
220
0.0
230
1.0
  2
SOLID
 70
         1
 71
         1
 91
        1
 92
        1
 93
        1
 72
         2
 10
25.739999999999998
 20
62.170000000000002
 40
0.45
 50
0.0
 51
360.0
 73
         1
 97
        1
330
F1
 75
         0
 76
         1
 98
        1
 10
0.0
 20
0.0
  0
CIRCLE
  5
F3
100
AcDbEntity
  8
ASSEMBLY_OUTLINES_TOP
100
AcDbCircle
 10
28.28
 20
62.17
 30
0.0
 40
0.45
  0
HATCH
  5
F4
100
AcDbEntity
  8
ASSEMBLY_OUTLINES_TOP
100
AcDbHatch
 10
0.0
 20
0.0
 30
0.0
210
0.0
220
0.0
230
1.0
  2
SOLID
 70
         1
 71
         1
 91
        1
 92
        1
 93
        1
 72
         2
 10
28.280000000000001
 20
62.170000000000002
 40
0.45
 50
0.0
 51
360.0
 73
         1
 97
        1
330
F3
 75
         0
 76
         1
 98
        1
 10
0.0
 20
0.0
  0
CIRCLE
  5
F5
100
AcDbEntity
  8
ASSEMBLY_OUTLINES_TOP
100
AcDbCircle
 10
30.82
 20
62.17
 30
0.0
 40
0.45
  0
HATCH
  5
F6
100
AcDbEntity
  8
ASSEMBLY_OUTLINES_TOP
100
AcDbHatch
 10
0.0
 20
0.0
 30
0.0
210
0.0
220
0.0
230
1.0
  2
SOLID
 70
         1
 71
         1
 91
        1
 92
        1
 93
        1
 72
         2
 10
30.82
 20
62.170000000000002
 40
0.45
 50
0.0
 51
360.0
 73
         1
 97
        1
330
F5
 75
         0
 76
         1
 98
        1
 10
0.0
 20
0.0
  0
CIRCLE
  5
F7
100
AcDbEntity
  8
ASSEMBLY_OUTLINES_TOP
100
AcDbCircle
 10
33.36
 20
62.17
 30
0.0
 40
0.45
  0
HATCH
  5
F8
100
AcDbEntity
  8
ASSEMBLY_OUTLINES_TOP
100
AcDbHatch
 10
0.0
 20
0.0
 30
0.0
210
0.0
220
0.0
230
1.0
  2
SOLID
 70
         1
 71
         1
 91
        1
 92
        1
 93
        1
 72
         2
 10
33.359999999999999
 20
62.170000000000002
 40
0.45
 50
0.0
 51
360.0
 73
         1
 97
        1
330
F7
 75
         0
 76
         1
 98
        1
 10
0.0
 20
0.0
  0
CIRCLE
  5
F9
100
AcDbEntity
  8
ASSEMBLY_OUTLINES_TOP
100
AcDbCircle
 10
35.903549
 20
62.17088
 30
0.0
 40
0.45
  0
HATCH
  5
FA
100
AcDbEntity
  8
ASSEMBLY_OUTLINES_TOP
100
AcDbHatch
 10
0.0
 20
0.0
 30
0.0
210
0.0
220
0.0
230
1.0
  2
SOLID
 70
         1
 71
         1
 91
        1
 92
        1
 93
        1
 72
         2
 10
35.903548999999998
 20
62.170879999999997
 40
0.45
 50
0.0
 51
360.0
 73
         1
 97
        1
330
F9
 75
         0
 76
         1
 98
        1
 10
0.0
 20
0.0
  0
CIRCLE
  5
FB
100
AcDbEntity
  8
ASSEMBLY_OUTLINES_TOP
100
AcDbCircle
 10
38.443549
 20
62.17088
 30
0.0
 40
0.45
  0
HATCH
  5
FC
100
AcDbEntity
  8
ASSEMBLY_OUTLINES_TOP
100
AcDbHatch
 10
0.0
 20
0.0
 30
0.0
210
0.0
220
0.0
230
1.0
  2
SOLID
 70
         1
 71
         1
 91
        1
 92
        1
 93
        1
 72
         2
 10
38.443548999999997
 20
62.170879999999997
 40
0.45
 50
0.0
 51
360.0
 73
         1
 97
        1
330
FB
 75
         0
 76
         1
 98
        1
 10
0.0
 20
0.0
  0
CIRCLE
  5
FD
100
AcDbEntity
  8
ASSEMBLY_OUTLINES_TOP
100
AcDbCircle
 10
40.983549
 20
62.17088
 30
0.0
 40
0.45
  0
HATCH
  5
FE
100
AcDbEntity
  8
ASSEMBLY_OUTLINES_TOP
100
AcDbHatch
 10
0.0
 20
0.0
 30
0.0
210
0.0
220
0.0
230
1.0
  2
SOLID
 70
         1
 71
         1
 91
        1
 92
        1
 93
        1
 72
         2
 10
40.983548999999996
 20
62.170879999999997
 40
0.45
 50
0.0
 51
360.0
 73
         1
 97
        1
330
FD
 75
         0
 76
         1
 98
        1
 10
0.0
 20
0.0
  0
CIRCLE
  5
FF
100
AcDbEntity
  8
ASSEMBLY_OUTLINES_TOP
100
AcDbCircle
 10
43.523549
 20
62.17088
 30
0.0
 40
0.45
  0
HATCH
  5
100
100
AcDbEntity
  8
ASSEMBLY_OUTLINES_TOP
100
AcDbHatch
 10
0.0
 20
0.0
 30
0.0
210
0.0
220
0.0
230
1.0
  2
SOLID
 70
         1
 71
         1
 91
        1
 92
        1
 93
        1
 72
         2
 10
43.523549000000003
 20
62.170879999999997
 40
0.45
 50
0.0
 51
360.0
 73
         1
 97
        1
330
FF
 75
         0
 76
         1
 98
        1
 10
0.0
 20
0.0
  0
CIRCLE
  5
101
100
AcDbEntity
  8
ASSEMBLY_OUTLINES_TOP
100
AcDbCircle
 10
46.063549
 20
62.17088
 30
0.0
 40
0.45
  0
HATCH
  5
102
100
AcDbEntity
  8
ASSEMBLY_OUTLINES_TOP
100
AcDbHatch
 10
0.0
 20
0.0
 30
0.0
210
0.0
220
0.0
230
1.0
  2
SOLID
 70
         1
 71
         1
 91
        1
 92
        1
 93
        1
 72
         2
 10
46.063549000000002
 20
62.170879999999997
 40
0.45
 50
0.0
 51
360.0
 73
         1
 97
        1
330
101
 75
         0
 76
         1
 98
        1
 10
0.0
 20
0.0
  0
CIRCLE
  5
103
100
AcDbEntity
  8
ASSEMBLY_OUTLINES_TOP
100
AcDbCircle
 10
48.603549
 20
62.17088
 30
0.0
 40
0.45
  0
HATCH
  5
104
100
AcDbEntity
  8
ASSEMBLY_OUTLINES_TOP
100
AcDbHatch
 10
0.0
 20
0.0
 30
0.0
210
0.0
220
0.0
230
1.0
  2
SOLID
 70
         1
 71
         1
 91
        1
 92
        1
 93
        1
 72
         2
 10
48.603549000000001
 20
62.170879999999997
 40
0.45
 50
0.0
 51
360.0
 73
         1
 97
        1
330
103
 75
         0
 76
         1
 98
        1
 10
0.0
 20
0.0
  0
CIRCLE
  5
105
100
AcDbEntity
  8
ASSEMBLY_OUTLINES_TOP
100
AcDbCircle
 10
51.143549
 20
62.17088
 30
0.0
 40
0.45
  0
HATCH
  5
106
100
AcDbEntity
  8
ASSEMBLY_OUTLINES_TOP
100
AcDbHatch
 10
0.0
 20
0.0
 30
0.0
210
0.0
220
0.0
230
1.0
  2
SOLID
 70
         1
 71
         1
 91
        1
 92
        1
 93
        1
 72
         2
 10
51.143549
 20
62.170879999999997
 40
0.45
 50
0.0
 51
360.0
 73
         1
 97
        1
330
105
 75
         0
 76
         1
 98
        1
 10
0.0
 20
0.0
  0
CIRCLE
  5
107
100
AcDbEntity
  8
ASSEMBLY_OUTLINES_TOP
100
AcDbCircle
 10
53.683549
 20
62.17088
 30
0.0
 40
0.45
  0
HATCH
  5
108
100
AcDbEntity
  8
ASSEMBLY_OUTLINES_TOP
100
AcDbHatch
 10
0.0
 20
0.0
 30
0.0
210
0.0
220
0.0
230
1.0
  2
SOLID
 70
         1
 71
         1
 91
        1
 92
        1
 93
        1
 72
         2
 10
53.683548999999999
 20
62.170879999999997
 40
0.45
 50
0.0
 51
360.0
 73
         1
 97
        1
330
107
 75
         0
 76
         1
 98
        1
 10
0.0
 20
0.0
  0
CIRCLE
  5
109
100
AcDbEntity
  8
ASSEMBLY_OUTLINES_TOP
100
AcDbCircle
 10
56.223549
 20
62.17088
 30
0.0
 40
0.45
  0
HATCH
  5
10A
100
AcDbEntity
  8
ASSEMBLY_OUTLINES_TOP
100
AcDbHatch
 10
0.0
 20
0.0
 30
0.0
210
0.0
220
0.0
230
1.0
  2
SOLID
 70
         1
 71
         1
 91
        1
 92
        1
 93
        1
 72
         2
 10
56.223548999999998
 20
62.170879999999997
 40
0.45
 50
0.0
 51
360.0
 73
         1
 97
        1
330
109
 75
         0
 76
         1
 98
        1
 10
0.0
 20
0.0
  0
CIRCLE
  5
10B
100
AcDbEntity
  8
ASSEMBLY_OUTLINES_TOP
100
AcDbCircle
 10
58.763549
 20
62.17088
 30
0.0
 40
0.45
  0
HATCH
  5
10C
100
AcDbEntity
  8
ASSEMBLY_OUTLINES_TOP
100
AcDbHatch
 10
0.0
 20
0.0
 30
0.0
210
0.0
220
0.0
230
1.0
  2
SOLID
 70
         1
 71
         1
 91
        1
 92
        1
 93
        1
 72
         2
 10
58.763548999999998
 20
62.170879999999997
 40
0.45
 50
0.0
 51
360.0
 73
         1
 97
        1
330
10B
 75
         0
 76
         1
 98
        1
 10
0.0
 20
0.0
  0
LWPOLYLINE
  5
10D
100
AcDbEntity
  8
ASSEMBLY_OUTLINES_TOP
100
AcDbPolyline
 90
        4
 70
         1
 43
0.1
 10
9.15
 20
21.5
 10
9.15
 20
25.2
 10
12.15
 20
25.2
 10
12.15
 20
21.5
  0
LWPOLYLINE
  5
10E
100
AcDbEntity
  8
ASSEMBLY_OUTLINES_TOP
100
AcDbPolyline
 90
        2
 70
         0
 43
0.1
 10
9.15
 20
25.1
 10
12.15
 20
25.1
  0
LWPOLYLINE
  5
10F
100
AcDbEntity
  8
ASSEMBLY_OUTLINES_TOP
100
AcDbPolyline
 90
        2
 70
         0
 43
0.1
 10
9.15
 20
25.0
 10
12.15
 20
25.0
  0
LWPOLYLINE
  5
110
100
AcDbEntity
  8
ASSEMBLY_OUTLINES_TOP
100
AcDbPolyline
 90
        2
 70
         0
 43
0.1
 10
9.15
 20
24.9
 10
12.15
 20
24.9
  0
LWPOLYLINE
  5
111
100
AcDbEntity
  8
ASSEMBLY_OUTLINES_TOP
100
AcDbPolyline
 90
        2
 70
         0
 43
0.1
 10
9.15
 20
24.8
 10
12.15
 20
24.8
  0
LWPOLYLINE
  5
112
100
AcDbEntity
  8
ASSEMBLY_OUTLINES_TOP
100
AcDbPolyline
 90
        2
 70
         0
 43
0.1
 10
9.15
 20
24.7
 10
12.15
 20
24.7
  0
LWPOLYLINE
  5
113
100
AcDbEntity
  8
ASSEMBLY_OUTLINES_TOP
100
AcDbPolyline
 90
        2
 70
         0
 43
0.1
 10
9.15
 20
24.6
 10
12.15
 20
24.6
  0
LWPOLYLINE
  5
114
100
AcDbEntity
  8
ASSEMBLY_OUTLINES_TOP
100
AcDbPolyline
 90
        2
 70
         0
 43
0.1
 10
9.15
 20
24.5
 10
12.15
 20
24.5
  0
LWPOLYLINE
  5
115
100
AcDbEntity
  8
ASSEMBLY_OUTLINES_TOP
100
AcDbPolyline
 90
        2
 70
         0
 43
0.1
 10
9.15
 20
24.4
 10
12.15
 20
24.4
  0
LWPOLYLINE
  5
116
100
AcDbEntity
  8
ASSEMBLY_OUTLINES_TOP
100
AcDbPolyline
 90
        4
 70
         1
 10
39.43
 20
21.63
 10
39.43
 20
24.17
 10
44.51
 20
24.17
 10
44.51
 20
21.63
  0
LWPOLYLINE
  5
117
100
AcDbEntity
  8
ASSEMBLY_OUTLINES_TOP
100
AcDbPolyline
 90
        5
 70
         1
 10
17.4
 20
14.4
 10
17.4
 20
-18.6
 10
41.4
 20
-18.6
 10
41.4
 20
10.15
 10
36.9
 20
14.4
  0
LWPOLYLINE
  5
118
100
AcDbEntity
  8
ASSEMBLY_OUTLINES_TOP
100
AcDbPolyline
 90
        4
 70
         1
 10
14.3
 20
-0.1
 10
14.3
 20
16.45
 10
42.9
 20
16.45
 10
42.9
 20
-0.1
  0
LWPOLYLINE
  5
119
100
AcDbEntity
  8
ASSEMBLY_OUTLINES_TOP
100
AcDbPolyline
 90
        2
 70
         0
 10
50.46
 20
40.86
 10
50.46
 20
33.36
  0
LWPOLYLINE
  5
11A
100
AcDbEntity
  8
ASSEMBLY_OUTLINES_TOP
100
AcDbPolyline
 90
        2
 70
         0
 10
54.46
 20
40.86
 10
54.46
 20
33.36
  0
LWPOLYLINE
  5
11B
100
AcDbEntity
  8
ASSEMBLY_OUTLINES_TOP
100
AcDbPolyline
 90
        2
 70
         0
 10
50.46
 20
33.36
 42
1.0
 10
54.46
 20
33.36
  0
LWPOLYLINE
  5
11C
100
AcDbEntity
  8
ASSEMBLY_OUTLINES_TOP
100
AcDbPolyline
 90
        2
 70
         0
 10
54.46
 20
40.86
 42
1.0
 10
50.46
 20
40.86
  0
LWPOLYLINE
  5
11D
100
AcDbEntity
  8
ASSEMBLY_OUTLINES_TOP
100
AcDbPolyline
 90
        4
 70
         1
 10
9.79
 20
54.33
 10
9.79
 20
56.87
 10
17.29
 20
56.87
 10
17.29
 20
54.33
  0
LWPOLYLINE
  5
11E
100
AcDbEntity
  8
ASSEMBLY_OUTLINES_TOP
100
AcDbPolyline
 90
        2
 70
         0
 10
138.4
 20
65.15
 10
132.4
 20
65.15
  0
LWPOLYLINE
  5
11F
100
AcDbEntity
  8
ASSEMBLY_OUTLINES_TOP
100
AcDbPolyline
 90
        2
 70
         0
 10
138.8
 20
65.15
 10
132.8
 20
65.15
  0
LWPOLYLINE
  5
120
100
AcDbEntity
  8
ASSEMBLY_OUTLINES_TOP
100
AcDbPolyline
 90
        6
 70
         1
 10
139.3
 20
68.95
 10
133.3
 20
68.95
 10
133.3
 20
65.15
 10
131.2
 20
65.15
 10
131.2
 20
50.95
 10
139.3
 20
50.95
  0
LWPOLYLINE
  5
121
100
AcDbEntity
  8
ASSEMBLY_OUTLINES_TOP
100
AcDbPolyline
 90
        4
 70
         1
 10
65.69
 20
53.98
 10
65.69
 20
56.52
 10
73.19
 20
56.52
 10
73.19
 20
53.98
  0
LWPOLYLINE
  5
122
100
AcDbEntity
  8
ASSEMBLY_OUTLINES_TOP
100
AcDbPolyline
 90
        4
 70
         1
 43
0.1
 10
7.2
 20
47.75
 10
7.2
 20
50.75
 10
10.9
 20
50.75
 10
10.9
 20
47.75
  0
LWPOLYLINE
  5
123
100
AcDbEntity
  8
ASSEMBLY_OUTLINES_TOP
100
AcDbPolyline
 90
        2
 70
         0
 43
0.1
 10
10.8
 20
50.75
 10
10.8
 20
47.75
  0
LWPOLYLINE
  5
124
100
AcDbEntity
  8
ASSEMBLY_OUTLINES_TOP
100
AcDbPolyline
 90
        2
 70
         0
 43
0.1
 10
10.7
 20
50.75
 10
10.7
 20
47.75
  0
LWPOLYLINE
  5
125
100
AcDbEntity
  8
ASSEMBLY_OUTLINES_TOP
100
AcDbPolyline
 90
        2
 70
         0
 43
0.1
 10
10.6
 20
50.75
 10
10.6
 20
47.75
  0
LWPOLYLINE
  5
126
100
AcDbEntity
  8
ASSEMBLY_OUTLINES_TOP
100
AcDbPolyline
 90
        2
 70
         0
 43
0.1
 10
10.5
 20
50.75
 10
10.5
 20
47.75
  0
LWPOLYLINE
  5
127
100
AcDbEntity
  8
ASSEMBLY_OUTLINES_TOP
100
AcDbPolyline
 90
        2
 70
         0
 43
0.1
 10
10.4
 20
50.75
 10
10.4
 20
47.75
  0
LWPOLYLINE
  5
128
100
AcDbEntity
  8
ASSEMBLY_OUTLINES_TOP
100
AcDbPolyline
 90
        2
 70
         0
 43
0.1
 10
10.3
 20
50.75
 10
10.3
 20
47.75
  0
LWPOLYLINE
  5
129
100
AcDbEntity
  8
ASSEMBLY_OUTLINES_TOP
100
AcDbPolyline
 90
        2
 70
         0
 43
0.1
 10
10.2
 20
50.75
 10
10.2
 20
47.75
  0
LWPOLYLINE
  5
12A
100
AcDbEntity
  8
ASSEMBLY_OUTLINES_TOP
100
AcDbPolyline
 90
        2
 70
         0
 43
0.1
 10
10.1
 20
50.75
 10
10.1
 20
47.75
  0
LWPOLYLINE
  5
12B
100
AcDbEntity
  8
ASSEMBLY_OUTLINES_TOP
100
AcDbPolyline
 90
        4
 70
         1
 10
136.33
 20
18.14
 10
136.33
 20
25.64
 10
138.87
 20
25.64
 10
138.87
 20
18.14
  0
LWPOLYLINE
  5
12C
100
AcDbEntity
  8
ASSEMBLY_OUTLINES_TOP
100
AcDbPolyline
 90
        4
 70
         1
 10
103.95
 20
39.1
 10
103.95
 20
45.4
 10
108.95
 20
45.4
 10
108.95
 20
39.1
  0
LWPOLYLINE
  5
12D
100
AcDbEntity
  8
ASSEMBLY_OUTLINES_TOP
100
AcDbPolyline
 90
        4
 70
         1
 10
101.73
 20
29.38
 10
101.73
 20
38.08
 10
134.73
 20
38.08
 10
134.73
 20
29.38
  0
LWPOLYLINE
  5
12E
100
AcDbEntity
  8
ASSEMBLY_OUTLINES_TOP
100
AcDbPolyline
 90
        4
 70
         1
 10
114.8
 20
29.38
 10
114.8
 20
29.96
 10
121.3
 20
29.96
 10
121.3
 20
29.38
  0
LWPOLYLINE
  5
12F
100
AcDbEntity
  8
ASSEMBLY_OUTLINES_TOP
100
AcDbPolyline
 90
        4
 70
         1
 43
0.1
 10
4.95
 20
31.6
 10
4.95
 20
34.9
 10
6.75
 20
34.9
 10
6.75
 20
31.6
  0
LWPOLYLINE
  5
130
100
AcDbEntity
  8
ASSEMBLY_OUTLINES_TOP
100
AcDbPolyline
 90
        4
 70
         1
 43
0.1
 10
12.9
 20
27.15
 10
12.9
 20
30.15
 10
16.6
 20
30.15
 10
16.6
 20
27.15
  0
LWPOLYLINE
  5
131
100
AcDbEntity
  8
ASSEMBLY_OUTLINES_TOP
100
AcDbPolyline
 90
        2
 70
         0
 43
0.1
 10
16.5
 20
30.15
 10
16.5
 20
27.15
  0
LWPOLYLINE
  5
132
100
AcDbEntity
  8
ASSEMBLY_OUTLINES_TOP
100
AcDbPolyline
 90
        2
 70
         0
 43
0.1
 10
16.4
 20
30.15
 10
16.4
 20
27.15
  0
LWPOLYLINE
  5
133
100
AcDbEntity
  8
ASSEMBLY_OUTLINES_TOP
100
AcDbPolyline
 90
        2
 70
         0
 43
0.1
 10
16.3
 20
30.15
 10
16.3
 20
27.15
  0
LWPOLYLINE
  5
134
100
AcDbEntity
  8
ASSEMBLY_OUTLINES_TOP
100
AcDbPolyline
 90
        2
 70
         0
 43
0.1
 10
16.2
 20
30.15
 10
16.2
 20
27.15
  0
LWPOLYLINE
  5
135
100
AcDbEntity
  8
ASSEMBLY_OUTLINES_TOP
100
AcDbPolyline
 90
        2
 70
         0
 43
0.1
 10
16.1
 20
30.15
 10
16.1
 20
27.15
  0
LWPOLYLINE
  5
136
100
AcDbEntity
  8
ASSEMBLY_OUTLINES_TOP
100
AcDbPolyline
 90
        2
 70
         0
 43
0.1
 10
16.0
 20
30.15
 10
16.0
 20
27.15
  0
LWPOLYLINE
  5
137
100
AcDbEntity
  8
ASSEMBLY_OUTLINES_TOP
100
AcDbPolyline
 90
        2
 70
         0
 43
0.1
 10
15.9
 20
30.15
 10
15.9
 20
27.15
  0
LWPOLYLINE
  5
138
100
AcDbEntity
  8
ASSEMBLY_OUTLINES_TOP
100
AcDbPolyline
 90
        2
 70
         0
 43
0.1
 10
15.8
 20
30.15
 10
15.8
 20
27.15
  0
LWPOLYLINE
  5
139
100
AcDbEntity
  8
ASSEMBLY_OUTLINES_TOP
100
AcDbPolyline
 90
        4
 70
         1
 43
0.1
 10
118.0
 20
22.55
 10
118.0
 20
26.25
 10
121.0
 20
26.25
 10
121.0
 20
22.55
  0
LWPOLYLINE
  5
13A
100
AcDbEntity
  8
ASSEMBLY_OUTLINES_TOP
100
AcDbPolyline
 90
        2
 70
         0
 43
0.1
 10
121.0
 20
22.65
 10
118.0
 20
22.65
  0
LWPOLYLINE
  5
13B
100
AcDbEntity
  8
ASSEMBLY_OUTLINES_TOP
100
AcDbPolyline
 90
        2
 70
         0
 43
0.1
 10
121.0
 20
22.75
 10
118.0
 20
22.75
  0
LWPOLYLINE
  5
13C
100
AcDbEntity
  8
ASSEMBLY_OUTLINES_TOP
100
AcDbPolyline
 90
        2
 70
         0
 43
0.1
 10
121.0
 20
22.85
 10
118.0
 20
22.85
  0
LWPOLYLINE
  5
13D
100
AcDbEntity
  8
ASSEMBLY_OUTLINES_TOP
100
AcDbPolyline
 90
        2
 70
         0
 43
0.1
 10
121.0
 20
22.95
 10
118.0
 20
22.95
  0
LWPOLYLINE
  5
13E
100
AcDbEntity
  8
ASSEMBLY_OUTLINES_TOP
100
AcDbPolyline
 90
        2
 70
         0
 43
0.1
 10
121.0
 20
23.05
 10
118.0
 20
23.05
  0
LWPOLYLINE
  5
13F
100
AcDbEntity
  8
ASSEMBLY_OUTLINES_TOP
100
AcDbPolyline
 90
        2
 70
         0
 43
0.1
 10
121.0
 20
23.15
 10
118.0
 20
23.15
  0
LWPOLYLINE
  5
140
100
AcDbEntity
  8
ASSEMBLY_OUTLINES_TOP
100
AcDbPolyline
 90
        2
 70
         0
 43
0.1
 10
121.0
 20
23.25
 10
118.0
 20
23.25
  0
LWPOLYLINE
  5
141
100
AcDbEntity
  8
ASSEMBLY_OUTLINES_TOP
100
AcDbPolyline
 90
        2
 70
         0
 43
0.1
 10
121.0
 20
23.35
 10
118.0
 20
23.35
  0
LWPOLYLINE
  5
142
100
AcDbEntity
  8
ASSEMBLY_OUTLINES_TOP
100
AcDbPolyline
 90
        4
 70
         1
 10
23.6
 20
0.0
 10
23.6
 20
12.1
 10
37.0
 20
12.1
 10
37.0
 20
0.0
  0
LWPOLYLINE
  5
143
100
AcDbEntity
  8
ASSEMBLY_OUTLINES_TOP
100
AcDbPolyline
 90
        4
 70
         1
 10
24.3
 20
-7.0
 10
24.3
 20
0.0
 10
35.3
 20
0.0
 10
35.3
 20
-7.0
  0
LWPOLYLINE
  5
144
100
AcDbEntity
  8
ASSEMBLY_OUTLINES_TOP
100
AcDbPolyline
 90
        4
 70
         1
 43
0.1
 10
4.95
 20
37.9
 10
4.95
 20
41.2
 10
6.75
 20
41.2
 10
6.75
 20
37.9
  0
LWPOLYLINE
  5
145
100
AcDbEntity
  8
ASSEMBLY_OUTLINES_TOP
100
AcDbPolyline
 90
        4
 70
         1
 43
0.1
 10
7.9
 20
31.5
 10
7.9
 20
34.5
 10
10.9
 20
34.5
 10
10.9
 20
31.5
  0
LWPOLYLINE
  5
146
100
AcDbEntity
  8
ASSEMBLY_OUTLINES_TOP
100
AcDbPolyline
 90
        2
 70
         0
 43
0.1
 10
10.9
 20
31.6
 10
10.8
 20
31.5
  0
LWPOLYLINE
  5
147
100
AcDbEntity
  8
ASSEMBLY_OUTLINES_TOP
100
AcDbPolyline
 90
        2
 70
         0
 43
0.1
 10
10.9
 20
31.7
 10
10.7
 20
31.5
  0
LWPOLYLINE
  5
148
100
AcDbEntity
  8
ASSEMBLY_OUTLINES_TOP
100
AcDbPolyline
 90
        2
 70
         0
 43
0.1
 10
10.9
 20
31.8
 10
10.6
 20
31.5
  0
LWPOLYLINE
  5
149
100
AcDbEntity
  8
ASSEMBLY_OUTLINES_TOP
100
AcDbPolyline
 90
        2
 70
         0
 43
0.1
 10
10.9
 20
31.9
 10
10.5
 20
31.5
  0
LWPOLYLINE
  5
14A
100
AcDbEntity
  8
ASSEMBLY_OUTLINES_TOP
100
AcDbPolyline
 90
        2
 70
         0
 43
0.1
 10
10.9
 20
32.0
 10
10.4
 20
31.5
  0
LWPOLYLINE
  5
14B
100
AcDbEntity
  8
ASSEMBLY_OUTLINES_TOP
100
AcDbPolyline
 90
        2
 70
         0
 43
0.1
 10
10.9
 20
32.1
 10
10.3
 20
31.5
  0
LWPOLYLINE
  5
14C
100
AcDbEntity
  8
ASSEMBLY_OUTLINES_TOP
100
AcDbPolyline
 90
        4
 70
         1
 43
0.1
 10
94.5
 20
43.3
 10
94.5
 20
45.1
 10
97.8
 20
45.1
 10
97.8
 20
43.3
  0
LWPOLYLINE
  5
14D
100
AcDbEntity
  8
ASSEMBLY_OUTLINES_TOP
100
AcDbPolyline
 90
        2
 70
         0
 10
84.4
 20
30.8
 10
91.9
 20
30.8
  0
LWPOLYLINE
  5
14E
100
AcDbEntity
  8
ASSEMBLY_OUTLINES_TOP
100
AcDbPolyline
 90
        2
 70
         0
 10
84.4
 20
34.8
 10
91.9
 20
34.8
  0
LWPOLYLINE
  5
14F
100
AcDbEntity
  8
ASSEMBLY_OUTLINES_TOP
100
AcDbPolyline
 90
        2
 70
         0
 10
91.9
 20
30.8
 42
1.0
 10
91.9
 20
34.8
  0
LWPOLYLINE
  5
150
100
AcDbEntity
  8
ASSEMBLY_OUTLINES_TOP
100
AcDbPolyline
 90
        2
 70
         0
 10
84.4
 20
34.8
 42
1.0
 10
84.4
 20
30.8
  0
LWPOLYLINE
  5
151
100
AcDbEntity
  8
ASSEMBLY_OUTLINES_TOP
100
AcDbPolyline
 90
        4
 70
         1
 10
1.95
 20
54.14
 10
1.95
 20
59.22
 10
7.95
 20
59.22
 10
7.95
 20
54.14
  0
LWPOLYLINE
  5
152
100
AcDbEntity
  8
ASSEMBLY_OUTLINES_TOP
100
AcDbPolyline
 90
        6
 70
         1
 43
0.15
 10
80.5
 20
35.0
 10
86.2
 20
35.0
 10
86.2
 20
52.0
 10
82.2
 20
52.0
 10
82.2
 20
51.2
 10
80.5
 20
51.2
  0
LWPOLYLINE
  5
153
100
AcDbEntity
  8
ASSEMBLY_OUTLINES_TOP
100
AcDbPolyline
 90
        2
 70
         0
 43
0.5
 10
83.5
 20
47.9
 10
83.5
 20
38.8
  0
LWPOLYLINE
  5
154
100
AcDbEntity
  8
ASSEMBLY_OUTLINES_TOP
100
AcDbPolyline
 90
        2
 70
         0
 43
0.5
 10
83.5
 20
38.8
 10
84.9
 20
38.8
  0
LWPOLYLINE
  5
155
100
AcDbEntity
  8
ASSEMBLY_OUTLINES_TOP
100
AcDbPolyline
 90
        4
 70
         1
 10
131.54
 20
47.08
 10
131.54
 20
49.62
 10
139.04
 20
49.62
 10
139.04
 20
47.08
  0
LWPOLYLINE
  5
156
100
AcDbEntity
  8
ASSEMBLY_OUTLINES_TOP
100
AcDbPolyline
 90
        4
 70
         1
 10
131.54
 20
44.48
 10
131.54
 20
47.02
 10
139.04
 20
47.02
 10
139.04
 20
44.48
  0
LWPOLYLINE
  5
157
100
AcDbEntity
  8
ASSEMBLY_OUTLINES_TOP
100
AcDbPolyline
 90
        4
 70
         1
 10
17.67
 20
23.97
 10
17.67
 20
56.97
 10
26.37
 20
56.97
 10
26.37
 20
23.97
  0
LWPOLYLINE
  5
158
100
AcDbEntity
  8
ASSEMBLY_OUTLINES_TOP
100
AcDbPolyline
 90
        4
 70
         1
 10
17.67
 20
37.4
 10
17.67
 20
43.9
 10
18.25
 20
43.9
 10
18.25
 20
37.4
  0
LWPOLYLINE
  5
159
100
AcDbEntity
  8
ASSEMBLY_OUTLINES_TOP
100
AcDbPolyline
 90
        4
 70
         1
 43
0.1
 10
12.3
 20
17.65
 10
12.3
 20
20.65
 10
15.3
 20
20.65
 10
15.3
 20
17.65
  0
LWPOLYLINE
  5
15A
100
AcDbEntity
  8
ASSEMBLY_OUTLINES_TOP
100
AcDbPolyline
 90
        2
 70
         0
 43
0.1
 10
15.2
 20
20.65
 10
15.3
 20
20.55
  0
LWPOLYLINE
  5
15B
100
AcDbEntity
  8
ASSEMBLY_OUTLINES_TOP
100
AcDbPolyline
 90
        2
 70
         0
 43
0.1
 10
15.1
 20
20.65
 10
15.3
 20
20.45
  0
LWPOLYLINE
  5
15C
100
AcDbEntity
  8
ASSEMBLY_OUTLINES_TOP
100
AcDbPolyline
 90
        2
 70
         0
 43
0.1
 10
15.0
 20
20.65
 10
15.3
 20
20.35
  0
LWPOLYLINE
  5
15D
100
AcDbEntity
  8
ASSEMBLY_OUTLINES_TOP
100
AcDbPolyline
 90
        2
 70
         0
 43
0.1
 10
14.9
 20
20.65
 10
15.3
 20
20.25
  0
LWPOLYLINE
  5
15E
100
AcDbEntity
  8
ASSEMBLY_OUTLINES_TOP
100
AcDbPolyline
 90
        2
 70
         0
 43
0.1
 10
14.8
 20
20.65
 10
15.3
 20
20.15
  0
LWPOLYLINE
  5
15F
100
AcDbEntity
  8
ASSEMBLY_OUTLINES_TOP
100
AcDbPolyline
 90
        2
 70
         0
 43
0.1
 10
14.7
 20
20.65
 10
15.3
 20
20.05
  0
LWPOLYLINE
  5
160
100
AcDbEntity
  8
ASSEMBLY_OUTLINES_TOP
100
AcDbPolyline
 90
        4
 70
         1
 43
0.1
 10
51.25
 20
14.25
 10
51.25
 20
24.25
 10
64.55
 20
24.25
 10
64.55
 20
14.25
  0
LWPOLYLINE
  5
161
100
AcDbEntity
  8
ASSEMBLY_OUTLINES_TOP
100
AcDbPolyline
 90
        2
 70
         0
 43
0.1
 10
51.25
 20
14.35
 10
51.35
 20
14.25
  0
LWPOLYLINE
  5
162
100
AcDbEntity
  8
ASSEMBLY_OUTLINES_TOP
100
AcDbPolyline
 90
        2
 70
         0
 43
0.1
 10
51.25
 20
14.45
 10
51.45
 20
14.25
  0
LWPOLYLINE
  5
163
100
AcDbEntity
  8
ASSEMBLY_OUTLINES_TOP
100
AcDbPolyline
 90
        2
 70
         0
 43
0.1
 10
51.25
 20
14.55
 10
51.55
 20
14.25
  0
LWPOLYLINE
  5
164
100
AcDbEntity
  8
ASSEMBLY_OUTLINES_TOP
100
AcDbPolyline
 90
        2
 70
         0
 43
0.1
 10
51.25
 20
14.65
 10
51.65
 20
14.25
  0
LWPOLYLINE
  5
165
100
AcDbEntity
  8
ASSEMBLY_OUTLINES_TOP
100
AcDbPolyline
 90
        2
 70
         0
 43
0.1
 10
51.25
 20
14.75
 10
51.75
 20
14.25
  0
LWPOLYLINE
  5
166
100
AcDbEntity
  8
ASSEMBLY_OUTLINES_TOP
100
AcDbPolyline
 90
        2
 70
         0
 43
0.1
 10
51.25
 20
14.85
 10
51.85
 20
14.25
  0
LWPOLYLINE
  5
167
100
AcDbEntity
  8
ASSEMBLY_OUTLINES_TOP
100
AcDbPolyline
 90
        2
 70
         0
 43
0.1
 10
51.25
 20
14.95
 10
51.95
 20
14.25
  0
LWPOLYLINE
  5
168
100
AcDbEntity
  8
ASSEMBLY_OUTLINES_TOP
100
AcDbPolyline
 90
        2
 70
         0
 43
0.1
 10
51.25
 20
15.05
 10
52.05
 20
14.25
  0
LWPOLYLINE
  5
169
100
AcDbEntity
  8
ASSEMBLY_OUTLINES_TOP
100
AcDbPolyline
 90
        2
 70
         0
 43
0.1
 10
51.25
 20
15.15
 10
52.15
 20
14.25
  0
LWPOLYLINE
  5
16A
100
AcDbEntity
  8
ASSEMBLY_OUTLINES_TOP
100
AcDbPolyline
 90
        2
 70
         0
 43
0.1
 10
51.25
 20
15.25
 10
52.25
 20
14.25
  0
LWPOLYLINE
  5
16B
100
AcDbEntity
  8
ASSEMBLY_OUTLINES_TOP
100
AcDbPolyline
 90
        4
 70
         1
 43
0.1
 10
51.25
 20
15.5
 10
51.25
 20
23.0
 10
64.55
 20
23.0
 10
64.55
 20
15.5
  0
CIRCLE
  5
16C
100
AcDbEntity
  8
ASSEMBLY_OUTLINES_TOP
100
AcDbCircle
 10
52.5
 20
45.5
 30
0.0
 40
2.0
  0
LWPOLYLINE
  5
16D
100
AcDbEntity
  8
ASSEMBLY_OUTLINES_TOP
100
AcDbPolyline
 90
        4
 70
         1
 43
0.1
 10
7.53
 20
17.57
 10
7.53
 20
20.57
 10
11.23
 20
20.57
 10
11.23
 20
17.57
  0
LWPOLYLINE
  5
16E
100
AcDbEntity
  8
ASSEMBLY_OUTLINES_TOP
100
AcDbPolyline
 90
        2
 70
         0
 43
0.1
 10
7.63
 20
17.57
 10
7.63
 20
20.57
  0
LWPOLYLINE
  5
16F
100
AcDbEntity
  8
ASSEMBLY_OUTLINES_TOP
100
AcDbPolyline
 90
        2
 70
         0
 43
0.1
 10
7.73
 20
17.57
 10
7.73
 20
20.57
  0
LWPOLYLINE
  5
170
100
AcDbEntity
  8
ASSEMBLY_OUTLINES_TOP
100
AcDbPolyline
 90
        2
 70
         0
 43
0.1
 10
7.83
 20
17.57
 10
7.83
 20
20.57
  0
LWPOLYLINE
  5
171
100
AcDbEntity
  8
ASSEMBLY_OUTLINES_TOP
100
AcDbPolyline
 90
        2
 70
         0
 43
0.1
 10
7.93
 20
17.57
 10
7.93
 20
20.57
  0
LWPOLYLINE
  5
172
100
AcDbEntity
  8
ASSEMBLY_OUTLINES_TOP
100
AcDbPolyline
 90
        2
 70
         0
 43
0.1
 10
8.03
 20
17.57
 10
8.03
 20
20.57
  0
LWPOLYLINE
  5
173
100
AcDbEntity
  8
ASSEMBLY_OUTLINES_TOP
100
AcDbPolyline
 90
        2
 70
         0
 43
0.1
 10
8.13
 20
17.57
 10
8.13
 20
20.57
  0
LWPOLYLINE
  5
174
100
AcDbEntity
  8
ASSEMBLY_OUTLINES_TOP
100
AcDbPolyline
 90
        2
 70
         0
 43
0.1
 10
8.23
 20
17.57
 10
8.23
 20
20.57
  0
LWPOLYLINE
  5
175
100
AcDbEntity
  8
ASSEMBLY_OUTLINES_TOP
100
AcDbPolyline
 90
        2
 70
         0
 43
0.1
 10
8.33
 20
17.57
 10
8.33
 20
20.57
  0
LWPOLYLINE
  5
176
100
AcDbEntity
  8
ASSEMBLY_OUTLINES_TOP
100
AcDbPolyline
 90
        4
 70
         1
 43
0.1
 10
111.47
 20
14.95
 10
111.47
 20
18.95
 10
121.47
 20
18.95
 10
121.47
 20
14.95
  0
LWPOLYLINE
  5
177
100
AcDbEntity
  8
ASSEMBLY_OUTLINES_TOP
100
AcDbPolyline
 90
        2
 70
         1
 43
0.1
 10
119.97
 20
17.95
 42
-1.0
 10
120.97
 20
17.95
 42
-1.0
  0
LWPOLYLINE
  5
178
100
AcDbEntity
  8
ASSEMBLY_OUTLINES_TOP
100
AcDbPolyline
 90
        4
 70
         1
 10
23.15
 20
21.05
 10
23.15
 20
23.05
 10
38.15
 20
23.05
 10
38.15
 20
21.05
  0
LWPOLYLINE
  5
179
100
AcDbEntity
  8
ASSEMBLY_OUTLINES_TOP
100
AcDbPolyline
 90
        4
 70
         1
 10
73.62
 20
-3.0
 10
73.62
 20
11.0
 10
86.82
 20
11.0
 10
86.82
 20
-3.0
  0
LWPOLYLINE
  5
17A
100
AcDbEntity
  8
ASSEMBLY_OUTLINES_TOP
100
AcDbPolyline
 90
        4
 70
         1
 43
0.1
 10
88.3
 20
25.95
 10
88.3
 20
29.95
 10
92.3
 20
29.95
 10
92.3
 20
25.95
  0
LWPOLYLINE
  5
17B
100
AcDbEntity
  8
ASSEMBLY_OUTLINES_TOP
100
AcDbPolyline
 90
        2
 70
         0
 43
0.1
 10
92.3
 20
29.85
 10
92.2
 20
29.95
  0
LWPOLYLINE
  5
17C
100
AcDbEntity
  8
ASSEMBLY_OUTLINES_TOP
100
AcDbPolyline
 90
        2
 70
         0
 43
0.1
 10
92.3
 20
29.75
 10
92.1
 20
29.95
  0
LWPOLYLINE
  5
17D
100
AcDbEntity
  8
ASSEMBLY_OUTLINES_TOP
100
AcDbPolyline
 90
        2
 70
         0
 43
0.1
 10
92.3
 20
29.65
 10
92.0
 20
29.95
  0
LWPOLYLINE
  5
17E
100
AcDbEntity
  8
ASSEMBLY_OUTLINES_TOP
100
AcDbPolyline
 90
        2
 70
         0
 43
0.1
 10
92.3
 20
29.55
 10
91.9
 20
29.95
  0
LWPOLYLINE
  5
17F
100
AcDbEntity
  8
ASSEMBLY_OUTLINES_TOP
100
AcDbPolyline
 90
        2
 70
         0
 43
0.1
 10
92.3
 20
29.45
 10
91.8
 20
29.95
  0
LWPOLYLINE
  5
180
100
AcDbEntity
  8
ASSEMBLY_OUTLINES_TOP
100
AcDbPolyline
 90
        2
 70
         0
 43
0.1
 10
92.3
 20
29.35
 10
91.7
 20
29.95
  0
LWPOLYLINE
  5
181
100
AcDbEntity
  8
ASSEMBLY_OUTLINES_TOP
100
AcDbPolyline
 90
        2
 70
         0
 43
0.1
 10
92.3
 20
29.25
 10
91.6
 20
29.95
  0
LWPOLYLINE
  5
182
100
AcDbEntity
  8
ASSEMBLY_OUTLINES_TOP
100
AcDbPolyline
 90
        2
 70
         0
 43
0.1
 10
92.3
 20
29.15
 10
91.5
 20
29.95
  0
LWPOLYLINE
  5
183
100
AcDbEntity
  8
ASSEMBLY_OUTLINES_TOP
100
AcDbPolyline
 90
        2
 70
         0
 43
0.1
 10
92.3
 20
29.05
 10
91.4
 20
29.95
  0
LWPOLYLINE
  5
184
100
AcDbEntity
  8
ASSEMBLY_OUTLINES_TOP
100
AcDbPolyline
 90
        2
 70
         0
 43
0.1
 10
92.3
 20
28.95
 10
91.3
 20
29.95
  0
LWPOLYLINE
  5
185
100
AcDbEntity
  8
ASSEMBLY_OUTLINES_TOP
100
AcDbPolyline
 90
        4
 70
         1
 43
0.1
 10
7.25
 20
34.75
 10
7.25
 20
37.75
 10
10.95
 20
37.75
 10
10.95
 20
34.75
  0
LWPOLYLINE
  5
186
100
AcDbEntity
  8
ASSEMBLY_OUTLINES_TOP
100
AcDbPolyline
 90
        2
 70
         0
 43
0.1
 10
10.85
 20
37.75
 10
10.85
 20
34.75
  0
LWPOLYLINE
  5
187
100
AcDbEntity
  8
ASSEMBLY_OUTLINES_TOP
100
AcDbPolyline
 90
        2
 70
         0
 43
0.1
 10
10.75
 20
37.75
 10
10.75
 20
34.75
  0
LWPOLYLINE
  5
188
100
AcDbEntity
  8
ASSEMBLY_OUTLINES_TOP
100
AcDbPolyline
 90
        2
 70
         0
 43
0.1
 10
10.65
 20
37.75
 10
10.65
 20
34.75
  0
LWPOLYLINE
  5
189
100
AcDbEntity
  8
ASSEMBLY_OUTLINES_TOP
100
AcDbPolyline
 90
        2
 70
         0
 43
0.1
 10
10.55
 20
37.75
 10
10.55
 20
34.75
  0
LWPOLYLINE
  5
18A
100
AcDbEntity
  8
ASSEMBLY_OUTLINES_TOP
100
AcDbPolyline
 90
        2
 70
         0
 43
0.1
 10
10.45
 20
37.75
 10
10.45
 20
34.75
  0
LWPOLYLINE
  5
18B
100
AcDbEntity
  8
ASSEMBLY_OUTLINES_TOP
100
AcDbPolyline
 90
        2
 70
         0
 43
0.1
 10
10.35
 20
37.75
 10
10.35
 20
34.75
  0
LWPOLYLINE
  5
18C
100
AcDbEntity
  8
ASSEMBLY_OUTLINES_TOP
100
AcDbPolyline
 90
        2
 70
         0
 43
0.1
 10
10.25
 20
37.75
 10
10.25
 20
34.75
  0
LWPOLYLINE
  5
18D
100
AcDbEntity
  8
ASSEMBLY_OUTLINES_TOP
100
AcDbPolyline
 90
        2
 70
         0
 43
0.1
 10
10.15
 20
37.75
 10
10.15
 20
34.75
  0
LWPOLYLINE
  5
18E
100
AcDbEntity
  8
ASSEMBLY_OUTLINES_TOP
100
AcDbPolyline
 90
        4
 70
         1
 43
0.1
 10
9.0
 20
26.35
 10
9.0
 20
30.05
 10
12.0
 20
30.05
 10
12.0
 20
26.35
  0
LWPOLYLINE
  5
18F
100
AcDbEntity
  8
ASSEMBLY_OUTLINES_TOP
100
AcDbPolyline
 90
        2
 70
         0
 43
0.1
 10
12.0
 20
26.45
 10
9.0
 20
26.45
  0
LWPOLYLINE
  5
190
100
AcDbEntity
  8
ASSEMBLY_OUTLINES_TOP
100
AcDbPolyline
 90
        2
 70
         0
 43
0.1
 10
12.0
 20
26.55
 10
9.0
 20
26.55
  0
LWPOLYLINE
  5
191
100
AcDbEntity
  8
ASSEMBLY_OUTLINES_TOP
100
AcDbPolyline
 90
        2
 70
         0
 43
0.1
 10
12.0
 20
26.65
 10
9.0
 20
26.65
  0
LWPOLYLINE
  5
192
100
AcDbEntity
  8
ASSEMBLY_OUTLINES_TOP
100
AcDbPolyline
 90
        2
 70
         0
 43
0.1
 10
12.0
 20
26.75
 10
9.0
 20
26.75
  0
LWPOLYLINE
  5
193
100
AcDbEntity
  8
ASSEMBLY_OUTLINES_TOP
100
AcDbPolyline
 90
        2
 70
         0
 43
0.1
 10
12.0
 20
26.85
 10
9.0
 20
26.85
  0
LWPOLYLINE
  5
194
100
AcDbEntity
  8
ASSEMBLY_OUTLINES_TOP
100
AcDbPolyline
 90
        2
 70
         0
 43
0.1
 10
12.0
 20
26.95
 10
9.0
 20
26.95
  0
LWPOLYLINE
  5
195
100
AcDbEntity
  8
ASSEMBLY_OUTLINES_TOP
100
AcDbPolyline
 90
        2
 70
         0
 43
0.1
 10
12.0
 20
27.05
 10
9.0
 20
27.05
  0
LWPOLYLINE
  5
196
100
AcDbEntity
  8
ASSEMBLY_OUTLINES_TOP
100
AcDbPolyline
 90
        2
 70
         0
 43
0.1
 10
12.0
 20
27.15
 10
9.0
 20
27.15
  0
LWPOLYLINE
  5
197
100
AcDbEntity
  8
ASSEMBLY_OUTLINES_TOP
100
AcDbPolyline
 90
        4
 70
         1
 43
0.1
 10
102.175
 20
47.475
 10
102.175
 20
50.525
 10
105.225
 20
50.525
 10
105.225
 20
47.475
  0
LWPOLYLINE
  5
198
100
AcDbEntity
  8
ASSEMBLY_OUTLINES_TOP
100
AcDbPolyline
 90
        2
 70
         1
 43
0.1
 10
102.448616
 20
50.025
 42
-1.0
 10
102.901384
 20
50.025
 42
-1.0
  0
LWPOLYLINE
  5
199
100
AcDbEntity
  8
ASSEMBLY_OUTLINES_TOP
100
AcDbPolyline
 90
        4
 70
         1
 10
66.73
 20
58.375
 10
66.73
 20
63.455
 10
117.53
 20
63.455
 10
117.53
 20
58.375
  0
CIRCLE
  5
19A
100
AcDbEntity
  8
ASSEMBLY_OUTLINES_TOP
100
AcDbCircle
 10
67.998225
 20
59.63456
 30
0.0
 40
0.45
  0
HATCH
  5
19B
100
AcDbEntity
  8
ASSEMBLY_OUTLINES_TOP
100
AcDbHatch
 10
0.0
 20
0.0
 30
0.0
210
0.0
220
0.0
230
1.0
  2
SOLID
 70
         1
 71
         1
 91
        1
 92
        1
 93
        1
 72
         2
 10
67.998225000000005
 20
59.63456
 40
0.45
 50
0.0
 51
360.0
 73
         1
 97
        1
330
19A
 75
         0
 76
         1
 98
        1
 10
0.0
 20
0.0
  0
CIRCLE
  5
19C
100
AcDbEntity
  8
ASSEMBLY_OUTLINES_TOP
100
AcDbCircle
 10
70.538225
 20
59.63456
 30
0.0
 40
0.45
  0
HATCH
  5
19D
100
AcDbEntity
  8
ASSEMBLY_OUTLINES_TOP
100
AcDbHatch
 10
0.0
 20
0.0
 30
0.0
210
0.0
220
0.0
230
1.0
  2
SOLID
 70
         1
 71
         1
 91
        1
 92
        1
 93
        1
 72
         2
 10
70.538224999999997
 20
59.63456
 40
0.45
 50
0.0
 51
360.0
 73
         1
 97
        1
330
19C
 75
         0
 76
         1
 98
        1
 10
0.0
 20
0.0
  0
CIRCLE
  5
19E
100
AcDbEntity
  8
ASSEMBLY_OUTLINES_TOP
100
AcDbCircle
 10
73.078225
 20
59.63456
 30
0.0
 40
0.45
  0
HATCH
  5
19F
100
AcDbEntity
  8
ASSEMBLY_OUTLINES_TOP
100
AcDbHatch
 10
0.0
 20
0.0
 30
0.0
210
0.0
220
0.0
230
1.0
  2
SOLID
 70
         1
 71
         1
 91
        1
 92
        1
 93
        1
 72
         2
 10
73.078225000000003
 20
59.63456
 40
0.45
 50
0.0
 51
360.0
 73
         1
 97
        1
330
19E
 75
         0
 76
         1
 98
        1
 10
0.0
 20
0.0
  0
CIRCLE
  5
1A0
100
AcDbEntity
  8
ASSEMBLY_OUTLINES_TOP
100
AcDbCircle
 10
75.618225
 20
59.63456
 30
0.0
 40
0.45
  0
HATCH
  5
1A1
100
AcDbEntity
  8
ASSEMBLY_OUTLINES_TOP
100
AcDbHatch
 10
0.0
 20
0.0
 30
0.0
210
0.0
220
0.0
230
1.0
  2
SOLID
 70
         1
 71
         1
 91
        1
 92
        1
 93
        1
 72
         2
 10
75.618224999999995
 20
59.63456
 40
0.45
 50
0.0
 51
360.0
 73
         1
 97
        1
330
1A0
 75
         0
 76
         1
 98
        1
 10
0.0
 20
0.0
  0
CIRCLE
  5
1A2
100
AcDbEntity
  8
ASSEMBLY_OUTLINES_TOP
100
AcDbCircle
 10
78.158225
 20
59.63456
 30
0.0
 40
0.45
  0
HATCH
  5
1A3
100
AcDbEntity
  8
ASSEMBLY_OUTLINES_TOP
100
AcDbHatch
 10
0.0
 20
0.0
 30
0.0
210
0.0
220
0.0
230
1.0
  2
SOLID
 70
         1
 71
         1
 91
        1
 92
        1
 93
        1
 72
         2
 10
78.158225000000002
 20
59.63456
 40
0.45
 50
0.0
 51
360.0
 73
         1
 97
        1
330
1A2
 75
         0
 76
         1
 98
        1
 10
0.0
 20
0.0
  0
CIRCLE
  5
1A4
100
AcDbEntity
  8
ASSEMBLY_OUTLINES_TOP
100
AcDbCircle
 10
80.698225
 20
59.63456
 30
0.0
 40
0.45
  0
HATCH
  5
1A5
100
AcDbEntity
  8
ASSEMBLY_OUTLINES_TOP
100
AcDbHatch
 10
0.0
 20
0.0
 30
0.0
210
0.0
220
0.0
230
1.0
  2
SOLID
 70
         1
 71
         1
 91
        1
 92
        1
 93
        1
 72
         2
 10
80.698224999999994
 20
59.63456
 40
0.45
 50
0.0
 51
360.0
 73
         1
 97
        1
330
1A4
 75
         0
 76
         1
 98
        1
 10
0.0
 20
0.0
  0
CIRCLE
  5
1A6
100
AcDbEntity
  8
ASSEMBLY_OUTLINES_TOP
100
AcDbCircle
 10
83.238225
 20
59.63456
 30
0.0
 40
0.45
  0
HATCH
  5
1A7
100
AcDbEntity
  8
ASSEMBLY_OUTLINES_TOP
100
AcDbHatch
 10
0.0
 20
0.0
 30
0.0
210
0.0
220
0.0
230
1.0
  2
SOLID
 70
         1
 71
         1
 91
        1
 92
        1
 93
        1
 72
         2
 10
83.238225
 20
59.63456
 40
0.45
 50
0.0
 51
360.0
 73
         1
 97
        1
330
1A6
 75
         0
 76
         1
 98
        1
 10
0.0
 20
0.0
  0
CIRCLE
  5
1A8
100
AcDbEntity
  8
ASSEMBLY_OUTLINES_TOP
100
AcDbCircle
 10
85.778225
 20
59.63456
 30
0.0
 40
0.45
  0
HATCH
  5
1A9
100
AcDbEntity
  8
ASSEMBLY_OUTLINES_TOP
100
AcDbHatch
 10
0.0
 20
0.0
 30
0.0
210
0.0
220
0.0
230
1.0
  2
SOLID
 70
         1
 71
         1
 91
        1
 92
        1
 93
        1
 72
         2
 10
85.778225000000006
 20
59.63456
 40
0.45
 50
0.0
 51
360.0
 73
         1
 97
        1
330
1A8
 75
         0
 76
         1
 98
        1
 10
0.0
 20
0.0
  0
CIRCLE
  5
1AA
100
AcDbEntity
  8
ASSEMBLY_OUTLINES_TOP
100
AcDbCircle
 10
88.318225
 20
59.63456
 30
0.0
 40
0.45
  0
HATCH
  5
1AB
100
AcDbEntity
  8
ASSEMBLY_OUTLINES_TOP
100
AcDbHatch
 10
0.0
 20
0.0
 30
0.0
210
0.0
220
0.0
230
1.0
  2
SOLID
 70
         1
 71
         1
 91
        1
 92
        1
 93
        1
 72
         2
 10
88.318224999999998
 20
59.63456
 40
0.45
 50
0.0
 51
360.0
 73
         1
 97
        1
330
1AA
 75
         0
 76
         1
 98
        1
 10
0.0
 20
0.0
  0
CIRCLE
  5
1AC
100
AcDbEntity
  8
ASSEMBLY_OUTLINES_TOP
100
AcDbCircle
 10
90.858225
 20
59.63456
 30
0.0
 40
0.45
  0
HATCH
  5
1AD
100
AcDbEntity
  8
ASSEMBLY_OUTLINES_TOP
100
AcDbHatch
 10
0.0
 20
0.0
 30
0.0
210
0.0
220
0.0
230
1.0
  2
SOLID
 70
         1
 71
         1
 91
        1
 92
        1
 93
        1
 72
         2
 10
90.858225000000004
 20
59.63456
 40
0.45
 50
0.0
 51
360.0
 73
         1
 97
        1
330
1AC
 75
         0
 76
         1
 98
        1
 10
0.0
 20
0.0
  0
CIRCLE
  5
1AE
100
AcDbEntity
  8
ASSEMBLY_OUTLINES_TOP
100
AcDbCircle
 10
93.401774
 20
59.62544
 30
0.0
 40
0.45
  0
HATCH
  5
1AF
100
AcDbEntity
  8
ASSEMBLY_OUTLINES_TOP
100
AcDbHatch
 10
0.0
 20
0.0
 30
0.0
210
0.0
220
0.0
230
1.0
  2
SOLID
 70
         1
 71
         1
 91
        1
 92
        1
 93
        1
 72
         2
 10
93.401774000000003
 20
59.625439999999998
 40
0.45
 50
0.0
 51
360.0
 73
         1
 97
        1
330
1AE
 75
         0
 76
         1
 98
        1
 10
0.0
 20
0.0
  0
CIRCLE
  5
1B0
100
AcDbEntity
  8
ASSEMBLY_OUTLINES_TOP
100
AcDbCircle
 10
95.941774
 20
59.62544
 30
0.0
 40
0.45
  0
HATCH
  5
1B1
100
AcDbEntity
  8
ASSEMBLY_OUTLINES_TOP
100
AcDbHatch
 10
0.0
 20
0.0
 30
0.0
210
0.0
220
0.0
230
1.0
  2
SOLID
 70
         1
 71
         1
 91
        1
 92
        1
 93
        1
 72
         2
 10
95.941773999999995
 20
59.625439999999998
 40
0.45
 50
0.0
 51
360.0
 73
         1
 97
        1
330
1B0
 75
         0
 76
         1
 98
        1
 10
0.0
 20
0.0
  0
CIRCLE
  5
1B2
100
AcDbEntity
  8
ASSEMBLY_OUTLINES_TOP
100
AcDbCircle
 10
98.481774
 20
59.62544
 30
0.0
 40
0.45
  0
HATCH
  5
1B3
100
AcDbEntity
  8
ASSEMBLY_OUTLINES_TOP
100
AcDbHatch
 10
0.0
 20
0.0
 30
0.0
210
0.0
220
0.0
230
1.0
  2
SOLID
 70
         1
 71
         1
 91
        1
 92
        1
 93
        1
 72
         2
 10
98.481774000000001
 20
59.625439999999998
 40
0.45
 50
0.0
 51
360.0
 73
         1
 97
        1
330
1B2
 75
         0
 76
         1
 98
        1
 10
0.0
 20
0.0
  0
CIRCLE
  5
1B4
100
AcDbEntity
  8
ASSEMBLY_OUTLINES_TOP
100
AcDbCircle
 10
101.021774
 20
59.62544
 30
0.0
 40
0.45
  0
HATCH
  5
1B5
100
AcDbEntity
  8
ASSEMBLY_OUTLINES_TOP
100
AcDbHatch
 10
0.0
 20
0.0
 30
0.0
210
0.0
220
0.0
230
1.0
  2
SOLID
 70
         1
 71
         1
 91
        1
 92
        1
 93
        1
 72
         2
 10
101.02177399999999
 20
59.625439999999998
 40
0.45
 50
0.0
 51
360.0
 73
         1
 97
        1
330
1B4
 75
         0
 76
         1
 98
        1
 10
0.0
 20
0.0
  0
CIRCLE
  5
1B6
100
AcDbEntity
  8
ASSEMBLY_OUTLINES_TOP
100
AcDbCircle
 10
103.561774
 20
59.62544
 30
0.0
 40
0.45
  0
HATCH
  5
1B7
100
AcDbEntity
  8
ASSEMBLY_OUTLINES_TOP
100
AcDbHatch
 10
0.0
 20
0.0
 30
0.0
210
0.0
220
0.0
230
1.0
  2
SOLID
 70
         1
 71
         1
 91
        1
 92
        1
 93
        1
 72
         2
 10
103.561774
 20
59.625439999999998
 40
0.45
 50
0.0
 51
360.0
 73
         1
 97
        1
330
1B6
 75
         0
 76
         1
 98
        1
 10
0.0
 20
0.0
  0
CIRCLE
  5
1B8
100
AcDbEntity
  8
ASSEMBLY_OUTLINES_TOP
100
AcDbCircle
 10
106.101774
 20
59.62544
 30
0.0
 40
0.45
  0
HATCH
  5
1B9
100
AcDbEntity
  8
ASSEMBLY_OUTLINES_TOP
100
AcDbHatch
 10
0.0
 20
0.0
 30
0.0
210
0.0
220
0.0
230
1.0
  2
SOLID
 70
         1
 71
         1
 91
        1
 92
        1
 93
        1
 72
         2
 10
106.10177400000001
 20
59.625439999999998
 40
0.45
 50
0.0
 51
360.0
 73
         1
 97
        1
330
1B8
 75
         0
 76
         1
 98
        1
 10
0.0
 20
0.0
  0
CIRCLE
  5
1BA
100
AcDbEntity
  8
ASSEMBLY_OUTLINES_TOP
100
AcDbCircle
 10
108.641774
 20
59.62544
 30
0.0
 40
0.45
  0
HATCH
  5
1BB
100
AcDbEntity
  8
ASSEMBLY_OUTLINES_TOP
100
AcDbHatch
 10
0.0
 20
0.0
 30
0.0
210
0.0
220
0.0
230
1.0
  2
SOLID
 70
         1
 71
         1
 91
        1
 92
        1
 93
        1
 72
         2
 10
108.641774
 20
59.625439999999998
 40
0.45
 50
0.0
 51
360.0
 73
         1
 97
        1
330
1BA
 75
         0
 76
         1
 98
        1
 10
0.0
 20
0.0
  0
CIRCLE
  5
1BC
100
AcDbEntity
  8
ASSEMBLY_OUTLINES_TOP
100
AcDbCircle
 10
111.181774
 20
59.62544
 30
0.0
 40
0.45
  0
HATCH
  5
1BD
100
AcDbEntity
  8
ASSEMBLY_OUTLINES_TOP
100
AcDbHatch
 10
0.0
 20
0.0
 30
0.0
210
0.0
220
0.0
230
1.0
  2
SOLID
 70
         1
 71
         1
 91
        1
 92
        1
 93
        1
 72
         2
 10
111.181774
 20
59.625439999999998
 40
0.45
 50
0.0
 51
360.0
 73
         1
 97
        1
330
1BC
 75
         0
 76
         1
 98
        1
 10
0.0
 20
0.0
  0
CIRCLE
  5
1BE
100
AcDbEntity
  8
ASSEMBLY_OUTLINES_TOP
100
AcDbCircle
 10
113.721774
 20
59.62544
 30
0.0
 40
0.45
  0
HATCH
  5
1BF
100
AcDbEntity
  8
ASSEMBLY_OUTLINES_TOP
100
AcDbHatch
 10
0.0
 20
0.0
 30
0.0
210
0.0
220
0.0
230
1.0
  2
SOLID
 70
         1
 71
         1
 91
        1
 92
        1
 93
        1
 72
         2
 10
113.721774
 20
59.625439999999998
 40
0.45
 50
0.0
 51
360.0
 73
         1
 97
        1
330
1BE
 75
         0
 76
         1
 98
        1
 10
0.0
 20
0.0
  0
CIRCLE
  5
1C0
100
AcDbEntity
  8
ASSEMBLY_OUTLINES_TOP
100
AcDbCircle
 10
116.261774
 20
59.62544
 30
0.0
 40
0.45
  0
HATCH
  5
1C1
100
AcDbEntity
  8
ASSEMBLY_OUTLINES_TOP
100
AcDbHatch
 10
0.0
 20
0.0
 30
0.0
210
0.0
220
0.0
230
1.0
  2
SOLID
 70
         1
 71
         1
 91
        1
 92
        1
 93
        1
 72
         2
 10
116.261774
 20
59.625439999999998
 40
0.45
 50
0.0
 51
360.0
 73
         1
 97
        1
330
1C0
 75
         0
 76
         1
 98
        1
 10
0.0
 20
0.0
  0
CIRCLE
  5
1C2
100
AcDbEntity
  8
ASSEMBLY_OUTLINES_TOP
100
AcDbCircle
 10
68.0
 20
62.17
 30
0.0
 40
0.45
  0
HATCH
  5
1C3
100
AcDbEntity
  8
ASSEMBLY_OUTLINES_TOP
100
AcDbHatch
 10
0.0
 20
0.0
 30
0.0
210
0.0
220
0.0
230
1.0
  2
SOLID
 70
         1
 71
         1
 91
        1
 92
        1
 93
        1
 72
         2
 10
68.0
 20
62.170000000000002
 40
0.45
 50
0.0
 51
360.0
 73
         1
 97
        1
330
1C2
 75
         0
 76
         1
 98
        1
 10
0.0
 20
0.0
  0
CIRCLE
  5
1C4
100
AcDbEntity
  8
ASSEMBLY_OUTLINES_TOP
100
AcDbCircle
 10
70.54
 20
62.17
 30
0.0
 40
0.45
  0
HATCH
  5
1C5
100
AcDbEntity
  8
ASSEMBLY_OUTLINES_TOP
100
AcDbHatch
 10
0.0
 20
0.0
 30
0.0
210
0.0
220
0.0
230
1.0
  2
SOLID
 70
         1
 71
         1
 91
        1
 92
        1
 93
        1
 72
         2
 10
70.540000000000006
 20
62.170000000000002
 40
0.45
 50
0.0
 51
360.0
 73
         1
 97
        1
330
1C4
 75
         0
 76
         1
 98
        1
 10
0.0
 20
0.0
  0
CIRCLE
  5
1C6
100
AcDbEntity
  8
ASSEMBLY_OUTLINES_TOP
100
AcDbCircle
 10
73.08
 20
62.17
 30
0.0
 40
0.45
  0
HATCH
  5
1C7
100
AcDbEntity
  8
ASSEMBLY_OUTLINES_TOP
100
AcDbHatch
 10
0.0
 20
0.0
 30
0.0
210
0.0
220
0.0
230
1.0
  2
SOLID
 70
         1
 71
         1
 91
        1
 92
        1
 93
        1
 72
         2
 10
73.079999999999998
 20
62.170000000000002
 40
0.45
 50
0.0
 51
360.0
 73
         1
 97
        1
330
1C6
 75
         0
 76
         1
 98
        1
 10
0.0
 20
0.0
  0
CIRCLE
  5
1C8
100
AcDbEntity
  8
ASSEMBLY_OUTLINES_TOP
100
AcDbCircle
 10
75.62
 20
62.17
 30
0.0
 40
0.45
  0
HATCH
  5
1C9
100
AcDbEntity
  8
ASSEMBLY_OUTLINES_TOP
100
AcDbHatch
 10
0.0
 20
0.0
 30
0.0
210
0.0
220
0.0
230
1.0
  2
SOLID
 70
         1
 71
         1
 91
        1
 92
        1
 93
        1
 72
         2
 10
75.620000000000005
 20
62.170000000000002
 40
0.45
 50
0.0
 51
360.0
 73
         1
 97
        1
330
1C8
 75
         0
 76
         1
 98
        1
 10
0.0
 20
0.0
  0
CIRCLE
  5
1CA
100
AcDbEntity
  8
ASSEMBLY_OUTLINES_TOP
100
AcDbCircle
 10
78.16
 20
62.17
 30
0.0
 40
0.45
  0
HATCH
  5
1CB
100
AcDbEntity
  8
ASSEMBLY_OUTLINES_TOP
100
AcDbHatch
 10
0.0
 20
0.0
 30
0.0
210
0.0
220
0.0
230
1.0
  2
SOLID
 70
         1
 71
         1
 91
        1
 92
        1
 93
        1
 72
         2
 10
78.159999999999997
 20
62.170000000000002
 40
0.45
 50
0.0
 51
360.0
 73
         1
 97
        1
330
1CA
 75
         0
 76
         1
 98
        1
 10
0.0
 20
0.0
  0
CIRCLE
  5
1CC
100
AcDbEntity
  8
ASSEMBLY_OUTLINES_TOP
100
AcDbCircle
 10
80.7
 20
62.17
 30
0.0
 40
0.45
  0
HATCH
  5
1CD
100
AcDbEntity
  8
ASSEMBLY_OUTLINES_TOP
100
AcDbHatch
 10
0.0
 20
0.0
 30
0.0
210
0.0
220
0.0
230
1.0
  2
SOLID
 70
         1
 71
         1
 91
        1
 92
        1
 93
        1
 72
         2
 10
80.700000000000003
 20
62.170000000000002
 40
0.45
 50
0.0
 51
360.0
 73
         1
 97
        1
330
1CC
 75
         0
 76
         1
 98
        1
 10
0.0
 20
0.0
  0
CIRCLE
  5
1CE
100
AcDbEntity
  8
ASSEMBLY_OUTLINES_TOP
100
AcDbCircle
 10
83.24
 20
62.17
 30
0.0
 40
0.45
  0
HATCH
  5
1CF
100
AcDbEntity
  8
ASSEMBLY_OUTLINES_TOP
100
AcDbHatch
 10
0.0
 20
0.0
 30
0.0
210
0.0
220
0.0
230
1.0
  2
SOLID
 70
         1
 71
         1
 91
        1
 92
        1
 93
        1
 72
         2
 10
83.239999999999995
 20
62.170000000000002
 40
0.45
 50
0.0
 51
360.0
 73
         1
 97
        1
330
1CE
 75
         0
 76
         1
 98
        1
 10
0.0
 20
0.0
  0
CIRCLE
  5
1D0
100
AcDbEntity
  8
ASSEMBLY_OUTLINES_TOP
100
AcDbCircle
 10
85.78
 20
62.17
 30
0.0
 40
0.45
  0
HATCH
  5
1D1
100
AcDbEntity
  8
ASSEMBLY_OUTLINES_TOP
100
AcDbHatch
 10
0.0
 20
0.0
 30
0.0
210
0.0
220
0.0
230
1.0
  2
SOLID
 70
         1
 71
         1
 91
        1
 92
        1
 93
        1
 72
         2
 10
85.780000000000001
 20
62.170000000000002
 40
0.45
 50
0.0
 51
360.0
 73
         1
 97
        1
330
1D0
 75
         0
 76
         1
 98
        1
 10
0.0
 20
0.0
  0
CIRCLE
  5
1D2
100
AcDbEntity
  8
ASSEMBLY_OUTLINES_TOP
100
AcDbCircle
 10
88.32
 20
62.17
 30
0.0
 40
0.45
  0
HATCH
  5
1D3
100
AcDbEntity
  8
ASSEMBLY_OUTLINES_TOP
100
AcDbHatch
 10
0.0
 20
0.0
 30
0.0
210
0.0
220
0.0
230
1.0
  2
SOLID
 70
         1
 71
         1
 91
        1
 92
        1
 93
        1
 72
         2
 10
88.319999999999993
 20
62.170000000000002
 40
0.45
 50
0.0
 51
360.0
 73
         1
 97
        1
330
1D2
 75
         0
 76
         1
 98
        1
 10
0.0
 20
0.0
  0
CIRCLE
  5
1D4
100
AcDbEntity
  8
ASSEMBLY_OUTLINES_TOP
100
AcDbCircle
 10
90.86
 20
62.17
 30
0.0
 40
0.45
  0
HATCH
  5
1D5
100
AcDbEntity
  8
ASSEMBLY_OUTLINES_TOP
100
AcDbHatch
 10
0.0
 20
0.0
 30
0.0
210
0.0
220
0.0
230
1.0
  2
SOLID
 70
         1
 71
         1
 91
        1
 92
        1
 93
        1
 72
         2
 10
90.859999999999999
 20
62.170000000000002
 40
0.45
 50
0.0
 51
360.0
 73
         1
 97
        1
330
1D4
 75
         0
 76
         1
 98
        1
 10
0.0
 20
0.0
  0
CIRCLE
  5
1D6
100
AcDbEntity
  8
ASSEMBLY_OUTLINES_TOP
100
AcDbCircle
 10
93.403549
 20
62.17088
 30
0.0
 40
0.45
  0
HATCH
  5
1D7
100
AcDbEntity
  8
ASSEMBLY_OUTLINES_TOP
100
AcDbHatch
 10
0.0
 20
0.0
 30
0.0
210
0.0
220
0.0
230
1.0
  2
SOLID
 70
         1
 71
         1
 91
        1
 92
        1
 93
        1
 72
         2
 10
93.403548999999998
 20
62.170879999999997
 40
0.45
 50
0.0
 51
360.0
 73
         1
 97
        1
330
1D6
 75
         0
 76
         1
 98
        1
 10
0.0
 20
0.0
  0
CIRCLE
  5
1D8
100
AcDbEntity
  8
ASSEMBLY_OUTLINES_TOP
100
AcDbCircle
 10
95.943549
 20
62.17088
 30
0.0
 40
0.45
  0
HATCH
  5
1D9
100
AcDbEntity
  8
ASSEMBLY_OUTLINES_TOP
100
AcDbHatch
 10
0.0
 20
0.0
 30
0.0
210
0.0
220
0.0
230
1.0
  2
SOLID
 70
         1
 71
         1
 91
        1
 92
        1
 93
        1
 72
         2
 10
95.943549000000004
 20
62.170879999999997
 40
0.45
 50
0.0
 51
360.0
 73
         1
 97
        1
330
1D8
 75
         0
 76
         1
 98
        1
 10
0.0
 20
0.0
  0
CIRCLE
  5
1DA
100
AcDbEntity
  8
ASSEMBLY_OUTLINES_TOP
100
AcDbCircle
 10
98.483549
 20
62.17088
 30
0.0
 40
0.45
  0
HATCH
  5
1DB
100
AcDbEntity
  8
ASSEMBLY_OUTLINES_TOP
100
AcDbHatch
 10
0.0
 20
0.0
 30
0.0
210
0.0
220
0.0
230
1.0
  2
SOLID
 70
         1
 71
         1
 91
        1
 92
        1
 93
        1
 72
         2
 10
98.483548999999996
 20
62.170879999999997
 40
0.45
 50
0.0
 51
360.0
 73
         1
 97
        1
330
1DA
 75
         0
 76
         1
 98
        1
 10
0.0
 20
0.0
  0
CIRCLE
  5
1DC
100
AcDbEntity
  8
ASSEMBLY_OUTLINES_TOP
100
AcDbCircle
 10
101.023549
 20
62.17088
 30
0.0
 40
0.45
  0
HATCH
  5
1DD
100
AcDbEntity
  8
ASSEMBLY_OUTLINES_TOP
100
AcDbHatch
 10
0.0
 20
0.0
 30
0.0
210
0.0
220
0.0
230
1.0
  2
SOLID
 70
         1
 71
         1
 91
        1
 92
        1
 93
        1
 72
         2
 10
101.023549
 20
62.170879999999997
 40
0.45
 50
0.0
 51
360.0
 73
         1
 97
        1
330
1DC
 75
         0
 76
         1
 98
        1
 10
0.0
 20
0.0
  0
CIRCLE
  5
1DE
100
AcDbEntity
  8
ASSEMBLY_OUTLINES_TOP
100
AcDbCircle
 10
103.563549
 20
62.17088
 30
0.0
 40
0.45
  0
HATCH
  5
1DF
100
AcDbEntity
  8
ASSEMBLY_OUTLINES_TOP
100
AcDbHatch
 10
0.0
 20
0.0
 30
0.0
210
0.0
220
0.0
230
1.0
  2
SOLID
 70
         1
 71
         1
 91
        1
 92
        1
 93
        1
 72
         2
 10
103.56354899999999
 20
62.170879999999997
 40
0.45
 50
0.0
 51
360.0
 73
         1
 97
        1
330
1DE
 75
         0
 76
         1
 98
        1
 10
0.0
 20
0.0
  0
CIRCLE
  5
1E0
100
AcDbEntity
  8
ASSEMBLY_OUTLINES_TOP
100
AcDbCircle
 10
106.103549
 20
62.17088
 30
0.0
 40
0.45
  0
HATCH
  5
1E1
100
AcDbEntity
  8
ASSEMBLY_OUTLINES_TOP
100
AcDbHatch
 10
0.0
 20
0.0
 30
0.0
210
0.0
220
0.0
230
1.0
  2
SOLID
 70
         1
 71
         1
 91
        1
 92
        1
 93
        1
 72
         2
 10
106.103549
 20
62.170879999999997
 40
0.45
 50
0.0
 51
360.0
 73
         1
 97
        1
330
1E0
 75
         0
 76
         1
 98
        1
 10
0.0
 20
0.0
  0
CIRCLE
  5
1E2
100
AcDbEntity
  8
ASSEMBLY_OUTLINES_TOP
100
AcDbCircle
 10
108.643549
 20
62.17088
 30
0.0
 40
0.45
  0
HATCH
  5
1E3
100
AcDbEntity
  8
ASSEMBLY_OUTLINES_TOP
100
AcDbHatch
 10
0.0
 20
0.0
 30
0.0
210
0.0
220
0.0
230
1.0
  2
SOLID
 70
         1
 71
         1
 91
        1
 92
        1
 93
        1
 72
         2
 10
108.64354899999999
 20
62.170879999999997
 40
0.45
 50
0.0
 51
360.0
 73
         1
 97
        1
330
1E2
 75
         0
 76
         1
 98
        1
 10
0.0
 20
0.0
  0
CIRCLE
  5
1E4
100
AcDbEntity
  8
ASSEMBLY_OUTLINES_TOP
100
AcDbCircle
 10
111.183549
 20
62.17088
 30
0.0
 40
0.45
  0
HATCH
  5
1E5
100
AcDbEntity
  8
ASSEMBLY_OUTLINES_TOP
100
AcDbHatch
 10
0.0
 20
0.0
 30
0.0
210
0.0
220
0.0
230
1.0
  2
SOLID
 70
         1
 71
         1
 91
        1
 92
        1
 93
        1
 72
         2
 10
111.183549
 20
62.170879999999997
 40
0.45
 50
0.0
 51
360.0
 73
         1
 97
        1
330
1E4
 75
         0
 76
         1
 98
        1
 10
0.0
 20
0.0
  0
CIRCLE
  5
1E6
100
AcDbEntity
  8
ASSEMBLY_OUTLINES_TOP
100
AcDbCircle
 10
113.723549
 20
62.17088
 30
0.0
 40
0.45
  0
HATCH
  5
1E7
100
AcDbEntity
  8
ASSEMBLY_OUTLINES_TOP
100
AcDbHatch
 10
0.0
 20
0.0
 30
0.0
210
0.0
220
0.0
230
1.0
  2
SOLID
 70
         1
 71
         1
 91
        1
 92
        1
 93
        1
 72
         2
 10
113.72354900000001
 20
62.170879999999997
 40
0.45
 50
0.0
 51
360.0
 73
         1
 97
        1
330
1E6
 75
         0
 76
         1
 98
        1
 10
0.0
 20
0.0
  0
CIRCLE
  5
1E8
100
AcDbEntity
  8
ASSEMBLY_OUTLINES_TOP
100
AcDbCircle
 10
116.263549
 20
62.17088
 30
0.0
 40
0.45
  0
HATCH
  5
1E9
100
AcDbEntity
  8
ASSEMBLY_OUTLINES_TOP
100
AcDbHatch
 10
0.0
 20
0.0
 30
0.0
210
0.0
220
0.0
230
1.0
  2
SOLID
 70
         1
 71
         1
 91
        1
 92
        1
 93
        1
 72
         2
 10
116.263549
 20
62.170879999999997
 40
0.45
 50
0.0
 51
360.0
 73
         1
 97
        1
330
1E8
 75
         0
 76
         1
 98
        1
 10
0.0
 20
0.0
  0
LWPOLYLINE
  5
1EA
100
AcDbEntity
  8
ASSEMBLY_OUTLINES_TOP
100
AcDbPolyline
 90
        4
 70
         1
 10
45.34
 20
22.03
 10
45.34
 20
24.57
 10
50.42
 20
24.57
 10
50.42
 20
22.03
  0
LWPOLYLINE
  5
1EB
100
AcDbEntity
  8
ASSEMBLY_OUTLINES_TOP
100
AcDbPolyline
 90
        8
 70
         1
 43
0.1
 10
16.4
 20
47.2
 10
13.1
 20
47.2
 42
0.4142135624
 10
12.1
 20
46.2
 10
12.1
 20
43.0
 42
0.4142135624
 10
13.1
 20
42.0
 10
16.4
 20
42.0
 42
0.4142135624
 10
17.4
 20
43.0
 10
17.4
 20
46.2
 42
0.4142135624
  0
LWPOLYLINE
  5
1EC
100
AcDbEntity
  8
ASSEMBLY_OUTLINES_TOP
100
AcDbPolyline
 90
        4
 70
         1
 43
0.1
 10
79.9
 20
16.75
 10
79.9
 20
20.45
 10
82.9
 20
20.45
 10
82.9
 20
16.75
  0
LWPOLYLINE
  5
1ED
100
AcDbEntity
  8
ASSEMBLY_OUTLINES_TOP
100
AcDbPolyline
 90
        2
 70
         0
 43
0.1
 10
79.9
 20
20.35
 10
82.9
 20
20.35
  0
LWPOLYLINE
  5
1EE
100
AcDbEntity
  8
ASSEMBLY_OUTLINES_TOP
100
AcDbPolyline
 90
        2
 70
         0
 43
0.1
 10
79.9
 20
20.25
 10
82.9
 20
20.25
  0
LWPOLYLINE
  5
1EF
100
AcDbEntity
  8
ASSEMBLY_OUTLINES_TOP
100
AcDbPolyline
 90
        2
 70
         0
 43
0.1
 10
79.9
 20
20.15
 10
82.9
 20
20.15
  0
LWPOLYLINE
  5
1F0
100
AcDbEntity
  8
ASSEMBLY_OUTLINES_TOP
100
AcDbPolyline
 90
        2
 70
         0
 43
0.1
 10
79.9
 20
20.05
 10
82.9
 20
20.05
  0
LWPOLYLINE
  5
1F1
100
AcDbEntity
  8
ASSEMBLY_OUTLINES_TOP
100
AcDbPolyline
 90
        2
 70
         0
 43
0.1
 10
79.9
 20
19.95
 10
82.9
 20
19.95
  0
LWPOLYLINE
  5
1F2
100
AcDbEntity
  8
ASSEMBLY_OUTLINES_TOP
100
AcDbPolyline
 90
        2
 70
         0
 43
0.1
 10
79.9
 20
19.85
 10
82.9
 20
19.85
  0
LWPOLYLINE
  5
1F3
100
AcDbEntity
  8
ASSEMBLY_OUTLINES_TOP
100
AcDbPolyline
 90
        2
 70
         0
 43
0.1
 10
79.9
 20
19.75
 10
82.9
 20
19.75
  0
LWPOLYLINE
  5
1F4
100
AcDbEntity
  8
ASSEMBLY_OUTLINES_TOP
100
AcDbPolyline
 90
        2
 70
         0
 43
0.1
 10
79.9
 20
19.65
 10
82.9
 20
19.65
  0
LWPOLYLINE
  5
1F5
100
AcDbEntity
  8
ASSEMBLY_OUTLINES_TOP
100
AcDbPolyline
 90
        4
 70
         1
 10
43.93
 20
4.43
 10
43.93
 20
9.51
 10
46.47
 20
9.51
 10
46.47
 20
4.43
  0
LWPOLYLINE
  5
1F6
100
AcDbEntity
  8
ASSEMBLY_OUTLINES_TOP
100
AcDbPolyline
 90
        4
 70
         1
 10
26.62
 20
23.97
 10
26.62
 20
56.97
 10
35.32
 20
56.97
 10
35.32
 20
23.97
  0
LWPOLYLINE
  5
1F7
100
AcDbEntity
  8
ASSEMBLY_OUTLINES_TOP
100
AcDbPolyline
 90
        4
 70
         1
 10
26.62
 20
37.4
 10
26.62
 20
43.9
 10
27.2
 20
43.9
 10
27.2
 20
37.4
  0
LWPOLYLINE
  5
1F8
100
AcDbEntity
  8
ASSEMBLY_OUTLINES_TOP
100
AcDbPolyline
 90
        8
 70
         1
 43
0.1
 10
92.45
 20
41.15
 10
92.45
 20
44.45
 42
0.4142135624
 10
91.45
 20
45.45
 10
88.25
 20
45.45
 42
0.4142135624
 10
87.25
 20
44.45
 10
87.25
 20
41.15
 42
0.4142135624
 10
88.25
 20
40.15
 10
91.45
 20
40.15
 42
0.4142135624
  0
LWPOLYLINE
  5
1F9
100
AcDbEntity
  8
ASSEMBLY_OUTLINES_TOP
100
AcDbPolyline
 90
        4
 70
         1
 43
0.1
 10
44.25
 20
13.0
 10
44.25
 20
14.7
 10
47.35
 20
14.7
 10
47.35
 20
13.0
  0
LWPOLYLINE
  5
1FA
100
AcDbEntity
  8
ASSEMBLY_OUTLINES_TOP
100
AcDbPolyline
 90
        2
 70
         0
 43
0.1
 10
47.25
 20
14.7
 10
47.25
 20
13.0
  0
LWPOLYLINE
  5
1FB
100
AcDbEntity
  8
ASSEMBLY_OUTLINES_TOP
100
AcDbPolyline
 90
        2
 70
         0
 43
0.1
 10
47.15
 20
14.7
 10
47.15
 20
13.0
  0
LWPOLYLINE
  5
1FC
100
AcDbEntity
  8
ASSEMBLY_OUTLINES_TOP
100
AcDbPolyline
 90
        2
 70
         0
 43
0.1
 10
47.05
 20
14.7
 10
47.05
 20
13.0
  0
LWPOLYLINE
  5
1FD
100
AcDbEntity
  8
ASSEMBLY_OUTLINES_TOP
100
AcDbPolyline
 90
        2
 70
         0
 43
0.1
 10
46.95
 20
14.7
 10
46.95
 20
13.0
  0
LWPOLYLINE
  5
1FE
100
AcDbEntity
  8
ASSEMBLY_OUTLINES_TOP
100
AcDbPolyline
 90
        2
 70
         0
 43
0.1
 10
46.85
 20
14.7
 10
46.85
 20
13.0
  0
LWPOLYLINE
  5
1FF
100
AcDbEntity
  8
ASSEMBLY_OUTLINES_TOP
100
AcDbPolyline
 90
        2
 70
         0
 43
0.1
 10
46.75
 20
14.7
 10
46.75
 20
13.0
  0
LWPOLYLINE
  5
200
100
AcDbEntity
  8
ASSEMBLY_OUTLINES_TOP
100
AcDbPolyline
 90
        4
 70
         1
 10
2.370002
 20
-3.000002
 10
2.370002
 20
11.499998
 10
11.370002
 20
11.499998
 10
11.370002
 20
-3.000002
  0
LWPOLYLINE
  5
201
100
AcDbEntity
  8
ASSEMBLY_OUTLINES_TOP
100
AcDbPolyline
 90
        4
 70
         1
 10
121.1
 20
63.37
 10
121.1
 20
70.37
 10
129.5
 20
70.37
 10
129.5
 20
63.37
  0
LWPOLYLINE
  5
202
100
AcDbEntity
  8
ASSEMBLY_OUTLINES_TOP
100
AcDbPolyline
 90
        4
 70
         1
 10
119.5
 20
56.87
 10
119.5
 20
63.37
 10
131.0
 20
63.37
 10
131.0
 20
56.87
  0
LWPOLYLINE
  5
203
100
AcDbEntity
  8
ASSEMBLY_OUTLINES_TOP
100
AcDbPolyline
 90
        4
 70
         1
 43
0.1
 10
37.65
 20
26.35
 10
37.65
 20
44.85
 10
49.75
 20
44.85
 10
49.75
 20
26.35
  0
LWPOLYLINE
  5
204
100
AcDbEntity
  8
ASSEMBLY_OUTLINES_TOP
100
AcDbPolyline
 90
        2
 70
         1
 43
0.1
 10
38.15
 20
27.35
 42
-1.0
 10
39.15
 20
27.35
 42
-1.0
  0
LWPOLYLINE
  5
205
100
AcDbEntity
  8
ASSEMBLY_OUTLINES_TOP
100
AcDbPolyline
 90
        4
 70
         1
 10
50.39
 20
11.23
 10
50.39
 20
13.77
 10
60.39
 20
13.77
 10
60.39
 20
11.23
  0
LWPOLYLINE
  5
206
100
AcDbEntity
  8
ASSEMBLY_OUTLINES_TOP
100
AcDbPolyline
 90
        4
 70
         1
 43
0.1
 10
101.8
 20
24.5
 10
101.8
 20
28.2
 10
104.8
 20
28.2
 10
104.8
 20
24.5
  0
LWPOLYLINE
  5
207
100
AcDbEntity
  8
ASSEMBLY_OUTLINES_TOP
100
AcDbPolyline
 90
        2
 70
         0
 43
0.1
 10
101.8
 20
28.1
 10
104.8
 20
28.1
  0
LWPOLYLINE
  5
208
100
AcDbEntity
  8
ASSEMBLY_OUTLINES_TOP
100
AcDbPolyline
 90
        2
 70
         0
 43
0.1
 10
101.8
 20
28.0
 10
104.8
 20
28.0
  0
LWPOLYLINE
  5
209
100
AcDbEntity
  8
ASSEMBLY_OUTLINES_TOP
100
AcDbPolyline
 90
        2
 70
         0
 43
0.1
 10
101.8
 20
27.9
 10
104.8
 20
27.9
  0
LWPOLYLINE
  5
20A
100
AcDbEntity
  8
ASSEMBLY_OUTLINES_TOP
100
AcDbPolyline
 90
        2
 70
         0
 43
0.1
 10
101.8
 20
27.8
 10
104.8
 20
27.8
  0
LWPOLYLINE
  5
20B
100
AcDbEntity
  8
ASSEMBLY_OUTLINES_TOP
100
AcDbPolyline
 90
        2
 70
         0
 43
0.1
 10
101.8
 20
27.7
 10
104.8
 20
27.7
  0
LWPOLYLINE
  5
20C
100
AcDbEntity
  8
ASSEMBLY_OUTLINES_TOP
100
AcDbPolyline
 90
        2
 70
         0
 43
0.1
 10
101.8
 20
27.6
 10
104.8
 20
27.6
  0
LWPOLYLINE
  5
20D
100
AcDbEntity
  8
ASSEMBLY_OUTLINES_TOP
100
AcDbPolyline
 90
        2
 70
         0
 43
0.1
 10
101.8
 20
27.5
 10
104.8
 20
27.5
  0
LWPOLYLINE
  5
20E
100
AcDbEntity
  8
ASSEMBLY_OUTLINES_TOP
100
AcDbPolyline
 90
        2
 70
         0
 43
0.1
 10
101.8
 20
27.4
 10
104.8
 20
27.4
  0
LWPOLYLINE
  5
20F
100
AcDbEntity
  8
ASSEMBLY_OUTLINES_TOP
100
AcDbPolyline
 90
        2
 70
         0
 10
124.65
 20
24.8
 10
132.15
 20
24.8
  0
LWPOLYLINE
  5
210
100
AcDbEntity
  8
ASSEMBLY_OUTLINES_TOP
100
AcDbPolyline
 90
        2
 70
         0
 10
124.65
 20
28.8
 10
132.15
 20
28.8
  0
LWPOLYLINE
  5
211
100
AcDbEntity
  8
ASSEMBLY_OUTLINES_TOP
100
AcDbPolyline
 90
        2
 70
         0
 10
132.15
 20
24.8
 42
1.0
 10
132.15
 20
28.8
  0
LWPOLYLINE
  5
212
100
AcDbEntity
  8
ASSEMBLY_OUTLINES_TOP
100
AcDbPolyline
 90
        2
 70
         0
 10
124.65
 20
28.8
 42
1.0
 10
124.65
 20
24.8
  0
LWPOLYLINE
  5
213
100
AcDbEntity
  8
ASSEMBLY_OUTLINES_TOP
100
AcDbPolyline
 90
        4
 70
         1
 10
63.79
 20
7.68
 10
63.79
 20
10.22
 10
68.87
 20
10.22
 10
68.87
 20
7.68
  0
LWPOLYLINE
  5
214
100
AcDbEntity
  8
ASSEMBLY_OUTLINES_TOP
100
AcDbPolyline
 90
        4
 70
         1
 43
0.1
 10
3.04
 20
13.57
 10
3.04
 20
19.17
 10
6.84
 20
19.17
 10
6.84
 20
13.57
  0
LWPOLYLINE
  5
215
100
AcDbEntity
  8
ASSEMBLY_OUTLINES_TOP
100
AcDbPolyline
 90
        2
 70
         0
 43
0.1
 10
3.04
 20
19.07
 10
6.84
 20
19.07
  0
LWPOLYLINE
  5
216
100
AcDbEntity
  8
ASSEMBLY_OUTLINES_TOP
100
AcDbPolyline
 90
        2
 70
         0
 43
0.1
 10
3.04
 20
18.97
 10
6.84
 20
18.97
  0
LWPOLYLINE
  5
217
100
AcDbEntity
  8
ASSEMBLY_OUTLINES_TOP
100
AcDbPolyline
 90
        2
 70
         0
 43
0.1
 10
3.04
 20
18.87
 10
6.84
 20
18.87
  0
LWPOLYLINE
  5
218
100
AcDbEntity
  8
ASSEMBLY_OUTLINES_TOP
100
AcDbPolyline
 90
        2
 70
         0
 43
0.1
 10
3.04
 20
18.77
 10
6.84
 20
18.77
  0
LWPOLYLINE
  5
219
100
AcDbEntity
  8
ASSEMBLY_OUTLINES_TOP
100
AcDbPolyline
 90
        2
 70
         0
 43
0.1
 10
3.04
 20
18.67
 10
6.84
 20
18.67
  0
LWPOLYLINE
  5
21A
100
AcDbEntity
  8
ASSEMBLY_OUTLINES_TOP
100
AcDbPolyline
 90
        2
 70
         0
 43
0.1
 10
3.04
 20
18.57
 10
6.84
 20
18.57
  0
LWPOLYLINE
  5
21B
100
AcDbEntity
  8
ASSEMBLY_OUTLINES_TOP
100
AcDbPolyline
 90
        2
 70
         0
 43
0.1
 10
3.04
 20
18.47
 10
6.84
 20
18.47
  0
LWPOLYLINE
  5
21C
100
AcDbEntity
  8
ASSEMBLY_OUTLINES_TOP
100
AcDbPolyline
 90
        2
 70
         0
 43
0.1
 10
3.04
 20
18.37
 10
6.84
 20
18.37
  0
LWPOLYLINE
  5
21D
100
AcDbEntity
  8
ASSEMBLY_OUTLINES_TOP
100
AcDbPolyline
 90
        4
 70
         1
 10
86.13
 20
20.03
 10
86.13
 20
22.57
 10
91.21
 20
22.57
 10
91.21
 20
20.03
  0
CIRCLE
  5
21E
100
AcDbEntity
  8
ASSEMBLY_OUTLINES_TOP
100
AcDbCircle
 10
98.4
 20
48.85
 30
0.0
 40
2.0
  0
LWPOLYLINE
  5
21F
100
AcDbEntity
  8
ASSEMBLY_OUTLINES_TOP
100
AcDbPolyline
 90
        4
 70
         1
 43
0.1
 10
114.55
 20
22.55
 10
114.55
 20
26.25
 10
117.55
 20
26.25
 10
117.55
 20
22.55
  0
LWPOLYLINE
  5
220
100
AcDbEntity
  8
ASSEMBLY_OUTLINES_TOP
100
AcDbPolyline
 90
        2
 70
         0
 43
0.1
 10
117.55
 20
22.65
 10
114.55
 20
22.65
  0
LWPOLYLINE
  5
221
100
AcDbEntity
  8
ASSEMBLY_OUTLINES_TOP
100
AcDbPolyline
 90
        2
 70
         0
 43
0.1
 10
117.55
 20
22.75
 10
114.55
 20
22.75
  0
LWPOLYLINE
  5
222
100
AcDbEntity
  8
ASSEMBLY_OUTLINES_TOP
100
AcDbPolyline
 90
        2
 70
         0
 43
0.1
 10
117.55
 20
22.85
 10
114.55
 20
22.85
  0
LWPOLYLINE
  5
223
100
AcDbEntity
  8
ASSEMBLY_OUTLINES_TOP
100
AcDbPolyline
 90
        2
 70
         0
 43
0.1
 10
117.55
 20
22.95
 10
114.55
 20
22.95
  0
LWPOLYLINE
  5
224
100
AcDbEntity
  8
ASSEMBLY_OUTLINES_TOP
100
AcDbPolyline
 90
        2
 70
         0
 43
0.1
 10
117.55
 20
23.05
 10
114.55
 20
23.05
  0
LWPOLYLINE
  5
225
100
AcDbEntity
  8
ASSEMBLY_OUTLINES_TOP
100
AcDbPolyline
 90
        2
 70
         0
 43
0.1
 10
117.55
 20
23.15
 10
114.55
 20
23.15
  0
LWPOLYLINE
  5
226
100
AcDbEntity
  8
ASSEMBLY_OUTLINES_TOP
100
AcDbPolyline
 90
        2
 70
         0
 43
0.1
 10
117.55
 20
23.25
 10
114.55
 20
23.25
  0
LWPOLYLINE
  5
227
100
AcDbEntity
  8
ASSEMBLY_OUTLINES_TOP
100
AcDbPolyline
 90
        2
 70
         0
 43
0.1
 10
117.55
 20
23.35
 10
114.55
 20
23.35
  0
LWPOLYLINE
  5
228
100
AcDbEntity
  8
ASSEMBLY_OUTLINES_TOP
100
AcDbPolyline
 90
        4
 70
         1
 10
48.81
 20
-3.0
 10
48.81
 20
11.0
 10
62.01
 20
11.0
 10
62.01
 20
-3.0
  0
LWPOLYLINE
  5
229
100
AcDbEntity
  8
ASSEMBLY_OUTLINES_TOP
100
AcDbPolyline
 90
        4
 70
         1
 43
0.1
 10
55.3
 20
27.6
 10
55.3
 20
46.6
 10
74.3
 20
46.6
 10
74.3
 20
27.6
  0
LWPOLYLINE
  5
22A
100
AcDbEntity
  8
ASSEMBLY_OUTLINES_TOP
100
AcDbPolyline
 90
        2
 70
         0
 43
0.1
 10
74.2
 20
46.6
 10
74.3
 20
46.5
  0
LWPOLYLINE
  5
22B
100
AcDbEntity
  8
ASSEMBLY_OUTLINES_TOP
100
AcDbPolyline
 90
        2
 70
         0
 43
0.1
 10
74.1
 20
46.6
 10
74.3
 20
46.4
  0
LWPOLYLINE
  5
22C
100
AcDbEntity
  8
ASSEMBLY_OUTLINES_TOP
100
AcDbPolyline
 90
        2
 70
         0
 43
0.1
 10
74.0
 20
46.6
 10
74.3
 20
46.3
  0
LWPOLYLINE
  5
22D
100
AcDbEntity
  8
ASSEMBLY_OUTLINES_TOP
100
AcDbPolyline
 90
        2
 70
         0
 43
0.1
 10
73.9
 20
46.6
 10
74.3
 20
46.2
  0
LWPOLYLINE
  5
22E
100
AcDbEntity
  8
ASSEMBLY_OUTLINES_TOP
100
AcDbPolyline
 90
        2
 70
         0
 43
0.1
 10
73.8
 20
46.6
 10
74.3
 20
46.1
  0
LWPOLYLINE
  5
22F
100
AcDbEntity
  8
ASSEMBLY_OUTLINES_TOP
100
AcDbPolyline
 90
        2
 70
         0
 43
0.1
 10
73.7
 20
46.6
 10
74.3
 20
46.0
  0
LWPOLYLINE
  5
230
100
AcDbEntity
  8
ASSEMBLY_OUTLINES_TOP
100
AcDbPolyline
 90
        4
 70
         1
 43
0.1
 10
106.0
 20
23.36
 10
106.0
 20
28.64
 10
113.7
 20
28.64
 10
113.7
 20
23.36
  0
LWPOLYLINE
  5
231
100
AcDbEntity
  8
ASSEMBLY_OUTLINES_TOP
100
AcDbPolyline
 90
        2
 70
         0
 43
0.1
 10
113.6
 20
28.64
 10
113.7
 20
28.54
  0
LWPOLYLINE
  5
232
100
AcDbEntity
  8
ASSEMBLY_OUTLINES_TOP
100
AcDbPolyline
 90
        2
 70
         0
 43
0.1
 10
113.5
 20
28.64
 10
113.7
 20
28.44
  0
LWPOLYLINE
  5
233
100
AcDbEntity
  8
ASSEMBLY_OUTLINES_TOP
100
AcDbPolyline
 90
        2
 70
         0
 43
0.1
 10
113.4
 20
28.64
 10
113.7
 20
28.34
  0
LWPOLYLINE
  5
234
100
AcDbEntity
  8
ASSEMBLY_OUTLINES_TOP
100
AcDbPolyline
 90
        2
 70
         0
 43
0.1
 10
113.3
 20
28.64
 10
113.7
 20
28.24
  0
LWPOLYLINE
  5
235
100
AcDbEntity
  8
ASSEMBLY_OUTLINES_TOP
100
AcDbPolyline
 90
        2
 70
         0
 43
0.1
 10
113.2
 20
28.64
 10
113.7
 20
28.14
  0
LWPOLYLINE
  5
236
100
AcDbEntity
  8
ASSEMBLY_OUTLINES_TOP
100
AcDbPolyline
 90
        2
 70
         0
 43
0.1
 10
113.1
 20
28.64
 10
113.7
 20
28.04
  0
LWPOLYLINE
  5
237
100
AcDbEntity
  8
ASSEMBLY_OUTLINES_TOP
100
AcDbPolyline
 90
        8
 70
         1
 43
0.1
 10
3.7
 20
25.3
 10
3.7
 20
22.0
 42
0.4142135624
 10
4.7
 20
21.0
 10
7.9
 20
21.0
 42
0.4142135624
 10
8.9
 20
22.0
 10
8.9
 20
25.3
 42
0.4142135624
 10
7.9
 20
26.3
 10
4.7
 20
26.3
 42
0.4142135624
  0
LWPOLYLINE
  5
238
100
AcDbEntity
  8
ASSEMBLY_OUTLINES_TOP
100
AcDbPolyline
 90
        8
 70
         1
 43
0.1
 10
16.2
 20
35.7
 10
12.9
 20
35.7
 42
0.4142135624
 10
11.9
 20
34.7
 10
11.9
 20
31.5
 42
0.4142135624
 10
12.9
 20
30.5
 10
16.2
 20
30.5
 42
0.4142135624
 10
17.2
 20
31.5
 10
17.2
 20
34.7
 42
0.4142135624
  0
LWPOLYLINE
  5
239
100
AcDbEntity
  8
ASSEMBLY_OUTLINES_TOP
100
AcDbPolyline
 90
        8
 70
         1
 43
0.1
 10
12.35
 20
25.65
 10
12.35
 20
22.35
 42
0.4142135624
 10
13.35
 20
21.35
 10
16.55
 20
21.35
 42
0.4142135624
 10
17.55
 20
22.35
 10
17.55
 20
25.65
 42
0.4142135624
 10
16.55
 20
26.65
 10
13.35
 20
26.65
 42
0.4142135624
  0
LWPOLYLINE
  5
23A
100
AcDbEntity
  8
ASSEMBLY_OUTLINES_TOP
100
AcDbPolyline
 90
        8
 70
         1
 43
0.1
 10
16.45
 20
41.45
 10
13.15
 20
41.45
 42
0.4142135624
 10
12.15
 20
40.45
 10
12.15
 20
37.25
 42
0.4142135624
 10
13.15
 20
36.25
 10
16.45
 20
36.25
 42
0.4142135624
 10
17.45
 20
37.25
 10
17.45
 20
40.45
 42
0.4142135624
  0
LWPOLYLINE
  5
23B
100
AcDbEntity
  8
ASSEMBLY_OUTLINES_TOP
100
AcDbPolyline
 90
        4
 70
         1
 43
0.1
 10
89.8
 20
36.55
 10
89.8
 20
39.55
 10
93.5
 20
39.55
 10
93.5
 20
36.55
  0
LWPOLYLINE
  5
23C
100
AcDbEntity
  8
ASSEMBLY_OUTLINES_TOP
100
AcDbPolyline
 90
        2
 70
         0
 43
0.1
 10
89.9
 20
36.55
 10
89.9
 20
39.55
  0
LWPOLYLINE
  5
23D
100
AcDbEntity
  8
ASSEMBLY_OUTLINES_TOP
100
AcDbPolyline
 90
        2
 70
         0
 43
0.1
 10
90.0
 20
36.55
 10
90.0
 20
39.55
  0
LWPOLYLINE
  5
23E
100
AcDbEntity
  8
ASSEMBLY_OUTLINES_TOP
100
AcDbPolyline
 90
        2
 70
         0
 43
0.1
 10
90.1
 20
36.55
 10
90.1
 20
39.55
  0
LWPOLYLINE
  5
23F
100
AcDbEntity
  8
ASSEMBLY_OUTLINES_TOP
100
AcDbPolyline
 90
        2
 70
         0
 43
0.1
 10
90.2
 20
36.55
 10
90.2
 20
39.55
  0
LWPOLYLINE
  5
240
100
AcDbEntity
  8
ASSEMBLY_OUTLINES_TOP
100
AcDbPolyline
 90
        2
 70
         0
 43
0.1
 10
90.3
 20
36.55
 10
90.3
 20
39.55
  0
LWPOLYLINE
  5
241
100
AcDbEntity
  8
ASSEMBLY_OUTLINES_TOP
100
AcDbPolyline
 90
        2
 70
         0
 43
0.1
 10
90.4
 20
36.55
 10
90.4
 20
39.55
  0
LWPOLYLINE
  5
242
100
AcDbEntity
  8
ASSEMBLY_OUTLINES_TOP
100
AcDbPolyline
 90
        2
 70
         0
 43
0.1
 10
90.5
 20
36.55
 10
90.5
 20
39.55
  0
LWPOLYLINE
  5
243
100
AcDbEntity
  8
ASSEMBLY_OUTLINES_TOP
100
AcDbPolyline
 90
        2
 70
         0
 43
0.1
 10
90.6
 20
36.55
 10
90.6
 20
39.55
  0
LWPOLYLINE
  5
244
100
AcDbEntity
  8
ASSEMBLY_OUTLINES_TOP
100
AcDbPolyline
 90
        4
 70
         1
 10
35.36
 20
50.33
 10
35.36
 20
52.87
 10
42.86
 20
52.87
 10
42.86
 20
50.33
  0
LWPOLYLINE
  5
245
100
AcDbEntity
  8
ASSEMBLY_OUTLINES_TOP
100
AcDbPolyline
 90
        4
 70
         1
 43
0.1
 10
4.9
 20
50.55
 10
4.9
 20
53.85
 10
6.7
 20
53.85
 10
6.7
 20
50.55
  0
LWPOLYLINE
  5
246
100
AcDbEntity
  8
ASSEMBLY_OUTLINES_TOP
100
AcDbPolyline
 90
        4
 70
         1
 43
0.1
 10
96.125
 20
27.225
 10
96.125
 20
28.975
 10
99.175
 20
28.975
 10
99.175
 20
27.225
  0
LWPOLYLINE
  5
247
100
AcDbEntity
  8
ASSEMBLY_OUTLINES_TOP
100
AcDbPolyline
 90
        2
 70
         0
 43
0.1
 10
96.225
 20
27.225
 10
96.125
 20
27.325
  0
LWPOLYLINE
  5
248
100
AcDbEntity
  8
ASSEMBLY_OUTLINES_TOP
100
AcDbPolyline
 90
        2
 70
         0
 43
0.1
 10
96.325
 20
27.225
 10
96.125
 20
27.425
  0
LWPOLYLINE
  5
249
100
AcDbEntity
  8
ASSEMBLY_OUTLINES_TOP
100
AcDbPolyline
 90
        2
 70
         0
 43
0.1
 10
96.425
 20
27.225
 10
96.125
 20
27.525
  0
LWPOLYLINE
  5
24A
100
AcDbEntity
  8
ASSEMBLY_OUTLINES_TOP
100
AcDbPolyline
 90
        2
 70
         0
 43
0.1
 10
96.525
 20
27.225
 10
96.125
 20
27.625
  0
LWPOLYLINE
  5
24B
100
AcDbEntity
  8
ASSEMBLY_OUTLINES_TOP
100
AcDbPolyline
 90
        2
 70
         0
 43
0.1
 10
96.625
 20
27.225
 10
96.125
 20
27.725
  0
LWPOLYLINE
  5
24C
100
AcDbEntity
  8
ASSEMBLY_OUTLINES_TOP
100
AcDbPolyline
 90
        2
 70
         0
 43
0.1
 10
96.725
 20
27.225
 10
96.125
 20
27.825
  0
LWPOLYLINE
  5
24D
100
AcDbEntity
  8
ASSEMBLY_OUTLINES_TOP
100
AcDbPolyline
 90
        4
 70
         1
 10
108.93
 20
48.98
 10
108.93
 20
51.52
 10
111.47
 20
51.52
 10
111.47
 20
48.98
  0
LWPOLYLINE
  5
24E
100
AcDbEntity
  8
ASSEMBLY_OUTLINES_TOP
100
AcDbPolyline
 90
        4
 70
         1
 43
0.1
 10
5.0
 20
27.3
 10
5.0
 20
30.3
 10
8.0
 20
30.3
 10
8.0
 20
27.3
  0
LWPOLYLINE
  5
24F
100
AcDbEntity
  8
ASSEMBLY_OUTLINES_TOP
100
AcDbPolyline
 90
        2
 70
         0
 43
0.1
 10
5.1
 20
27.3
 10
5.0
 20
27.4
  0
LWPOLYLINE
  5
250
100
AcDbEntity
  8
ASSEMBLY_OUTLINES_TOP
100
AcDbPolyline
 90
        2
 70
         0
 43
0.1
 10
5.2
 20
27.3
 10
5.0
 20
27.5
  0
LWPOLYLINE
  5
251
100
AcDbEntity
  8
ASSEMBLY_OUTLINES_TOP
100
AcDbPolyline
 90
        2
 70
         0
 43
0.1
 10
5.3
 20
27.3
 10
5.0
 20
27.6
  0
LWPOLYLINE
  5
252
100
AcDbEntity
  8
ASSEMBLY_OUTLINES_TOP
100
AcDbPolyline
 90
        2
 70
         0
 43
0.1
 10
5.4
 20
27.3
 10
5.0
 20
27.7
  0
LWPOLYLINE
  5
253
100
AcDbEntity
  8
ASSEMBLY_OUTLINES_TOP
100
AcDbPolyline
 90
        2
 70
         0
 43
0.1
 10
5.5
 20
27.3
 10
5.0
 20
27.8
  0
LWPOLYLINE
  5
254
100
AcDbEntity
  8
ASSEMBLY_OUTLINES_TOP
100
AcDbPolyline
 90
        2
 70
         0
 43
0.1
 10
5.6
 20
27.3
 10
5.0
 20
27.9
  0
LWPOLYLINE
  5
255
100
AcDbEntity
  8
ASSEMBLY_OUTLINES_TOP
100
AcDbPolyline
 90
        4
 70
         1
 43
0.1
 10
44.6
 20
47.4
 10
44.6
 20
52.4
 10
48.6
 20
52.4
 10
48.6
 20
47.4
  0
LWPOLYLINE
  5
256
100
AcDbEntity
  8
ASSEMBLY_OUTLINES_TOP
100
AcDbPolyline
 90
        2
 70
         1
 43
0.1
 10
47.1
 20
48.4
 42
-1.0
 10
48.1
 20
48.4
 42
-1.0
  0
LWPOLYLINE
  5
257
100
AcDbEntity
  8
ASSEMBLY_OUTLINES_TOP
100
AcDbPolyline
 90
        4
 70
         1
 43
0.1
 10
93.95
 20
40.05
 10
93.95
 20
43.05
 10
96.95
 20
43.05
 10
96.95
 20
40.05
  0
LWPOLYLINE
  5
258
100
AcDbEntity
  8
ASSEMBLY_OUTLINES_TOP
100
AcDbPolyline
 90
        2
 70
         0
 43
0.1
 10
93.95
 20
42.95
 10
94.05
 20
43.05
  0
LWPOLYLINE
  5
259
100
AcDbEntity
  8
ASSEMBLY_OUTLINES_TOP
100
AcDbPolyline
 90
        2
 70
         0
 43
0.1
 10
93.95
 20
42.85
 10
94.15
 20
43.05
  0
LWPOLYLINE
  5
25A
100
AcDbEntity
  8
ASSEMBLY_OUTLINES_TOP
100
AcDbPolyline
 90
        2
 70
         0
 43
0.1
 10
93.95
 20
42.75
 10
94.25
 20
43.05
  0
LWPOLYLINE
  5
25B
100
AcDbEntity
  8
ASSEMBLY_OUTLINES_TOP
100
AcDbPolyline
 90
        2
 70
         0
 43
0.1
 10
93.95
 20
42.65
 10
94.35
 20
43.05
  0
LWPOLYLINE
  5
25C
100
AcDbEntity
  8
ASSEMBLY_OUTLINES_TOP
100
AcDbPolyline
 90
        2
 70
         0
 43
0.1
 10
93.95
 20
42.55
 10
94.45
 20
43.05
  0
LWPOLYLINE
  5
25D
100
AcDbEntity
  8
ASSEMBLY_OUTLINES_TOP
100
AcDbPolyline
 90
        2
 70
         0
 43
0.1
 10
93.95
 20
42.45
 10
94.55
 20
43.05
  0
LWPOLYLINE
  5
25E
100
AcDbEntity
  8
ASSEMBLY_OUTLINES_TOP
100
AcDbPolyline
 90
        4
 70
         1
 10
37.74
 20
47.78
 10
37.74
 20
50.32
 10
42.82
 20
50.32
 10
42.82
 20
47.78
  0
LWPOLYLINE
  5
25F
100
AcDbEntity
  8
ASSEMBLY_OUTLINES_TOP
100
AcDbPolyline
 90
        8
 70
         0
 10
113.75
 20
52.25
 42
-2.549150321
 10
113.75
 20
42.05
 10
113.75
 20
40.15
 10
111.75
 20
40.15
 10
111.75
 20
54.15
 10
113.75
 20
54.15
 10
113.75
 20
52.25
 10
113.75
 20
52.35
  0
LWPOLYLINE
  5
260
100
AcDbEntity
  8
ASSEMBLY_OUTLINES_TOP
100
AcDbPolyline
 90
        4
 70
         1
 10
98.53
 20
29.63
 10
98.53
 20
32.17
 10
101.07
 20
32.17
 10
101.07
 20
29.63
  0
LWPOLYLINE
  5
261
100
AcDbEntity
  8
ASSEMBLY_OUTLINES_TOP
100
AcDbPolyline
 90
        4
 70
         1
 10
116.11
 20
-5.94
 10
116.11
 20
-0.04
 10
132.11
 20
-0.04
 10
132.11
 20
-5.94
  0
LWPOLYLINE
  5
262
100
AcDbEntity
  8
ASSEMBLY_OUTLINES_TOP
100
AcDbPolyline
 90
        4
 70
         1
 10
108.71
 20
-0.04
 10
108.71
 20
12.36
 10
139.51
 20
12.36
 10
139.51
 20
-0.04
  0
LWPOLYLINE
  5
263
100
AcDbEntity
  8
ASSEMBLY_OUTLINES_TOP
100
AcDbPolyline
 90
        4
 70
         1
 10
63.43
 20
0.89
 10
63.43
 20
5.97
 10
65.97
 20
5.97
 10
65.97
 20
0.89
  0
LWPOLYLINE
  5
264
100
AcDbEntity
  8
ASSEMBLY_OUTLINES_TOP
100
AcDbPolyline
 90
        4
 70
         1
 43
0.1
 10
126.3
 20
14.45
 10
126.3
 20
24.25
 10
130.8
 20
24.25
 10
130.8
 20
14.45
  0
LWPOLYLINE
  5
265
100
AcDbEntity
  8
ASSEMBLY_OUTLINES_TOP
100
AcDbPolyline
 90
        2
 70
         1
 43
0.1
 10
126.8
 20
23.25
 42
-1.0
 10
127.8
 20
23.25
 42
-1.0
  0
LWPOLYLINE
  5
266
100
AcDbEntity
  8
ASSEMBLY_OUTLINES_TOP
100
AcDbPolyline
 90
        4
 70
         1
 10
70.93
 20
0.89
 10
70.93
 20
5.97
 10
73.47
 20
5.97
 10
73.47
 20
0.89
  0
LWPOLYLINE
  5
267
100
AcDbEntity
  8
ASSEMBLY_OUTLINES_TOP
100
AcDbPolyline
 90
        4
 70
         1
 43
0.1
 10
7.9
 20
44.5
 10
7.9
 20
47.5
 10
10.9
 20
47.5
 10
10.9
 20
44.5
  0
LWPOLYLINE
  5
268
100
AcDbEntity
  8
ASSEMBLY_OUTLINES_TOP
100
AcDbPolyline
 90
        2
 70
         0
 43
0.1
 10
10.9
 20
44.6
 10
10.8
 20
44.5
  0
LWPOLYLINE
  5
269
100
AcDbEntity
  8
ASSEMBLY_OUTLINES_TOP
100
AcDbPolyline
 90
        2
 70
         0
 43
0.1
 10
10.9
 20
44.7
 10
10.7
 20
44.5
  0
LWPOLYLINE
  5
26A
100
AcDbEntity
  8
ASSEMBLY_OUTLINES_TOP
100
AcDbPolyline
 90
        2
 70
         0
 43
0.1
 10
10.9
 20
44.8
 10
10.6
 20
44.5
  0
LWPOLYLINE
  5
26B
100
AcDbEntity
  8
ASSEMBLY_OUTLINES_TOP
100
AcDbPolyline
 90
        2
 70
         0
 43
0.1
 10
10.9
 20
44.9
 10
10.5
 20
44.5
  0
LWPOLYLINE
  5
26C
100
AcDbEntity
  8
ASSEMBLY_OUTLINES_TOP
100
AcDbPolyline
 90
        2
 70
         0
 43
0.1
 10
10.9
 20
45.0
 10
10.4
 20
44.5
  0
LWPOLYLINE
  5
26D
100
AcDbEntity
  8
ASSEMBLY_OUTLINES_TOP
100
AcDbPolyline
 90
        2
 70
         0
 43
0.1
 10
10.9
 20
45.1
 10
10.3
 20
44.5
  0
LWPOLYLINE
  5
26E
100
AcDbEntity
  8
ASSEMBLY_OUTLINES_TOP
100
AcDbPolyline
 90
        4
 70
         1
 43
0.1
 10
7.15
 20
41.25
 10
7.15
 20
44.25
 10
10.85
 20
44.25
 10
10.85
 20
41.25
  0
LWPOLYLINE
  5
26F
100
AcDbEntity
  8
ASSEMBLY_OUTLINES_TOP
100
AcDbPolyline
 90
        2
 70
         0
 43
0.1
 10
10.75
 20
44.25
 10
10.75
 20
41.25
  0
LWPOLYLINE
  5
270
100
AcDbEntity
  8
ASSEMBLY_OUTLINES_TOP
100
AcDbPolyline
 90
        2
 70
         0
 43
0.1
 10
10.65
 20
44.25
 10
10.65
 20
41.25
  0
LWPOLYLINE
  5
271
100
AcDbEntity
  8
ASSEMBLY_OUTLINES_TOP
100
AcDbPolyline
 90
        2
 70
         0
 43
0.1
 10
10.55
 20
44.25
 10
10.55
 20
41.25
  0
LWPOLYLINE
  5
272
100
AcDbEntity
  8
ASSEMBLY_OUTLINES_TOP
100
AcDbPolyline
 90
        2
 70
         0
 43
0.1
 10
10.45
 20
44.25
 10
10.45
 20
41.25
  0
LWPOLYLINE
  5
273
100
AcDbEntity
  8
ASSEMBLY_OUTLINES_TOP
100
AcDbPolyline
 90
        2
 70
         0
 43
0.1
 10
10.35
 20
44.25
 10
10.35
 20
41.25
  0
LWPOLYLINE
  5
274
100
AcDbEntity
  8
ASSEMBLY_OUTLINES_TOP
100
AcDbPolyline
 90
        2
 70
         0
 43
0.1
 10
10.25
 20
44.25
 10
10.25
 20
41.25
  0
LWPOLYLINE
  5
275
100
AcDbEntity
  8
ASSEMBLY_OUTLINES_TOP
100
AcDbPolyline
 90
        2
 70
         0
 43
0.1
 10
10.15
 20
44.25
 10
10.15
 20
41.25
  0
LWPOLYLINE
  5
276
100
AcDbEntity
  8
ASSEMBLY_OUTLINES_TOP
100
AcDbPolyline
 90
        2
 70
         0
 43
0.1
 10
10.05
 20
44.25
 10
10.05
 20
41.25
  0
LWPOLYLINE
  5
277
100
AcDbEntity
  8
ASSEMBLY_OUTLINES_TOP
100
AcDbPolyline
 90
        4
 70
         1
 43
0.1
 10
8.1
 20
51.15
 10
8.1
 20
54.15
 10
11.1
 20
54.15
 10
11.1
 20
51.15
  0
LWPOLYLINE
  5
278
100
AcDbEntity
  8
ASSEMBLY_OUTLINES_TOP
100
AcDbPolyline
 90
        2
 70
         0
 43
0.1
 10
11.1
 20
51.25
 10
11.0
 20
51.15
  0
LWPOLYLINE
  5
279
100
AcDbEntity
  8
ASSEMBLY_OUTLINES_TOP
100
AcDbPolyline
 90
        2
 70
         0
 43
0.1
 10
11.1
 20
51.35
 10
10.9
 20
51.15
  0
LWPOLYLINE
  5
27A
100
AcDbEntity
  8
ASSEMBLY_OUTLINES_TOP
100
AcDbPolyline
 90
        2
 70
         0
 43
0.1
 10
11.1
 20
51.45
 10
10.8
 20
51.15
  0
LWPOLYLINE
  5
27B
100
AcDbEntity
  8
ASSEMBLY_OUTLINES_TOP
100
AcDbPolyline
 90
        2
 70
         0
 43
0.1
 10
11.1
 20
51.55
 10
10.7
 20
51.15
  0
LWPOLYLINE
  5
27C
100
AcDbEntity
  8
ASSEMBLY_OUTLINES_TOP
100
AcDbPolyline
 90
        2
 70
         0
 43
0.1
 10
11.1
 20
51.65
 10
10.6
 20
51.15
  0
LWPOLYLINE
  5
27D
100
AcDbEntity
  8
ASSEMBLY_OUTLINES_TOP
100
AcDbPolyline
 90
        2
 70
         0
 43
0.1
 10
11.1
 20
51.75
 10
10.5
 20
51.15
  0
LWPOLYLINE
  5
27E
100
AcDbEntity
  8
ASSEMBLY_OUTLINES_TOP
100
AcDbPolyline
 90
        4
 70
         1
 10
86.13
 20
17.43
 10
86.13
 20
19.97
 10
91.21
 20
19.97
 10
91.21
 20
17.43
  0
LWPOLYLINE
  5
27F
100
AcDbEntity
  8
ASSEMBLY_OUTLINES_TOP
100
AcDbPolyline
 90
        4
 70
         1
 43
0.1
 10
18.45
 20
20.75
 10
18.45
 20
23.75
 10
22.15
 20
23.75
 10
22.15
 20
20.75
  0
LWPOLYLINE
  5
280
100
AcDbEntity
  8
ASSEMBLY_OUTLINES_TOP
100
AcDbPolyline
 90
        2
 70
         0
 43
0.1
 10
18.55
 20
20.75
 10
18.55
 20
23.75
  0
LWPOLYLINE
  5
281
100
AcDbEntity
  8
ASSEMBLY_OUTLINES_TOP
100
AcDbPolyline
 90
        2
 70
         0
 43
0.1
 10
18.65
 20
20.75
 10
18.65
 20
23.75
  0
LWPOLYLINE
  5
282
100
AcDbEntity
  8
ASSEMBLY_OUTLINES_TOP
100
AcDbPolyline
 90
        2
 70
         0
 43
0.1
 10
18.75
 20
20.75
 10
18.75
 20
23.75
  0
LWPOLYLINE
  5
283
100
AcDbEntity
  8
ASSEMBLY_OUTLINES_TOP
100
AcDbPolyline
 90
        2
 70
         0
 43
0.1
 10
18.85
 20
20.75
 10
18.85
 20
23.75
  0
LWPOLYLINE
  5
284
100
AcDbEntity
  8
ASSEMBLY_OUTLINES_TOP
100
AcDbPolyline
 90
        2
 70
         0
 43
0.1
 10
18.95
 20
20.75
 10
18.95
 20
23.75
  0
LWPOLYLINE
  5
285
100
AcDbEntity
  8
ASSEMBLY_OUTLINES_TOP
100
AcDbPolyline
 90
        2
 70
         0
 43
0.1
 10
19.05
 20
20.75
 10
19.05
 20
23.75
  0
LWPOLYLINE
  5
286
100
AcDbEntity
  8
ASSEMBLY_OUTLINES_TOP
100
AcDbPolyline
 90
        2
 70
         0
 43
0.1
 10
19.15
 20
20.75
 10
19.15
 20
23.75
  0
LWPOLYLINE
  5
287
100
AcDbEntity
  8
ASSEMBLY_OUTLINES_TOP
100
AcDbPolyline
 90
        2
 70
         0
 43
0.1
 10
19.25
 20
20.75
 10
19.25
 20
23.75
  0
LWPOLYLINE
  5
288
100
AcDbEntity
  8
ASSEMBLY_OUTLINES_TOP
100
AcDbPolyline
 90
        8
 70
         1
 43
0.1
 10
16.4
 20
53.65
 10
13.1
 20
53.65
 42
0.4142135624
 10
12.1
 20
52.65
 10
12.1
 20
49.45
 42
0.4142135624
 10
13.1
 20
48.45
 10
16.4
 20
48.45
 42
0.4142135624
 10
17.4
 20
49.45
 10
17.4
 20
52.65
 42
0.4142135624
  0
LWPOLYLINE
  5
289
100
AcDbEntity
  8
ASSEMBLY_OUTLINES_TOP
100
AcDbPolyline
 90
        4
 70
         1
 43
0.1
 10
66.05
 20
14.25
 10
66.05
 20
24.25
 10
79.35
 20
24.25
 10
79.35
 20
14.25
  0
LWPOLYLINE
  5
28A
100
AcDbEntity
  8
ASSEMBLY_OUTLINES_TOP
100
AcDbPolyline
 90
        2
 70
         0
 43
0.1
 10
79.35
 20
24.15
 10
79.25
 20
24.25
  0
LWPOLYLINE
  5
28B
100
AcDbEntity
  8
ASSEMBLY_OUTLINES_TOP
100
AcDbPolyline
 90
        2
 70
         0
 43
0.1
 10
79.35
 20
24.05
 10
79.15
 20
24.25
  0
LWPOLYLINE
  5
28C
100
AcDbEntity
  8
ASSEMBLY_OUTLINES_TOP
100
AcDbPolyline
 90
        2
 70
         0
 43
0.1
 10
79.35
 20
23.95
 10
79.05
 20
24.25
  0
LWPOLYLINE
  5
28D
100
AcDbEntity
  8
ASSEMBLY_OUTLINES_TOP
100
AcDbPolyline
 90
        2
 70
         0
 43
0.1
 10
79.35
 20
23.85
 10
78.95
 20
24.25
  0
LWPOLYLINE
  5
28E
100
AcDbEntity
  8
ASSEMBLY_OUTLINES_TOP
100
AcDbPolyline
 90
        2
 70
         0
 43
0.1
 10
79.35
 20
23.75
 10
78.85
 20
24.25
  0
LWPOLYLINE
  5
28F
100
AcDbEntity
  8
ASSEMBLY_OUTLINES_TOP
100
AcDbPolyline
 90
        2
 70
         0
 43
0.1
 10
79.35
 20
23.65
 10
78.75
 20
24.25
  0
LWPOLYLINE
  5
290
100
AcDbEntity
  8
ASSEMBLY_OUTLINES_TOP
100
AcDbPolyline
 90
        2
 70
         0
 43
0.1
 10
79.35
 20
23.55
 10
78.65
 20
24.25
  0
LWPOLYLINE
  5
291
100
AcDbEntity
  8
ASSEMBLY_OUTLINES_TOP
100
AcDbPolyline
 90
        2
 70
         0
 43
0.1
 10
79.35
 20
23.45
 10
78.55
 20
24.25
  0
LWPOLYLINE
  5
292
100
AcDbEntity
  8
ASSEMBLY_OUTLINES_TOP
100
AcDbPolyline
 90
        2
 70
         0
 43
0.1
 10
79.35
 20
23.35
 10
78.45
 20
24.25
  0
LWPOLYLINE
  5
293
100
AcDbEntity
  8
ASSEMBLY_OUTLINES_TOP
100
AcDbPolyline
 90
        2
 70
         0
 43
0.1
 10
79.35
 20
23.25
 10
78.35
 20
24.25
  0
LWPOLYLINE
  5
294
100
AcDbEntity
  8
ASSEMBLY_OUTLINES_TOP
100
AcDbPolyline
 90
        4
 70
         1
 43
0.1
 10
66.05
 20
15.5
 10
66.05
 20
23.0
 10
79.35
 20
23.0
 10
79.35
 20
15.5
  0
LWPOLYLINE
  5
295
100
AcDbEntity
  8
ASSEMBLY_OUTLINES_TOP
100
AcDbPolyline
 90
        4
 70
         1
 43
0.1
 10
47.35
 20
16.8
 10
47.35
 20
20.5
 10
50.35
 20
20.5
 10
50.35
 20
16.8
  0
LWPOLYLINE
  5
296
100
AcDbEntity
  8
ASSEMBLY_OUTLINES_TOP
100
AcDbPolyline
 90
        2
 70
         0
 43
0.1
 10
47.35
 20
20.4
 10
50.35
 20
20.4
  0
LWPOLYLINE
  5
297
100
AcDbEntity
  8
ASSEMBLY_OUTLINES_TOP
100
AcDbPolyline
 90
        2
 70
         0
 43
0.1
 10
47.35
 20
20.3
 10
50.35
 20
20.3
  0
LWPOLYLINE
  5
298
100
AcDbEntity
  8
ASSEMBLY_OUTLINES_TOP
100
AcDbPolyline
 90
        2
 70
         0
 43
0.1
 10
47.35
 20
20.2
 10
50.35
 20
20.2
  0
LWPOLYLINE
  5
299
100
AcDbEntity
  8
ASSEMBLY_OUTLINES_TOP
100
AcDbPolyline
 90
        2
 70
         0
 43
0.1
 10
47.35
 20
20.1
 10
50.35
 20
20.1
  0
LWPOLYLINE
  5
29A
100
AcDbEntity
  8
ASSEMBLY_OUTLINES_TOP
100
AcDbPolyline
 90
        2
 70
         0
 43
0.1
 10
47.35
 20
20.0
 10
50.35
 20
20.0
  0
LWPOLYLINE
  5
29B
100
AcDbEntity
  8
ASSEMBLY_OUTLINES_TOP
100
AcDbPolyline
 90
        2
 70
         0
 43
0.1
 10
47.35
 20
19.9
 10
50.35
 20
19.9
  0
LWPOLYLINE
  5
29C
100
AcDbEntity
  8
ASSEMBLY_OUTLINES_TOP
100
AcDbPolyline
 90
        2
 70
         0
 43
0.1
 10
47.35
 20
19.8
 10
50.35
 20
19.8
  0
LWPOLYLINE
  5
29D
100
AcDbEntity
  8
ASSEMBLY_OUTLINES_TOP
100
AcDbPolyline
 90
        2
 70
         0
 43
0.1
 10
47.35
 20
19.7
 10
50.35
 20
19.7
  0
TEXT
  5
29F
100
AcDbEntity
  8
ASSEMBLY_REF_DES_TOP
100
AcDbText
 10
13.25455
 20
12.05505
 30
0.0
 40
0.7
  1
VD4
 50
270.0
  7
GOST_TYPE_B
 72
         1
 11
13.6
 21
11.2
 31
0.0
100
AcDbText
 73
         2
  0
TEXT
  5
2A0
100
AcDbEntity
  8
ASSEMBLY_REF_DES_TOP
100
AcDbText
 10
5.60325
 20
46.7595
 30
0.0
 40
0.5
  1
C128
 50
270.0
  7
GOST_TYPE_B
 72
         1
 11
5.85
 21
46.1
 31
0.0
100
AcDbText
 73
         2
  0
TEXT
  5
2A1
100
AcDbEntity
  8
ASSEMBLY_REF_DES_TOP
100
AcDbText
 10
99.4955
 20
11.1565
 30
0.0
 40
1.0
  1
T1
  7
GOST_TYPE_B
 72
         1
 11
100.13
 21
11.65
 31
0.0
100
AcDbText
 73
         2
  0
TEXT
  5
2A2
100
AcDbEntity
  8
ASSEMBLY_REF_DES_TOP
100
AcDbText
 10
7.8855
 20
39.0565
 30
0.0
 40
1.0
  1
DA14
  7
GOST_TYPE_B
 72
         1
 11
9.35
 21
39.55
 31
0.0
100
AcDbText
 73
         2
  0
TEXT
  5
2A3
100
AcDbEntity
  8
ASSEMBLY_REF_DES_TOP
100
AcDbText
 10
33.9165
 20
60.8315
 30
0.0
 40
1.0
  1
X1
  7
GOST_TYPE_B
 72
         1
 11
34.6
 21
61.325
 31
0.0
100
AcDbText
 73
         2
  0
TEXT
  5
2A4
100
AcDbEntity
  8
ASSEMBLY_REF_DES_TOP
100
AcDbText
 10
9.90975
 20
24.889
 30
0.0
 40
1.5
  1
C65
 50
270.0
  7
GOST_TYPE_B
 72
         1
 11
10.65
 21
23.35
 31
0.0
100
AcDbText
 73
         2
  0
TEXT
  5
2A5
100
AcDbEntity
  8
ASSEMBLY_REF_DES_TOP
100
AcDbText
 10
41.43
 20
22.4
 30
0.0
 40
1.0
  1
J7
  7
GOST_TYPE_B
 72
         2
 11
42.7
 21
22.4
 31
0.0
100
AcDbText
 73
         1
  0
TEXT
  5
2A6
100
AcDbEntity
  8
ASSEMBLY_REF_DES_TOP
100
AcDbText
 10
31.17
 20
3.15
 30
0.0
 40
1.0
  1
X11
  7
GOST_TYPE_B
 72
         2
 11
33.025
 21
3.15
 31
0.0
100
AcDbText
 73
         1
  0
TEXT
  5
2A7
100
AcDbEntity
  8
ASSEMBLY_REF_DES_TOP
100
AcDbText
 10
51.318
 20
36.66
 30
0.0
 40
1.0
  1
ZQ3
  7
GOST_TYPE_B
 72
         2
 11
53.76
 21
36.66
 31
0.0
100
AcDbText
 73
         1
  0
TEXT
  5
2A8
100
AcDbEntity
  8
ASSEMBLY_REF_DES_TOP
100
AcDbText
 10
12.826
 20
55.15
 30
0.0
 40
1.0
  1
J1
  7
GOST_TYPE_B
 72
         2
 11
13.9
 21
55.15
 31
0.0
100
AcDbText
 73
         1
  0
TEXT
  5
2A9
100
AcDbEntity
  8
ASSEMBLY_REF_DES_TOP
100
AcDbText
 10
134.54
 20
58.25
 30
0.0
 40
1.0
  1
X4
  7
GOST_TYPE_B
 72
         2
 11
136.2
 21
58.25
 31
0.0
100
AcDbText
 73
         1
  0
TEXT
  5
2AB
100
AcDbEntity
  8
ASSEMBLY_REF_DES_TOP
100
AcDbText
 10
69.85
 20
54.75
 30
0.0
 40
1.0
  1
J15
  7
VERIBEST_GERBER_0
 72
         2
 11
72.65
 21
54.75
 31
0.0
100
AcDbText
 73
         1
  0
TEXT
  5
2AC
100
AcDbEntity
  8
ASSEMBLY_REF_DES_TOP
100
AcDbText
 10
7.511
 20
48.50975
 30
0.0
 40
1.5
  1
C73
  7
GOST_TYPE_B
 72
         1
 11
9.05
 21
49.25
 31
0.0
100
AcDbText
 73
         2
  0
TEXT
  5
2AD
100
AcDbEntity
  8
ASSEMBLY_REF_DES_TOP
100
AcDbText
 10
138.1
 20
27.9
 30
0.0
 40
1.0
  1
J16
 50
270.0
  7
VERIBEST_GERBER_0
 72
         2
 11
138.1
 21
25.1
 31
0.0
100
AcDbText
 73
         1
  0
TEXT
  5
2AE
100
AcDbEntity
  8
ASSEMBLY_REF_DES_TOP
100
AcDbText
 10
105.406
 20
41.9
 30
0.0
 40
1.0
  1
SW1
  7
GOST_TYPE_B
 72
         2
 11
107.75
 21
41.9
 31
0.0
100
AcDbText
 73
         1
  0
TEXT
  5
2AF
100
AcDbEntity
  8
ASSEMBLY_REF_DES_TOP
100
AcDbText
 10
119.669
 20
33.46
 30
0.0
 40
1.0
  1
X8
  7
VERIBEST_GERBER_0
 72
         2
 11
121.55
 21
33.46
 31
0.0
100
AcDbText
 73
         1
  0
TEXT
  5
2B0
100
AcDbEntity
  8
ASSEMBLY_REF_DES_TOP
100
AcDbText
 10
5.60325
 20
33.885
 30
0.0
 40
0.5
  1
C127
 50
270.0
  7
GOST_TYPE_B
 72
         1
 11
5.85
 21
33.25
 31
0.0
100
AcDbText
 73
         2
  0
TEXT
  5
2B1
100
AcDbEntity
  8
ASSEMBLY_REF_DES_TOP
100
AcDbText
 10
13.13825
 20
27.90975
 30
0.0
 40
1.5
  1
C80
  7
GOST_TYPE_B
 72
         1
 11
14.75
 21
28.65
 31
0.0
100
AcDbText
 73
         2
  0
TEXT
  5
2B2
100
AcDbEntity
  8
ASSEMBLY_REF_DES_TOP
100
AcDbText
 10
119.0065
 20
25.084
 30
0.0
 40
1.0
  1
C5
 50
270.0
  7
GOST_TYPE_B
 72
         1
 11
119.5
 21
24.4
 31
0.0
100
AcDbText
 73
         2
  0
TEXT
  5
2B3
100
AcDbEntity
  8
ASSEMBLY_REF_DES_TOP
100
AcDbText
 10
29.226
 20
6.7565
 30
0.0
 40
1.0
  1
X14
  7
GOST_TYPE_B
 72
         1
 11
30.3
 21
7.25
 31
0.0
100
AcDbText
 73
         2
  0
TEXT
  5
2B4
100
AcDbEntity
  8
ASSEMBLY_REF_DES_TOP
100
AcDbText
 10
5.60325
 20
40.185
 30
0.0
 40
0.5
  1
C130
 50
270.0
  7
GOST_TYPE_B
 72
         1
 11
5.85
 21
39.55
 31
0.0
100
AcDbText
 73
         2
  0
TEXT
  5
2B5
100
AcDbEntity
  8
ASSEMBLY_REF_DES_TOP
100
AcDbText
 10
7.984
 20
32.5065
 30
0.0
 40
1.0
  1
DA15
  7
GOST_TYPE_B
 72
         1
 11
9.4
 21
33.0
 31
0.0
100
AcDbText
 73
         2
  0
TEXT
  5
2B6
100
AcDbEntity
  8
ASSEMBLY_REF_DES_TOP
100
AcDbText
 10
95.637
 20
43.95325
 30
0.0
 40
0.5
  1
C56
  7
GOST_TYPE_B
 72
         1
 11
96.15
 21
44.2
 31
0.0
100
AcDbText
 73
         2
  0
TEXT
  5
2B7
100
AcDbEntity
  8
ASSEMBLY_REF_DES_TOP
100
AcDbText
 10
86.7325
 20
32.55
 30
0.0
 40
1.0
  1
ZQ5
  7
VERIBEST_GERBER_0
 72
         1
 11
88.15
 21
33.05
 31
0.0
100
AcDbText
 73
         2
  0
TEXT
  5
2B8
100
AcDbEntity
  8
ASSEMBLY_REF_DES_TOP
100
AcDbText
 10
4.4065
 20
57.7255
 30
0.0
 40
1.0
  1
X19
 50
270.0
  7
GOST_TYPE_B
 72
         1
 11
4.9
 21
56.7
 31
0.0
100
AcDbText
 73
         2
  0
TEXT
  5
2B9
100
AcDbEntity
  8
ASSEMBLY_REF_DES_TOP
100
AcDbText
 10
82.513148
 20
49.09304
 30
0.0
 40
1.0
  1
X5
  7
GOST_TYPE_B
 72
         2
 11
84.076148
 21
49.09304
 31
0.0
100
AcDbText
 73
         1
  0
TEXT
  5
2BA
100
AcDbEntity
  8
ASSEMBLY_REF_DES_TOP
100
AcDbText
 10
134.68
 20
47.85
 30
0.0
 40
1.0
  1
J5
  7
GOST_TYPE_B
 72
         2
 11
135.95
 21
47.85
 31
0.0
100
AcDbText
 73
         1
  0
TEXT
  5
2BB
100
AcDbEntity
  8
ASSEMBLY_REF_DES_TOP
100
AcDbText
 10
134.68
 20
45.25
 30
0.0
 40
1.0
  1
J6
  7
GOST_TYPE_B
 72
         2
 11
135.95
 21
45.25
 31
0.0
100
AcDbText
 73
         1
  0
TEXT
  5
2BC
100
AcDbEntity
  8
ASSEMBLY_REF_DES_TOP
100
AcDbText
 10
20.970225
 20
39.879775
 30
0.0
 40
1.0
  1
X6
  7
GOST_TYPE_B
 72
         2
 11
22.533225
 21
39.879775
 31
0.0
100
AcDbText
 73
         1
  0
TEXT
  5
2BD
100
AcDbEntity
  8
ASSEMBLY_REF_DES_TOP
100
AcDbText
 10
12.442225
 20
18.798275
 30
0.0
 40
1.0
  1
DA13
  7
GOST_TYPE_B
 72
         1
 11
13.858225
 21
19.291775
 31
0.0
100
AcDbText
 73
         2
  0
TEXT
  5
2BE
100
AcDbEntity
  8
ASSEMBLY_REF_DES_TOP
100
AcDbText
 10
57.423774
 20
20.606724
 30
0.0
 40
1.0
  1
DD7
 50
270.0
  7
GOST_TYPE_B
 72
         1
 11
57.917274
 21
19.482724
 31
0.0
100
AcDbText
 73
         2
  0
TEXT
  5
2BF
100
AcDbEntity
  8
ASSEMBLY_REF_DES_TOP
100
AcDbText
 10
51.208
 20
45.1
 30
0.0
 40
1.0
  1
ZQ2
  7
GOST_TYPE_B
 72
         2
 11
53.65
 21
45.1
 31
0.0
100
AcDbText
 73
         1
  0
TEXT
  5
2C0
100
AcDbEntity
  8
ASSEMBLY_REF_DES_TOP
100
AcDbText
 10
8.705725
 20
18.518275
 30
0.0
 40
1.0
  1
C8
  7
GOST_TYPE_B
 72
         1
 11
9.438225
 21
19.011775
 31
0.0
100
AcDbText
 73
         2
  0
TEXT
  5
2C1
100
AcDbEntity
  8
ASSEMBLY_REF_DES_TOP
100
AcDbText
 10
115.298
 20
16.4565
 30
0.0
 40
1.0
  1
DA7
  7
GOST_TYPE_B
 72
         1
 11
116.47
 21
16.95
 31
0.0
100
AcDbText
 73
         2
  0
TEXT
  5
2C2
100
AcDbEntity
  8
ASSEMBLY_REF_DES_TOP
100
AcDbText
 10
29.837
 20
21.5
 30
0.0
 40
1.0
  1
X9
  7
GOST_TYPE_B
 72
         2
 11
31.4
 21
21.5
 31
0.0
100
AcDbText
 73
         1
  0
TEXT
  5
2C3
100
AcDbEntity
  8
ASSEMBLY_REF_DES_TOP
100
AcDbText
 10
78.919
 20
5.2
 30
0.0
 40
1.0
  1
X16
  7
GOST_TYPE_B
 72
         2
 11
80.97
 21
5.2
 31
0.0
100
AcDbText
 73
         1
  0
TEXT
  5
2C4
100
AcDbEntity
  8
ASSEMBLY_REF_DES_TOP
100
AcDbText
 10
89.186725
 20
27.398275
 30
0.0
 40
1.0
  1
DD4
  7
GOST_TYPE_B
 72
         1
 11
90.358225
 21
27.891775
 31
0.0
100
AcDbText
 73
         2
  0
TEXT
  5
2C5
100
AcDbEntity
  8
ASSEMBLY_REF_DES_TOP
100
AcDbText
 10
7.561
 20
35.50975
 30
0.0
 40
1.5
  1
C79
  7
GOST_TYPE_B
 72
         1
 11
9.1
 21
36.25
 31
0.0
100
AcDbText
 73
         2
  0
TEXT
  5
2C6
100
AcDbEntity
  8
ASSEMBLY_REF_DES_TOP
100
AcDbText
 10
10.064725
 20
29.186225
 30
0.0
 40
1.0
  1
C10
 50
270.0
  7
GOST_TYPE_B
 72
         1
 11
10.558225
 21
28.258225
 31
0.0
100
AcDbText
 73
         2
  0
TEXT
  5
2C7
100
AcDbEntity
  8
ASSEMBLY_REF_DES_TOP
100
AcDbText
 10
102.6904
 20
48.4719
 30
0.0
 40
1.0
  1
DD1
  7
GOST_TYPE_B
 72
         1
 11
103.7154
 21
48.9654
 31
0.0
100
AcDbText
 73
         2
  0
TEXT
  5
2C8
100
AcDbEntity
  8
ASSEMBLY_REF_DES_TOP
100
AcDbText
 10
91.3185
 20
60.8315
 30
0.0
 40
1.0
  1
X2
  7
GOST_TYPE_B
 72
         1
 11
92.1
 21
61.325
 31
0.0
100
AcDbText
 73
         2
  0
TEXT
  5
2C9
100
AcDbEntity
  8
ASSEMBLY_REF_DES_TOP
100
AcDbText
 10
47.283
 20
22.9
 30
0.0
 40
1.0
  1
J8
  7
GOST_TYPE_B
 72
         2
 11
48.65
 21
22.9
 31
0.0
100
AcDbText
 73
         1
  0
TEXT
  5
2CA
100
AcDbEntity
  8
ASSEMBLY_REF_DES_TOP
100
AcDbText
 10
13.930225
 20
44.248275
 30
0.0
 40
1.0
  1
L10
  7
GOST_TYPE_B
 72
         1
 11
14.858225
 21
44.741775
 31
0.0
100
AcDbText
 73
         2
  0
TEXT
  5
2CB
100
AcDbEntity
  8
ASSEMBLY_REF_DES_TOP
100
AcDbText
 10
80.472
 20
18.1065
 30
0.0
 40
1.0
  1
C12
  7
GOST_TYPE_B
 72
         1
 11
81.4
 21
18.6
 31
0.0
100
AcDbText
 73
         2
  0
TEXT
  5
2CC
100
AcDbEntity
  8
ASSEMBLY_REF_DES_TOP
100
AcDbText
 10
44.242
 20
6.6
 30
0.0
 40
1.0
  1
J12
  7
GOST_TYPE_B
 72
         2
 11
46.0
 21
6.6
 31
0.0
100
AcDbText
 73
         1
  0
TEXT
  5
2CD
100
AcDbEntity
  8
ASSEMBLY_REF_DES_TOP
100
AcDbText
 10
30.270225
 20
39.929775
 30
0.0
 40
1.0
  1
X7
  7
GOST_TYPE_B
 72
         2
 11
31.833225
 21
39.929775
 31
0.0
100
AcDbText
 73
         1
  0
TEXT
  5
2CE
100
AcDbEntity
  8
ASSEMBLY_REF_DES_TOP
100
AcDbText
 10
89.214
 20
42.2565
 30
0.0
 40
1.0
  1
L1
  7
GOST_TYPE_B
 72
         1
 11
89.8
 21
42.75
 31
0.0
100
AcDbText
 73
         2
  0
TEXT
  5
2CF
100
AcDbEntity
  8
ASSEMBLY_REF_DES_TOP
100
AcDbText
 10
44.5235
 20
13.3565
 30
0.0
 40
1.0
  1
HL1
  7
GOST_TYPE_B
 72
         1
 11
45.5
 21
13.85
 31
0.0
100
AcDbText
 73
         2
  0
TEXT
  5
2D0
100
AcDbEntity
  8
ASSEMBLY_REF_DES_TOP
100
AcDbText
 10
5.069002
 20
7.999998
 30
0.0
 40
1.0
  1
X13
  7
GOST_TYPE_B
 72
         2
 11
7.120002
 21
7.999998
 31
0.0
100
AcDbText
 73
         1
  0
TEXT
  5
2D1
100
AcDbEntity
  8
ASSEMBLY_REF_DES_TOP
100
AcDbText
 10
124.437
 20
59.62
 30
0.0
 40
1.0
  1
X3
  7
GOST_TYPE_B
 72
         2
 11
126.0
 21
59.62
 31
0.0
100
AcDbText
 73
         1
  0
TEXT
  5
2D2
100
AcDbEntity
  8
ASSEMBLY_REF_DES_TOP
100
AcDbText
 10
42.577
 20
35.1065
 30
0.0
 40
1.0
  1
DD3
  7
GOST_TYPE_B
 72
         1
 11
43.7
 21
35.6
 31
0.0
100
AcDbText
 73
         2
  0
TEXT
  5
2D3
100
AcDbEntity
  8
ASSEMBLY_REF_DES_TOP
100
AcDbText
 10
54.399
 20
11.95
 30
0.0
 40
1.0
  1
X10
  7
GOST_TYPE_B
 72
         2
 11
56.45
 21
11.95
 31
0.0
100
AcDbText
 73
         1
  0
TEXT
  5
2D4
100
AcDbEntity
  8
ASSEMBLY_REF_DES_TOP
100
AcDbText
 10
102.55975
 20
27.889
 30
0.0
 40
1.5
  1
C33
 50
270.0
  7
GOST_TYPE_B
 72
         1
 11
103.3
 21
26.35
 31
0.0
100
AcDbText
 73
         2
  0
TEXT
  5
2D5
100
AcDbEntity
  8
ASSEMBLY_REF_DES_TOP
100
AcDbText
 10
127.9065
 20
28.32
 30
0.0
 40
1.0
  1
ZQ4
 50
270.0
  7
GOST_TYPE_B
 72
         1
 11
128.4
 21
27.05
 31
0.0
100
AcDbText
 73
         2
  0
TEXT
  5
2D6
100
AcDbEntity
  8
ASSEMBLY_REF_DES_TOP
100
AcDbText
 10
65.638
 20
8.55
 30
0.0
 40
1.0
  1
J11
  7
GOST_TYPE_B
 72
         2
 11
67.2
 21
8.55
 31
0.0
100
AcDbText
 73
         1
  0
TEXT
  5
2D7
100
AcDbEntity
  8
ASSEMBLY_REF_DES_TOP
100
AcDbText
 10
4.4465
 20
17.4445
 30
0.0
 40
1.0
  1
VD1
 50
270.0
  7
GOST_TYPE_B
 72
         1
 11
4.94
 21
16.37
 31
0.0
100
AcDbText
 73
         2
  0
TEXT
  5
2D8
100
AcDbEntity
  8
ASSEMBLY_REF_DES_TOP
100
AcDbText
 10
88.23
 20
20.8
 30
0.0
 40
1.0
  1
J9
  7
GOST_TYPE_B
 72
         2
 11
89.5
 21
20.8
 31
0.0
100
AcDbText
 73
         1
  0
TEXT
  5
2D9
100
AcDbEntity
  8
ASSEMBLY_REF_DES_TOP
100
AcDbText
 10
97.228725
 20
51.321275
 30
0.0
 40
1.0
  1
ZQ1
  7
GOST_TYPE_B
 72
         2
 11
99.474725
 21
51.321275
 31
0.0
100
AcDbText
 73
         1
  0
TEXT
  5
2DA
100
AcDbEntity
  8
ASSEMBLY_REF_DES_TOP
100
AcDbText
 10
115.5565
 20
25.084
 30
0.0
 40
1.0
  1
C9
 50
270.0
  7
GOST_TYPE_B
 72
         1
 11
116.05
 21
24.4
 31
0.0
100
AcDbText
 73
         2
  0
TEXT
  5
2DB
100
AcDbEntity
  8
ASSEMBLY_REF_DES_TOP
100
AcDbText
 10
54.109
 20
5.6
 30
0.0
 40
1.0
  1
X15
  7
GOST_TYPE_B
 72
         2
 11
56.16
 21
5.6
 31
0.0
100
AcDbText
 73
         1
  0
TEXT
  5
2DC
100
AcDbEntity
  8
ASSEMBLY_REF_DES_TOP
100
AcDbText
 10
63.677
 20
36.6065
 30
0.0
 40
1.0
  1
DD2
  7
GOST_TYPE_B
 72
         1
 11
64.8
 21
37.1
 31
0.0
100
AcDbText
 73
         2
  0
TEXT
  5
2DD
100
AcDbEntity
  8
ASSEMBLY_REF_DES_TOP
100
AcDbText
 10
108.678
 20
25.5065
 30
0.0
 40
1.0
  1
DA9
  7
GOST_TYPE_B
 72
         1
 11
109.85
 21
26.0
 31
0.0
100
AcDbText
 73
         2
  0
TEXT
  5
2DE
100
AcDbEntity
  8
ASSEMBLY_REF_DES_TOP
100
AcDbText
 10
5.666
 20
23.2065
 30
0.0
 40
1.0
  1
L6
  7
GOST_TYPE_B
 72
         1
 11
6.35
 21
23.7
 31
0.0
100
AcDbText
 73
         2
  0
TEXT
  5
2DF
100
AcDbEntity
  8
ASSEMBLY_REF_DES_TOP
100
AcDbText
 10
13.974225
 20
32.498275
 30
0.0
 40
1.0
  1
L9
  7
GOST_TYPE_B
 72
         1
 11
14.658225
 21
32.991775
 31
0.0
100
AcDbText
 73
         2
  0
TEXT
  5
2E0
100
AcDbEntity
  8
ASSEMBLY_REF_DES_TOP
100
AcDbText
 10
14.316
 20
23.5565
 30
0.0
 40
1.0
  1
L7
  7
GOST_TYPE_B
 72
         1
 11
15.0
 21
24.05
 31
0.0
100
AcDbText
 73
         2
  0
TEXT
  5
2E1
100
AcDbEntity
  8
ASSEMBLY_REF_DES_TOP
100
AcDbText
 10
14.175725
 20
38.248275
 30
0.0
 40
1.0
  1
L8
  7
GOST_TYPE_B
 72
         1
 11
14.908225
 21
38.741775
 31
0.0
100
AcDbText
 73
         2
  0
TEXT
  5
2E2
100
AcDbEntity
  8
ASSEMBLY_REF_DES_TOP
100
AcDbText
 10
90.111
 20
37.30975
 30
0.0
 40
1.5
  1
C39
  7
GOST_TYPE_B
 72
         1
 11
91.65
 21
38.05
 31
0.0
100
AcDbText
 73
         2
  0
TEXT
  5
2E3
100
AcDbEntity
  8
ASSEMBLY_REF_DES_TOP
100
AcDbText
 10
38.716725
 20
51.283275
 30
0.0
 40
1.0
  1
J3
  7
GOST_TYPE_B
 72
         2
 11
39.986725
 21
51.283275
 31
0.0
100
AcDbText
 73
         1
  0
TEXT
  5
2E4
100
AcDbEntity
  8
ASSEMBLY_REF_DES_TOP
100
AcDbText
 10
5.55325
 20
52.713
 30
0.0
 40
0.5
  1
C93
 50
270.0
  7
GOST_TYPE_B
 72
         1
 11
5.8
 21
52.2
 31
0.0
100
AcDbText
 73
         2
  0
TEXT
  5
2E5
100
AcDbEntity
  8
ASSEMBLY_REF_DES_TOP
100
AcDbText
 10
95.9508
 20
27.5078
 30
0.0
 40
1.2
  1
DA10
  7
GOST_TYPE_B
 72
         1
 11
97.65
 21
28.1
 31
0.0
100
AcDbText
 73
         2
  0
TEXT
  5
2E6
100
AcDbEntity
  8
ASSEMBLY_REF_DES_TOP
100
AcDbText
 10
110.509
 20
49.75
 30
0.0
 40
1.0
  1
X18
  7
VERIBEST_GERBER_0
 72
         2
 11
113.3
 21
49.75
 31
0.0
100
AcDbText
 73
         1
  0
TEXT
  5
2E7
100
AcDbEntity
  8
ASSEMBLY_REF_DES_TOP
100
AcDbText
 10
5.142225
 20
28.198275
 30
0.0
 40
1.0
  1
DA12
  7
GOST_TYPE_B
 72
         1
 11
6.558225
 21
28.691775
 31
0.0
100
AcDbText
 73
         2
  0
TEXT
  5
2E8
100
AcDbEntity
  8
ASSEMBLY_REF_DES_TOP
100
AcDbText
 10
45.534225
 20
50.748275
 30
0.0
 40
1.0
  1
DA1
  7
GOST_TYPE_B
 72
         1
 11
46.608225
 21
51.241775
 31
0.0
100
AcDbText
 73
         2
  0
TEXT
  5
2E9
100
AcDbEntity
  8
ASSEMBLY_REF_DES_TOP
100
AcDbText
 10
94.328
 20
41.6565
 30
0.0
 40
1.0
  1
DA2
  7
GOST_TYPE_B
 72
         1
 11
95.5
 21
42.15
 31
0.0
100
AcDbText
 73
         2
  0
TEXT
  5
2EA
100
AcDbEntity
  8
ASSEMBLY_REF_DES_TOP
100
AcDbText
 10
39.418725
 20
48.682275
 30
0.0
 40
1.0
  1
J4
  7
GOST_TYPE_B
 72
         2
 11
40.785725
 21
48.682275
 31
0.0
100
AcDbText
 73
         1
  0
TEXT
  5
2EB
100
AcDbEntity
  8
ASSEMBLY_REF_DES_TOP
100
AcDbText
 10
117.9
 20
46.313
 30
0.0
 40
1.0
  1
Bat1
  7
GOST_TYPE_B
 11
117.9
 21
47.3
 31
0.0
100
AcDbText
 73
         3
  0
TEXT
  5
2EC
100
AcDbEntity
  8
ASSEMBLY_REF_DES_TOP
100
AcDbText
 10
100.1
 20
30.4
 30
0.0
 40
1.0
  1
X17
  7
VERIBEST_GERBER_0
 72
         2
 11
102.9
 21
30.4
 31
0.0
100
AcDbText
 73
         1
  0
TEXT
  5
2ED
100
AcDbEntity
  8
ASSEMBLY_REF_DES_TOP
100
AcDbText
 10
123.449
 20
6.21
 30
0.0
 40
1.0
  1
X12
  7
GOST_TYPE_B
 72
         2
 11
125.5
 21
6.21
 31
0.0
100
AcDbText
 73
         1
  0
TEXT
  5
2EE
100
AcDbEntity
  8
ASSEMBLY_REF_DES_TOP
100
AcDbText
 10
63.842
 20
2.9
 30
0.0
 40
1.0
  1
J13
  7
GOST_TYPE_B
 72
         2
 11
65.6
 21
2.9
 31
0.0
100
AcDbText
 73
         1
  0
TEXT
  5
2EF
100
AcDbEntity
  8
ASSEMBLY_REF_DES_TOP
100
AcDbText
 10
127.427
 20
18.8565
 30
0.0
 40
1.0
  1
DD6
  7
GOST_TYPE_B
 72
         1
 11
128.55
 21
19.35
 31
0.0
100
AcDbText
 73
         2
  0
TEXT
  5
2F0
100
AcDbEntity
  8
ASSEMBLY_REF_DES_TOP
100
AcDbText
 10
71.245
 20
2.8
 30
0.0
 40
1.0
  1
J14
  7
GOST_TYPE_B
 72
         2
 11
73.1
 21
2.8
 31
0.0
100
AcDbText
 73
         1
  0
TEXT
  5
2F1
100
AcDbEntity
  8
ASSEMBLY_REF_DES_TOP
100
AcDbText
 10
7.984
 20
45.5065
 30
0.0
 40
1.0
  1
DA16
  7
GOST_TYPE_B
 72
         1
 11
9.4
 21
46.0
 31
0.0
100
AcDbText
 73
         2
  0
TEXT
  5
2F2
100
AcDbEntity
  8
ASSEMBLY_REF_DES_TOP
100
AcDbText
 10
7.38825
 20
42.00975
 30
0.0
 40
1.5
  1
C86
  7
GOST_TYPE_B
 72
         1
 11
9.0
 21
42.75
 31
0.0
100
AcDbText
 73
         2
  0
TEXT
  5
2F3
100
AcDbEntity
  8
ASSEMBLY_REF_DES_TOP
100
AcDbText
 10
8.332
 20
52.3065
 30
0.0
 40
1.0
  1
DA11
  7
GOST_TYPE_B
 72
         1
 11
9.65
 21
52.8
 31
0.0
100
AcDbText
 73
         2
  0
TEXT
  5
2F4
100
AcDbEntity
  8
ASSEMBLY_REF_DES_TOP
100
AcDbText
 10
87.742
 20
18.2
 30
0.0
 40
1.0
  1
J10
  7
GOST_TYPE_B
 72
         2
 11
89.5
 21
18.2
 31
0.0
100
AcDbText
 73
         1
  0
TEXT
  5
2F5
100
AcDbEntity
  8
ASSEMBLY_REF_DES_TOP
100
AcDbText
 10
18.68825
 20
21.50975
 30
0.0
 40
1.5
  1
C78
  7
GOST_TYPE_B
 72
         1
 11
20.3
 21
22.25
 31
0.0
100
AcDbText
 73
         2
  0
TEXT
  5
2F6
100
AcDbEntity
  8
ASSEMBLY_REF_DES_TOP
100
AcDbText
 10
14.174225
 20
50.448275
 30
0.0
 40
1.0
  1
L5
  7
GOST_TYPE_B
 72
         1
 11
14.858225
 21
50.941775
 31
0.0
100
AcDbText
 73
         2
  0
TEXT
  5
2F7
100
AcDbEntity
  8
ASSEMBLY_REF_DES_TOP
100
AcDbText
 10
72.189226
 20
20.190276
 30
0.0
 40
1.0
  1
DD8
 50
270.0
  7
GOST_TYPE_B
 72
         1
 11
72.682726
 21
19.017276
 31
0.0
100
AcDbText
 73
         2
  0
TEXT
  5
2F8
100
AcDbEntity
  8
ASSEMBLY_REF_DES_TOP
100
AcDbText
 10
48.078225
 20
18.098275
 30
0.0
 40
1.0
  1
C11
  7
GOST_TYPE_B
 72
         1
 11
48.908225
 21
18.591775
 31
0.0
100
AcDbText
 73
         2
  0
LWPOLYLINE
  5
2F9
100
AcDbEntity
  8
BOARD_OUTLINE
100
AcDbPolyline
 90
        4
 70
         1
 43
0.25
 10
2.0
 20
0.0
 10
2.0
 20
65.5
 10
139.5
 20
65.5
 10
139.5
 20
0.0
  0
CIRCLE
  5
2FA
100
AcDbEntity
  8
MOUNTING_HOLES_LAYER_TOP
100
AcDbCircle
 10
63.5
 20
61.5
 30
0.0
 40
2.25
  0
HATCH
  5
2FB
100
AcDbEntity
  8
MOUNTING_HOLES_LAYER_TOP
100
AcDbHatch
 10
0.0
 20
0.0
 30
0.0
210
0.0
220
0.0
230
1.0
  2
SOLID
 70
         1
 71
         1
 91
        1
 92
        1
 93
        1
 72
         2
 10
63.5
 20
61.5
 40
2.25
 50
0.0
 51
360.0
 73
         1
 97
        1
330
2FA
 75
         0
 76
         1
 98
        1
 10
0.0
 20
0.0
  0
CIRCLE
  5
2FC
100
AcDbEntity
  8
MOUNTING_HOLES_LAYER_TOP
100
AcDbCircle
 10
6.0
 20
61.5
 30
0.0
 40
2.25
  0
HATCH
  5
2FD
100
AcDbEntity
  8
MOUNTING_HOLES_LAYER_TOP
100
AcDbHatch
 10
0.0
 20
0.0
 30
0.0
210
0.0
220
0.0
230
1.0
  2
SOLID
 70
         1
 71
         1
 91
        1
 92
        1
 93
        1
 72
         2
 10
6.0
 20
61.5
 40
2.25
 50
0.0
 51
360.0
 73
         1
 97
        1
330
2FC
 75
         0
 76
         1
 98
        1
 10
0.0
 20
0.0
  0
CIRCLE
  5
2FE
100
AcDbEntity
  8
MOUNTING_HOLES_LAYER_TOP
100
AcDbCircle
 10
128.5
 20
54.0
 30
0.0
 40
2.25
  0
HATCH
  5
2FF
100
AcDbEntity
  8
MOUNTING_HOLES_LAYER_TOP
100
AcDbHatch
 10
0.0
 20
0.0
 30
0.0
210
0.0
220
0.0
230
1.0
  2
SOLID
 70
         1
 71
         1
 91
        1
 92
        1
 93
        1
 72
         2
 10
128.5
 20
54.0
 40
2.25
 50
0.0
 51
360.0
 73
         1
 97
        1
330
2FE
 75
         0
 76
         1
 98
        1
 10
0.0
 20
0.0
  0
CIRCLE
  5
300
100
AcDbEntity
  8
MOUNTING_HOLES_LAYER_TOP
100
AcDbCircle
 10
11.0
 20
15.0
 30
0.0
 40
2.25
  0
HATCH
  5
301
100
AcDbEntity
  8
MOUNTING_HOLES_LAYER_TOP
100
AcDbHatch
 10
0.0
 20
0.0
 30
0.0
210
0.0
220
0.0
230
1.0
  2
SOLID
 70
         1
 71
         1
 91
        1
 92
        1
 93
        1
 72
         2
 10
11.0
 20
15.0
 40
2.25
 50
0.0
 51
360.0
 73
         1
 97
        1
330
300
 75
         0
 76
         1
 98
        1
 10
0.0
 20
0.0
  0
CIRCLE
  5
302
100
AcDbEntity
  8
MOUNTING_HOLES_LAYER_TOP
100
AcDbCircle
 10
135.5
 20
15.0
 30
0.0
 40
2.25
  0
HATCH
  5
303
100
AcDbEntity
  8
MOUNTING_HOLES_LAYER_TOP
100
AcDbHatch
 10
0.0
 20
0.0
 30
0.0
210
0.0
220
0.0
230
1.0
  2
SOLID
 70
         1
 71
         1
 91
        1
 92
        1
 93
        1
 72
         2
 10
135.5
 20
15.0
 40
2.25
 50
0.0
 51
360.0
 73
         1
 97
        1
330
302
 75
         0
 76
         1
 98
        1
 10
0.0
 20
0.0
  0
CIRCLE
  5
304
100
AcDbEntity
  8
MOUNTING_HOLES_LAYER_TOP
100
AcDbCircle
 10
11.77
 20
60.9
 30
0.0
 40
0.9
  0
HATCH
  5
305
100
AcDbEntity
  8
MOUNTING_HOLES_LAYER_TOP
100
AcDbHatch
 10
0.0
 20
0.0
 30
0.0
210
0.0
220
0.0
230
1.0
  2
SOLID
 70
         1
 71
         1
 91
        1
 92
        1
 93
        1
 72
         2
 10
11.77
 20
60.899999999999999
 40
0.9
 50
0.0
 51
360.0
 73
         1
 97
        1
330
304
 75
         0
 76
         1
 98
        1
 10
0.0
 20
0.0
  0
CIRCLE
  5
306
100
AcDbEntity
  8
MOUNTING_HOLES_LAYER_TOP
100
AcDbCircle
 10
57.49
 20
60.9
 30
0.0
 40
0.9
  0
HATCH
  5
307
100
AcDbEntity
  8
MOUNTING_HOLES_LAYER_TOP
100
AcDbHatch
 10
0.0
 20
0.0
 30
0.0
210
0.0
220
0.0
230
1.0
  2
SOLID
 70
         1
 71
         1
 91
        1
 92
        1
 93
        1
 72
         2
 10
57.490000000000002
 20
60.899999999999999
 40
0.9
 50
0.0
 51
360.0
 73
         1
 97
        1
330
306
 75
         0
 76
         1
 98
        1
 10
0.0
 20
0.0
  0
CIRCLE
  5
308
100
AcDbEntity
  8
MOUNTING_HOLES_LAYER_TOP
100
AcDbCircle
 10
41.35
 20
14.8
 30
0.0
 40
0.85
  0
HATCH
  5
309
100
AcDbEntity
  8
MOUNTING_HOLES_LAYER_TOP
100
AcDbHatch
 10
0.0
 20
0.0
 30
0.0
210
0.0
220
0.0
230
1.0
  2
SOLID
 70
         1
 71
         1
 91
        1
 92
        1
 93
        1
 72
         2
 10
41.350000000000001
 20
14.800000000000001
 40
0.85
 50
0.0
 51
360.0
 73
         1
 97
        1
330
308
 75
         0
 76
         1
 98
        1
 10
0.0
 20
0.0
  0
CIRCLE
  5
30A
100
AcDbEntity
  8
MOUNTING_HOLES_LAYER_TOP
100
AcDbCircle
 10
16.05
 20
14.8
 30
0.0
 40
0.85
  0
HATCH
  5
30B
100
AcDbEntity
  8
MOUNTING_HOLES_LAYER_TOP
100
AcDbHatch
 10
0.0
 20
0.0
 30
0.0
210
0.0
220
0.0
230
1.0
  2
SOLID
 70
         1
 71
         1
 91
        1
 92
        1
 93
        1
 72
         2
 10
16.050000000000001
 20
14.800000000000001
 40
0.85
 50
0.0
 51
360.0
 73
         1
 97
        1
330
30A
 75
         0
 76
         1
 98
        1
 10
0.0
 20
0.0
  0
CIRCLE
  5
30C
100
AcDbEntity
  8
MOUNTING_HOLES_LAYER_TOP
100
AcDbCircle
 10
35.3
 20
9.5
 30
0.0
 40
0.75
  0
HATCH
  5
30D
100
AcDbEntity
  8
MOUNTING_HOLES_LAYER_TOP
100
AcDbHatch
 10
0.0
 20
0.0
 30
0.0
210
0.0
220
0.0
230
1.0
  2
SOLID
 70
         1
 71
         1
 91
        1
 92
        1
 93
        1
 72
         2
 10
35.299999999999997
 20
9.5
 40
0.75
 50
0.0
 51
360.0
 73
         1
 97
        1
330
30C
 75
         0
 76
         1
 98
        1
 10
0.0
 20
0.0
  0
CIRCLE
  5
30E
100
AcDbEntity
  8
MOUNTING_HOLES_LAYER_TOP
100
AcDbCircle
 10
25.3
 20
9.5
 30
0.0
 40
0.75
  0
HATCH
  5
30F
100
AcDbEntity
  8
MOUNTING_HOLES_LAYER_TOP
100
AcDbHatch
 10
0.0
 20
0.0
 30
0.0
210
0.0
220
0.0
230
1.0
  2
SOLID
 70
         1
 71
         1
 91
        1
 92
        1
 93
        1
 72
         2
 10
25.300000000000001
 20
9.5
 40
0.75
 50
0.0
 51
360.0
 73
         1
 97
        1
330
30E
 75
         0
 76
         1
 98
        1
 10
0.0
 20
0.0
  0
CIRCLE
  5
310
100
AcDbEntity
  8
MOUNTING_HOLES_LAYER_TOP
100
AcDbCircle
 10
84.2
 20
49.98
 30
0.0
 40
0.75
  0
HATCH
  5
311
100
AcDbEntity
  8
MOUNTING_HOLES_LAYER_TOP
100
AcDbHatch
 10
0.0
 20
0.0
 30
0.0
210
0.0
220
0.0
230
1.0
  2
SOLID
 70
         1
 71
         1
 91
        1
 92
        1
 93
        1
 72
         2
 10
84.200000000000003
 20
49.979999999999997
 40
0.75
 50
0.0
 51
360.0
 73
         1
 97
        1
330
310
 75
         0
 76
         1
 98
        1
 10
0.0
 20
0.0
  0
CIRCLE
  5
312
100
AcDbEntity
  8
MOUNTING_HOLES_LAYER_TOP
100
AcDbCircle
 10
84.2
 20
37.02
 30
0.0
 40
0.75
  0
HATCH
  5
313
100
AcDbEntity
  8
MOUNTING_HOLES_LAYER_TOP
100
AcDbHatch
 10
0.0
 20
0.0
 30
0.0
210
0.0
220
0.0
230
1.0
  2
SOLID
 70
         1
 71
         1
 91
        1
 92
        1
 93
        1
 72
         2
 10
84.200000000000003
 20
37.020000000000003
 40
0.75
 50
0.0
 51
360.0
 73
         1
 97
        1
330
312
 75
         0
 76
         1
 98
        1
 10
0.0
 20
0.0
  0
CIRCLE
  5
314
100
AcDbEntity
  8
MOUNTING_HOLES_LAYER_TOP
100
AcDbCircle
 10
114.99
 20
60.9
 30
0.0
 40
0.9
  0
HATCH
  5
315
100
AcDbEntity
  8
MOUNTING_HOLES_LAYER_TOP
100
AcDbHatch
 10
0.0
 20
0.0
 30
0.0
210
0.0
220
0.0
230
1.0
  2
SOLID
 70
         1
 71
         1
 91
        1
 92
        1
 93
        1
 72
         2
 10
114.98999999999999
 20
60.899999999999999
 40
0.9
 50
0.0
 51
360.0
 73
         1
 97
        1
330
314
 75
         0
 76
         1
 98
        1
 10
0.0
 20
0.0
  0
CIRCLE
  5
316
100
AcDbEntity
  8
MOUNTING_HOLES_LAYER_TOP
100
AcDbCircle
 10
69.27
 20
60.9
 30
0.0
 40
0.9
  0
HATCH
  5
317
100
AcDbEntity
  8
MOUNTING_HOLES_LAYER_TOP
100
AcDbHatch
 10
0.0
 20
0.0
 30
0.0
210
0.0
220
0.0
230
1.0
  2
SOLID
 70
         1
 71
         1
 91
        1
 92
        1
 93
        1
 72
         2
 10
69.269999999999996
 20
60.899999999999999
 40
0.9
 50
0.0
 51
360.0
 73
         1
 97
        1
330
316
 75
         0
 76
         1
 98
        1
 10
0.0
 20
0.0
  0
CIRCLE
  5
318
100
AcDbEntity
  8
MOUNTING_HOLES_LAYER_TOP
100
AcDbCircle
 10
115.0
 20
47.15
 30
0.0
 40
0.75
  0
HATCH
  5
319
100
AcDbEntity
  8
MOUNTING_HOLES_LAYER_TOP
100
AcDbHatch
 10
0.0
 20
0.0
 30
0.0
210
0.0
220
0.0
230
1.0
  2
SOLID
 70
         1
 71
         1
 91
        1
 92
        1
 93
        1
 72
         2
 10
115.0
 20
47.149999999999999
 40
0.75
 50
0.0
 51
360.0
 73
         1
 97
        1
330
318
 75
         0
 76
         1
 98
        1
 10
0.0
 20
0.0
  0
CIRCLE
  5
31A
100
AcDbEntity
  8
MOUNTING_HOLES_LAYER_TOP
100
AcDbCircle
 10
122.5
 20
47.15
 30
0.0
 40
0.75
  0
HATCH
  5
31B
100
AcDbEntity
  8
MOUNTING_HOLES_LAYER_TOP
100
AcDbHatch
 10
0.0
 20
0.0
 30
0.0
210
0.0
220
0.0
230
1.0
  2
SOLID
 70
         1
 71
         1
 91
        1
 92
        1
 93
        1
 72
         2
 10
122.5
 20
47.149999999999999
 40
0.75
 50
0.0
 51
360.0
 73
         1
 97
        1
330
31A
 75
         0
 76
         1
 98
        1
 10
0.0
 20
0.0
  0
CIRCLE
  5
31C
100
AcDbEntity
  8
PART_HOLES_LAYER_TOP
100
AcDbCircle
 10
95.935
 20
14.15
 30
0.0
 40
0.45
  0
HATCH
  5
31D
100
AcDbEntity
  8
PART_HOLES_LAYER_TOP
100
AcDbHatch
 10
0.0
 20
0.0
 30
0.0
210
0.0
220
0.0
230
1.0
  2
SOLID
 70
         1
 71
         1
 91
        1
 92
        1
 93
        1
 72
         2
 10
95.935000000000002
 20
14.15
 40
0.45
 50
0.0
 51
360.0
 73
         1
 97
        1
330
31C
 75
         0
 76
         1
 98
        1
 10
0.0
 20
0.0
  0
CIRCLE
  5
31E
100
AcDbEntity
  8
PART_HOLES_LAYER_TOP
100
AcDbCircle
 10
101.015
 20
14.15
 30
0.0
 40
0.45
  0
HATCH
  5
31F
100
AcDbEntity
  8
PART_HOLES_LAYER_TOP
100
AcDbHatch
 10
0.0
 20
0.0
 30
0.0
210
0.0
220
0.0
230
1.0
  2
SOLID
 70
         1
 71
         1
 91
        1
 92
        1
 93
        1
 72
         2
 10
101.015
 20
14.15
 40
0.45
 50
0.0
 51
360.0
 73
         1
 97
        1
330
31E
 75
         0
 76
         1
 98
        1
 10
0.0
 20
0.0
  0
CIRCLE
  5
320
100
AcDbEntity
  8
PART_HOLES_LAYER_TOP
100
AcDbCircle
 10
99.745
 20
16.69
 30
0.0
 40
0.45
  0
HATCH
  5
321
100
AcDbEntity
  8
PART_HOLES_LAYER_TOP
100
AcDbHatch
 10
0.0
 20
0.0
 30
0.0
210
0.0
220
0.0
230
1.0
  2
SOLID
 70
         1
 71
         1
 91
        1
 92
        1
 93
        1
 72
         2
 10
99.745000000000005
 20
16.690000000000001
 40
0.45
 50
0.0
 51
360.0
 73
         1
 97
        1
330
320
 75
         0
 76
         1
 98
        1
 10
0.0
 20
0.0
  0
CIRCLE
  5
322
100
AcDbEntity
  8
PART_HOLES_LAYER_TOP
100
AcDbCircle
 10
94.67
 20
7.8
 30
0.0
 40
1.625
  0
HATCH
  5
323
100
AcDbEntity
  8
PART_HOLES_LAYER_TOP
100
AcDbHatch
 10
0.0
 20
0.0
 30
0.0
210
0.0
220
0.0
230
1.0
  2
SOLID
 70
         1
 71
         1
 91
        1
 92
        1
 93
        1
 72
         2
 10
94.670000000000002
 20
7.7999999999999998
 40
1.625
 50
0.0
 51
360.0
 73
         1
 97
        1
330
322
 75
         0
 76
         1
 98
        1
 10
0.0
 20
0.0
  0
CIRCLE
  5
324
100
AcDbEntity
  8
PART_HOLES_LAYER_TOP
100
AcDbCircle
 10
106.09
 20
7.8
 30
0.0
 40
1.625
  0
HATCH
  5
325
100
AcDbEntity
  8
PART_HOLES_LAYER_TOP
100
AcDbHatch
 10
0.0
 20
0.0
 30
0.0
210
0.0
220
0.0
230
1.0
  2
SOLID
 70
         1
 71
         1
 91
        1
 92
        1
 93
        1
 72
         2
 10
106.09
 20
7.7999999999999998
 40
1.625
 50
0.0
 51
360.0
 73
         1
 97
        1
330
324
 75
         0
 76
         1
 98
        1
 10
0.0
 20
0.0
  0
CIRCLE
  5
326
100
AcDbEntity
  8
PART_HOLES_LAYER_TOP
100
AcDbCircle
 10
108.25
 20
10.85
 30
0.0
 40
0.95
  0
HATCH
  5
327
100
AcDbEntity
  8
PART_HOLES_LAYER_TOP
100
AcDbHatch
 10
0.0
 20
0.0
 30
0.0
210
0.0
220
0.0
230
1.0
  2
SOLID
 70
         1
 71
         1
 91
        1
 92
        1
 93
        1
 72
         2
 10
108.25
 20
10.85
 40
0.95
 50
0.0
 51
360.0
 73
         1
 97
        1
330
326
 75
         0
 76
         1
 98
        1
 10
0.0
 20
0.0
  0
CIRCLE
  5
328
100
AcDbEntity
  8
PART_HOLES_LAYER_TOP
100
AcDbCircle
 10
94.92
 20
21.52
 30
0.0
 40
0.75
  0
HATCH
  5
329
100
AcDbEntity
  8
PART_HOLES_LAYER_TOP
100
AcDbHatch
 10
0.0
 20
0.0
 30
0.0
210
0.0
220
0.0
230
1.0
  2
SOLID
 70
         1
 71
         1
 91
        1
 92
        1
 93
        1
 72
         2
 10
94.920000000000002
 20
21.52
 40
0.75
 50
0.0
 51
360.0
 73
         1
 97
        1
330
328
 75
         0
 76
         1
 98
        1
 10
0.0
 20
0.0
  0
CIRCLE
  5
32A
100
AcDbEntity
  8
PART_HOLES_LAYER_TOP
100
AcDbCircle
 10
94.05
 20
2.72
 30
0.0
 40
0.6
  0
HATCH
  5
32B
100
AcDbEntity
  8
PART_HOLES_LAYER_TOP
100
AcDbHatch
 10
0.0
 20
0.0
 30
0.0
210
0.0
220
0.0
230
1.0
  2
SOLID
 70
         1
 71
         1
 91
        1
 92
        1
 93
        1
 72
         2
 10
94.049999999999997
 20
2.7200000000000002
 40
0.6
 50
0.0
 51
360.0
 73
         1
 97
        1
330
32A
 75
         0
 76
         1
 98
        1
 10
0.0
 20
0.0
  0
CIRCLE
  5
32C
100
AcDbEntity
  8
PART_HOLES_LAYER_TOP
100
AcDbCircle
 10
97.46
 20
21.52
 30
0.0
 40
0.75
  0
HATCH
  5
32D
100
AcDbEntity
  8
PART_HOLES_LAYER_TOP
100
AcDbHatch
 10
0.0
 20
0.0
 30
0.0
210
0.0
220
0.0
230
1.0
  2
SOLID
 70
         1
 71
         1
 91
        1
 92
        1
 93
        1
 72
         2
 10
97.459999999999994
 20
21.52
 40
0.75
 50
0.0
 51
360.0
 73
         1
 97
        1
330
32C
 75
         0
 76
         1
 98
        1
 10
0.0
 20
0.0
  0
CIRCLE
  5
32E
100
AcDbEntity
  8
PART_HOLES_LAYER_TOP
100
AcDbCircle
 10
96.59
 20
4.42
 30
0.0
 40
0.6
  0
HATCH
  5
32F
100
AcDbEntity
  8
PART_HOLES_LAYER_TOP
100
AcDbHatch
 10
0.0
 20
0.0
 30
0.0
210
0.0
220
0.0
230
1.0
  2
SOLID
 70
         1
 71
         1
 91
        1
 92
        1
 93
        1
 72
         2
 10
96.590000000000003
 20
4.4199999999999999
 40
0.6
 50
0.0
 51
360.0
 73
         1
 97
        1
330
32E
 75
         0
 76
         1
 98
        1
 10
0.0
 20
0.0
  0
CIRCLE
  5
330
100
AcDbEntity
  8
PART_HOLES_LAYER_TOP
100
AcDbCircle
 10
103.3
 20
21.52
 30
0.0
 40
0.75
  0
HATCH
  5
331
100
AcDbEntity
  8
PART_HOLES_LAYER_TOP
100
AcDbHatch
 10
0.0
 20
0.0
 30
0.0
210
0.0
220
0.0
230
1.0
  2
SOLID
 70
         1
 71
         1
 91
        1
 92
        1
 93
        1
 72
         2
 10
103.3
 20
21.52
 40
0.75
 50
0.0
 51
360.0
 73
         1
 97
        1
330
330
 75
         0
 76
         1
 98
        1
 10
0.0
 20
0.0
  0
CIRCLE
  5
332
100
AcDbEntity
  8
PART_HOLES_LAYER_TOP
100
AcDbCircle
 10
104.17
 20
2.72
 30
0.0
 40
0.6
  0
HATCH
  5
333
100
AcDbEntity
  8
PART_HOLES_LAYER_TOP
100
AcDbHatch
 10
0.0
 20
0.0
 30
0.0
210
0.0
220
0.0
230
1.0
  2
SOLID
 70
         1
 71
         1
 91
        1
 92
        1
 93
        1
 72
         2
 10
104.17
 20
2.7200000000000002
 40
0.6
 50
0.0
 51
360.0
 73
         1
 97
        1
330
332
 75
         0
 76
         1
 98
        1
 10
0.0
 20
0.0
  0
CIRCLE
  5
334
100
AcDbEntity
  8
PART_HOLES_LAYER_TOP
100
AcDbCircle
 10
102.285
 20
16.69
 30
0.0
 40
0.45
  0
HATCH
  5
335
100
AcDbEntity
  8
PART_HOLES_LAYER_TOP
100
AcDbHatch
 10
0.0
 20
0.0
 30
0.0
210
0.0
220
0.0
230
1.0
  2
SOLID
 70
         1
 71
         1
 91
        1
 92
        1
 93
        1
 72
         2
 10
102.285
 20
16.690000000000001
 40
0.45
 50
0.0
 51
360.0
 73
         1
 97
        1
330
334
 75
         0
 76
         1
 98
        1
 10
0.0
 20
0.0
  0
CIRCLE
  5
336
100
AcDbEntity
  8
PART_HOLES_LAYER_TOP
100
AcDbCircle
 10
98.475
 20
14.15
 30
0.0
 40
0.45
  0
HATCH
  5
337
100
AcDbEntity
  8
PART_HOLES_LAYER_TOP
100
AcDbHatch
 10
0.0
 20
0.0
 30
0.0
210
0.0
220
0.0
230
1.0
  2
SOLID
 70
         1
 71
         1
 91
        1
 92
        1
 93
        1
 72
         2
 10
98.474999999999994
 20
14.15
 40
0.45
 50
0.0
 51
360.0
 73
         1
 97
        1
330
336
 75
         0
 76
         1
 98
        1
 10
0.0
 20
0.0
  0
CIRCLE
  5
338
100
AcDbEntity
  8
PART_HOLES_LAYER_TOP
100
AcDbCircle
 10
92.51
 20
10.85
 30
0.0
 40
0.95
  0
HATCH
  5
339
100
AcDbEntity
  8
PART_HOLES_LAYER_TOP
100
AcDbHatch
 10
0.0
 20
0.0
 30
0.0
210
0.0
220
0.0
230
1.0
  2
SOLID
 70
         1
 71
         1
 91
        1
 92
        1
 93
        1
 72
         2
 10
92.510000000000005
 20
10.85
 40
0.95
 50
0.0
 51
360.0
 73
         1
 97
        1
330
338
 75
         0
 76
         1
 98
        1
 10
0.0
 20
0.0
  0
CIRCLE
  5
33A
100
AcDbEntity
  8
PART_HOLES_LAYER_TOP
100
AcDbCircle
 10
104.825
 20
16.69
 30
0.0
 40
0.45
  0
HATCH
  5
33B
100
AcDbEntity
  8
PART_HOLES_LAYER_TOP
100
AcDbHatch
 10
0.0
 20
0.0
 30
0.0
210
0.0
220
0.0
230
1.0
  2
SOLID
 70
         1
 71
         1
 91
        1
 92
        1
 93
        1
 72
         2
 10
104.825
 20
16.690000000000001
 40
0.45
 50
0.0
 51
360.0
 73
         1
 97
        1
330
33A
 75
         0
 76
         1
 98
        1
 10
0.0
 20
0.0
  0
CIRCLE
  5
33C
100
AcDbEntity
  8
PART_HOLES_LAYER_TOP
100
AcDbCircle
 10
103.555
 20
14.15
 30
0.0
 40
0.45
  0
HATCH
  5
33D
100
AcDbEntity
  8
PART_HOLES_LAYER_TOP
100
AcDbHatch
 10
0.0
 20
0.0
 30
0.0
210
0.0
220
0.0
230
1.0
  2
SOLID
 70
         1
 71
         1
 91
        1
 92
        1
 93
        1
 72
         2
 10
103.55500000000001
 20
14.15
 40
0.45
 50
0.0
 51
360.0
 73
         1
 97
        1
330
33C
 75
         0
 76
         1
 98
        1
 10
0.0
 20
0.0
  0
CIRCLE
  5
33E
100
AcDbEntity
  8
PART_HOLES_LAYER_TOP
100
AcDbCircle
 10
97.205
 20
16.69
 30
0.0
 40
0.45
  0
HATCH
  5
33F
100
AcDbEntity
  8
PART_HOLES_LAYER_TOP
100
AcDbHatch
 10
0.0
 20
0.0
 30
0.0
210
0.0
220
0.0
230
1.0
  2
SOLID
 70
         1
 71
         1
 91
        1
 92
        1
 93
        1
 72
         2
 10
97.204999999999998
 20
16.690000000000001
 40
0.45
 50
0.0
 51
360.0
 73
         1
 97
        1
330
33E
 75
         0
 76
         1
 98
        1
 10
0.0
 20
0.0
  0
CIRCLE
  5
340
100
AcDbEntity
  8
PART_HOLES_LAYER_TOP
100
AcDbCircle
 10
105.84
 20
21.52
 30
0.0
 40
0.75
  0
HATCH
  5
341
100
AcDbEntity
  8
PART_HOLES_LAYER_TOP
100
AcDbHatch
 10
0.0
 20
0.0
 30
0.0
210
0.0
220
0.0
230
1.0
  2
SOLID
 70
         1
 71
         1
 91
        1
 92
        1
 93
        1
 72
         2
 10
105.84
 20
21.52
 40
0.75
 50
0.0
 51
360.0
 73
         1
 97
        1
330
340
 75
         0
 76
         1
 98
        1
 10
0.0
 20
0.0
  0
CIRCLE
  5
342
100
AcDbEntity
  8
PART_HOLES_LAYER_TOP
100
AcDbCircle
 10
106.71
 20
4.42
 30
0.0
 40
0.6
  0
HATCH
  5
343
100
AcDbEntity
  8
PART_HOLES_LAYER_TOP
100
AcDbHatch
 10
0.0
 20
0.0
 30
0.0
210
0.0
220
0.0
230
1.0
  2
SOLID
 70
         1
 71
         1
 91
        1
 92
        1
 93
        1
 72
         2
 10
106.70999999999999
 20
4.4199999999999999
 40
0.6
 50
0.0
 51
360.0
 73
         1
 97
        1
330
342
 75
         0
 76
         1
 98
        1
 10
0.0
 20
0.0
  0
CIRCLE
  5
344
100
AcDbEntity
  8
PART_HOLES_LAYER_TOP
100
AcDbCircle
 10
40.7
 20
22.9
 30
0.0
 40
0.45
  0
HATCH
  5
345
100
AcDbEntity
  8
PART_HOLES_LAYER_TOP
100
AcDbHatch
 10
0.0
 20
0.0
 30
0.0
210
0.0
220
0.0
230
1.0
  2
SOLID
 70
         1
 71
         1
 91
        1
 92
        1
 93
        1
 72
         2
 10
40.700000000000003
 20
22.899999999999999
 40
0.45
 50
0.0
 51
360.0
 73
         1
 97
        1
330
344
 75
         0
 76
         1
 98
        1
 10
0.0
 20
0.0
  0
CIRCLE
  5
346
100
AcDbEntity
  8
PART_HOLES_LAYER_TOP
100
AcDbCircle
 10
43.24
 20
22.9
 30
0.0
 40
0.45
  0
HATCH
  5
347
100
AcDbEntity
  8
PART_HOLES_LAYER_TOP
100
AcDbHatch
 10
0.0
 20
0.0
 30
0.0
210
0.0
220
0.0
230
1.0
  2
SOLID
 70
         1
 71
         1
 91
        1
 92
        1
 93
        1
 72
         2
 10
43.240000000000002
 20
22.899999999999999
 40
0.45
 50
0.0
 51
360.0
 73
         1
 97
        1
330
346
 75
         0
 76
         1
 98
        1
 10
0.0
 20
0.0
  0
CIRCLE
  5
348
100
AcDbEntity
  8
PART_HOLES_LAYER_TOP
100
AcDbCircle
 10
52.46
 20
39.55
 30
0.0
 40
0.45
  0
HATCH
  5
349
100
AcDbEntity
  8
PART_HOLES_LAYER_TOP
100
AcDbHatch
 10
0.0
 20
0.0
 30
0.0
210
0.0
220
0.0
230
1.0
  2
SOLID
 70
         1
 71
         1
 91
        1
 92
        1
 93
        1
 72
         2
 10
52.460000000000001
 20
39.549999999999997
 40
0.45
 50
0.0
 51
360.0
 73
         1
 97
        1
330
348
 75
         0
 76
         1
 98
        1
 10
0.0
 20
0.0
  0
CIRCLE
  5
34A
100
AcDbEntity
  8
PART_HOLES_LAYER_TOP
100
AcDbCircle
 10
52.46
 20
34.67
 30
0.0
 40
0.45
  0
HATCH
  5
34B
100
AcDbEntity
  8
PART_HOLES_LAYER_TOP
100
AcDbHatch
 10
0.0
 20
0.0
 30
0.0
210
0.0
220
0.0
230
1.0
  2
SOLID
 70
         1
 71
         1
 91
        1
 92
        1
 93
        1
 72
         2
 10
52.460000000000001
 20
34.670000000000002
 40
0.45
 50
0.0
 51
360.0
 73
         1
 97
        1
330
34A
 75
         0
 76
         1
 98
        1
 10
0.0
 20
0.0
  0
CIRCLE
  5
34C
100
AcDbEntity
  8
PART_HOLES_LAYER_TOP
100
AcDbCircle
 10
11.0
 20
55.6
 30
0.0
 40
0.45
  0
HATCH
  5
34D
100
AcDbEntity
  8
PART_HOLES_LAYER_TOP
100
AcDbHatch
 10
0.0
 20
0.0
 30
0.0
210
0.0
220
0.0
230
1.0
  2
SOLID
 70
         1
 71
         1
 91
        1
 92
        1
 93
        1
 72
         2
 10
11.0
 20
55.600000000000001
 40
0.45
 50
0.0
 51
360.0
 73
         1
 97
        1
330
34C
 75
         0
 76
         1
 98
        1
 10
0.0
 20
0.0
  0
CIRCLE
  5
34E
100
AcDbEntity
  8
PART_HOLES_LAYER_TOP
100
AcDbCircle
 10
13.54
 20
55.6
 30
0.0
 40
0.45
  0
HATCH
  5
34F
100
AcDbEntity
  8
PART_HOLES_LAYER_TOP
100
AcDbHatch
 10
0.0
 20
0.0
 30
0.0
210
0.0
220
0.0
230
1.0
  2
SOLID
 70
         1
 71
         1
 91
        1
 92
        1
 93
        1
 72
         2
 10
13.539999999999999
 20
55.600000000000001
 40
0.45
 50
0.0
 51
360.0
 73
         1
 97
        1
330
34E
 75
         0
 76
         1
 98
        1
 10
0.0
 20
0.0
  0
CIRCLE
  5
350
100
AcDbEntity
  8
PART_HOLES_LAYER_TOP
100
AcDbCircle
 10
16.08
 20
55.6
 30
0.0
 40
0.45
  0
HATCH
  5
351
100
AcDbEntity
  8
PART_HOLES_LAYER_TOP
100
AcDbHatch
 10
0.0
 20
0.0
 30
0.0
210
0.0
220
0.0
230
1.0
  2
SOLID
 70
         1
 71
         1
 91
        1
 92
        1
 93
        1
 72
         2
 10
16.079999999999998
 20
55.600000000000001
 40
0.45
 50
0.0
 51
360.0
 73
         1
 97
        1
330
350
 75
         0
 76
         1
 98
        1
 10
0.0
 20
0.0
  0
CIRCLE
  5
352
100
AcDbEntity
  8
PART_HOLES_LAYER_TOP
100
AcDbCircle
 10
135.6
 20
63.75
 30
0.0
 40
0.95
  0
HATCH
  5
353
100
AcDbEntity
  8
PART_HOLES_LAYER_TOP
100
AcDbHatch
 10
0.0
 20
0.0
 30
0.0
210
0.0
220
0.0
230
1.0
  2
SOLID
 70
         1
 71
         1
 91
        1
 92
        1
 93
        1
 72
         2
 10
135.59999999999999
 20
63.75
 40
0.95
 50
0.0
 51
360.0
 73
         1
 97
        1
330
352
 75
         0
 76
         1
 98
        1
 10
0.0
 20
0.0
  0
CIRCLE
  5
354
100
AcDbEntity
  8
PART_HOLES_LAYER_TOP
100
AcDbCircle
 10
137.7
 20
61.25
 30
0.0
 40
0.95
  0
HATCH
  5
355
100
AcDbEntity
  8
PART_HOLES_LAYER_TOP
100
AcDbHatch
 10
0.0
 20
0.0
 30
0.0
210
0.0
220
0.0
230
1.0
  2
SOLID
 70
         1
 71
         1
 91
        1
 92
        1
 93
        1
 72
         2
 10
137.69999999999999
 20
61.25
 40
0.95
 50
0.0
 51
360.0
 73
         1
 97
        1
330
354
 75
         0
 76
         1
 98
        1
 10
0.0
 20
0.0
  0
CIRCLE
  5
356
100
AcDbEntity
  8
PART_HOLES_LAYER_TOP
100
AcDbCircle
 10
137.7
 20
55.65
 30
0.0
 40
0.95
  0
HATCH
  5
357
100
AcDbEntity
  8
PART_HOLES_LAYER_TOP
100
AcDbHatch
 10
0.0
 20
0.0
 30
0.0
210
0.0
220
0.0
230
1.0
  2
SOLID
 70
         1
 71
         1
 91
        1
 92
        1
 93
        1
 72
         2
 10
137.69999999999999
 20
55.649999999999999
 40
0.95
 50
0.0
 51
360.0
 73
         1
 97
        1
330
356
 75
         0
 76
         1
 98
        1
 10
0.0
 20
0.0
  0
CIRCLE
  5
358
100
AcDbEntity
  8
PART_HOLES_LAYER_TOP
100
AcDbCircle
 10
66.9
 20
55.25
 30
0.0
 40
0.45
  0
HATCH
  5
359
100
AcDbEntity
  8
PART_HOLES_LAYER_TOP
100
AcDbHatch
 10
0.0
 20
0.0
 30
0.0
210
0.0
220
0.0
230
1.0
  2
SOLID
 70
         1
 71
         1
 91
        1
 92
        1
 93
        1
 72
         2
 10
66.900000000000006
 20
55.25
 40
0.45
 50
0.0
 51
360.0
 73
         1
 97
        1
330
358
 75
         0
 76
         1
 98
        1
 10
0.0
 20
0.0
  0
CIRCLE
  5
35A
100
AcDbEntity
  8
PART_HOLES_LAYER_TOP
100
AcDbCircle
 10
71.98
 20
55.25
 30
0.0
 40
0.45
  0
HATCH
  5
35B
100
AcDbEntity
  8
PART_HOLES_LAYER_TOP
100
AcDbHatch
 10
0.0
 20
0.0
 30
0.0
210
0.0
220
0.0
230
1.0
  2
SOLID
 70
         1
 71
         1
 91
        1
 92
        1
 93
        1
 72
         2
 10
71.980000000000004
 20
55.25
 40
0.45
 50
0.0
 51
360.0
 73
         1
 97
        1
330
35A
 75
         0
 76
         1
 98
        1
 10
0.0
 20
0.0
  0
CIRCLE
  5
35C
100
AcDbEntity
  8
PART_HOLES_LAYER_TOP
100
AcDbCircle
 10
69.44
 20
55.25
 30
0.0
 40
0.45
  0
HATCH
  5
35D
100
AcDbEntity
  8
PART_HOLES_LAYER_TOP
100
AcDbHatch
 10
0.0
 20
0.0
 30
0.0
210
0.0
220
0.0
230
1.0
  2
SOLID
 70
         1
 71
         1
 91
        1
 92
        1
 93
        1
 72
         2
 10
69.439999999999998
 20
55.25
 40
0.45
 50
0.0
 51
360.0
 73
         1
 97
        1
330
35C
 75
         0
 76
         1
 98
        1
 10
0.0
 20
0.0
  0
CIRCLE
  5
35E
100
AcDbEntity
  8
PART_HOLES_LAYER_TOP
100
AcDbCircle
 10
137.6
 20
19.35
 30
0.0
 40
0.45
  0
HATCH
  5
35F
100
AcDbEntity
  8
PART_HOLES_LAYER_TOP
100
AcDbHatch
 10
0.0
 20
0.0
 30
0.0
210
0.0
220
0.0
230
1.0
  2
SOLID
 70
         1
 71
         1
 91
        1
 92
        1
 93
        1
 72
         2
 10
137.59999999999999
 20
19.350000000000001
 40
0.45
 50
0.0
 51
360.0
 73
         1
 97
        1
330
35E
 75
         0
 76
         1
 98
        1
 10
0.0
 20
0.0
  0
CIRCLE
  5
360
100
AcDbEntity
  8
PART_HOLES_LAYER_TOP
100
AcDbCircle
 10
137.6
 20
21.89
 30
0.0
 40
0.45
  0
HATCH
  5
361
100
AcDbEntity
  8
PART_HOLES_LAYER_TOP
100
AcDbHatch
 10
0.0
 20
0.0
 30
0.0
210
0.0
220
0.0
230
1.0
  2
SOLID
 70
         1
 71
         1
 91
        1
 92
        1
 93
        1
 72
         2
 10
137.59999999999999
 20
21.890000000000001
 40
0.45
 50
0.0
 51
360.0
 73
         1
 97
        1
330
360
 75
         0
 76
         1
 98
        1
 10
0.0
 20
0.0
  0
CIRCLE
  5
362
100
AcDbEntity
  8
PART_HOLES_LAYER_TOP
100
AcDbCircle
 10
137.6
 20
24.43
 30
0.0
 40
0.45
  0
HATCH
  5
363
100
AcDbEntity
  8
PART_HOLES_LAYER_TOP
100
AcDbHatch
 10
0.0
 20
0.0
 30
0.0
210
0.0
220
0.0
230
1.0
  2
SOLID
 70
         1
 71
         1
 91
        1
 92
        1
 93
        1
 72
         2
 10
137.59999999999999
 20
24.43
 40
0.45
 50
0.0
 51
360.0
 73
         1
 97
        1
330
362
 75
         0
 76
         1
 98
        1
 10
0.0
 20
0.0
  0
CIRCLE
  5
364
100
AcDbEntity
  8
PART_HOLES_LAYER_TOP
100
AcDbCircle
 10
106.8
 20
32.46
 30
0.0
 40
0.45
  0
HATCH
  5
365
100
AcDbEntity
  8
PART_HOLES_LAYER_TOP
100
AcDbHatch
 10
0.0
 20
0.0
 30
0.0
210
0.0
220
0.0
230
1.0
  2
SOLID
 70
         1
 71
         1
 91
        1
 92
        1
 93
        1
 72
         2
 10
106.8
 20
32.460000000000001
 40
0.45
 50
0.0
 51
360.0
 73
         1
 97
        1
330
364
 75
         0
 76
         1
 98
        1
 10
0.0
 20
0.0
  0
CIRCLE
  5
366
100
AcDbEntity
  8
PART_HOLES_LAYER_TOP
100
AcDbCircle
 10
109.34
 20
35.0
 30
0.0
 40
0.45
  0
HATCH
  5
367
100
AcDbEntity
  8
PART_HOLES_LAYER_TOP
100
AcDbHatch
 10
0.0
 20
0.0
 30
0.0
210
0.0
220
0.0
230
1.0
  2
SOLID
 70
         1
 71
         1
 91
        1
 92
        1
 93
        1
 72
         2
 10
109.34
 20
35.0
 40
0.45
 50
0.0
 51
360.0
 73
         1
 97
        1
330
366
 75
         0
 76
         1
 98
        1
 10
0.0
 20
0.0
  0
CIRCLE
  5
368
100
AcDbEntity
  8
PART_HOLES_LAYER_TOP
100
AcDbCircle
 10
111.88
 20
35.0
 30
0.0
 40
0.45
  0
HATCH
  5
369
100
AcDbEntity
  8
PART_HOLES_LAYER_TOP
100
AcDbHatch
 10
0.0
 20
0.0
 30
0.0
210
0.0
220
0.0
230
1.0
  2
SOLID
 70
         1
 71
         1
 91
        1
 92
        1
 93
        1
 72
         2
 10
111.88
 20
35.0
 40
0.45
 50
0.0
 51
360.0
 73
         1
 97
        1
330
368
 75
         0
 76
         1
 98
        1
 10
0.0
 20
0.0
  0
CIRCLE
  5
36A
100
AcDbEntity
  8
PART_HOLES_LAYER_TOP
100
AcDbCircle
 10
114.42
 20
35.0
 30
0.0
 40
0.45
  0
HATCH
  5
36B
100
AcDbEntity
  8
PART_HOLES_LAYER_TOP
100
AcDbHatch
 10
0.0
 20
0.0
 30
0.0
210
0.0
220
0.0
230
1.0
  2
SOLID
 70
         1
 71
         1
 91
        1
 92
        1
 93
        1
 72
         2
 10
114.42
 20
35.0
 40
0.45
 50
0.0
 51
360.0
 73
         1
 97
        1
330
36A
 75
         0
 76
         1
 98
        1
 10
0.0
 20
0.0
  0
CIRCLE
  5
36C
100
AcDbEntity
  8
PART_HOLES_LAYER_TOP
100
AcDbCircle
 10
116.96
 20
35.0
 30
0.0
 40
0.45
  0
HATCH
  5
36D
100
AcDbEntity
  8
PART_HOLES_LAYER_TOP
100
AcDbHatch
 10
0.0
 20
0.0
 30
0.0
210
0.0
220
0.0
230
1.0
  2
SOLID
 70
         1
 71
         1
 91
        1
 92
        1
 93
        1
 72
         2
 10
116.95999999999999
 20
35.0
 40
0.45
 50
0.0
 51
360.0
 73
         1
 97
        1
330
36C
 75
         0
 76
         1
 98
        1
 10
0.0
 20
0.0
  0
CIRCLE
  5
36E
100
AcDbEntity
  8
PART_HOLES_LAYER_TOP
100
AcDbCircle
 10
119.5
 20
32.46
 30
0.0
 40
0.45
  0
HATCH
  5
36F
100
AcDbEntity
  8
PART_HOLES_LAYER_TOP
100
AcDbHatch
 10
0.0
 20
0.0
 30
0.0
210
0.0
220
0.0
230
1.0
  2
SOLID
 70
         1
 71
         1
 91
        1
 92
        1
 93
        1
 72
         2
 10
119.5
 20
32.460000000000001
 40
0.45
 50
0.0
 51
360.0
 73
         1
 97
        1
330
36E
 75
         0
 76
         1
 98
        1
 10
0.0
 20
0.0
  0
CIRCLE
  5
370
100
AcDbEntity
  8
PART_HOLES_LAYER_TOP
100
AcDbCircle
 10
122.04
 20
35.0
 30
0.0
 40
0.45
  0
HATCH
  5
371
100
AcDbEntity
  8
PART_HOLES_LAYER_TOP
100
AcDbHatch
 10
0.0
 20
0.0
 30
0.0
210
0.0
220
0.0
230
1.0
  2
SOLID
 70
         1
 71
         1
 91
        1
 92
        1
 93
        1
 72
         2
 10
122.04000000000001
 20
35.0
 40
0.45
 50
0.0
 51
360.0
 73
         1
 97
        1
330
370
 75
         0
 76
         1
 98
        1
 10
0.0
 20
0.0
  0
CIRCLE
  5
372
100
AcDbEntity
  8
PART_HOLES_LAYER_TOP
100
AcDbCircle
 10
124.58
 20
35.0
 30
0.0
 40
0.45
  0
HATCH
  5
373
100
AcDbEntity
  8
PART_HOLES_LAYER_TOP
100
AcDbHatch
 10
0.0
 20
0.0
 30
0.0
210
0.0
220
0.0
230
1.0
  2
SOLID
 70
         1
 71
         1
 91
        1
 92
        1
 93
        1
 72
         2
 10
124.58
 20
35.0
 40
0.45
 50
0.0
 51
360.0
 73
         1
 97
        1
330
372
 75
         0
 76
         1
 98
        1
 10
0.0
 20
0.0
  0
CIRCLE
  5
374
100
AcDbEntity
  8
PART_HOLES_LAYER_TOP
100
AcDbCircle
 10
127.12
 20
35.0
 30
0.0
 40
0.45
  0
HATCH
  5
375
100
AcDbEntity
  8
PART_HOLES_LAYER_TOP
100
AcDbHatch
 10
0.0
 20
0.0
 30
0.0
210
0.0
220
0.0
230
1.0
  2
SOLID
 70
         1
 71
         1
 91
        1
 92
        1
 93
        1
 72
         2
 10
127.12
 20
35.0
 40
0.45
 50
0.0
 51
360.0
 73
         1
 97
        1
330
374
 75
         0
 76
         1
 98
        1
 10
0.0
 20
0.0
  0
CIRCLE
  5
376
100
AcDbEntity
  8
PART_HOLES_LAYER_TOP
100
AcDbCircle
 10
129.66
 20
35.0
 30
0.0
 40
0.45
  0
HATCH
  5
377
100
AcDbEntity
  8
PART_HOLES_LAYER_TOP
100
AcDbHatch
 10
0.0
 20
0.0
 30
0.0
210
0.0
220
0.0
230
1.0
  2
SOLID
 70
         1
 71
         1
 91
        1
 92
        1
 93
        1
 72
         2
 10
129.66
 20
35.0
 40
0.45
 50
0.0
 51
360.0
 73
         1
 97
        1
330
376
 75
         0
 76
         1
 98
        1
 10
0.0
 20
0.0
  0
CIRCLE
  5
378
100
AcDbEntity
  8
PART_HOLES_LAYER_TOP
100
AcDbCircle
 10
119.5
 20
35.0
 30
0.0
 40
0.45
  0
HATCH
  5
379
100
AcDbEntity
  8
PART_HOLES_LAYER_TOP
100
AcDbHatch
 10
0.0
 20
0.0
 30
0.0
210
0.0
220
0.0
230
1.0
  2
SOLID
 70
         1
 71
         1
 91
        1
 92
        1
 93
        1
 72
         2
 10
119.5
 20
35.0
 40
0.45
 50
0.0
 51
360.0
 73
         1
 97
        1
330
378
 75
         0
 76
         1
 98
        1
 10
0.0
 20
0.0
  0
CIRCLE
  5
37A
100
AcDbEntity
  8
PART_HOLES_LAYER_TOP
100
AcDbCircle
 10
124.58
 20
32.46
 30
0.0
 40
0.45
  0
HATCH
  5
37B
100
AcDbEntity
  8
PART_HOLES_LAYER_TOP
100
AcDbHatch
 10
0.0
 20
0.0
 30
0.0
210
0.0
220
0.0
230
1.0
  2
SOLID
 70
         1
 71
         1
 91
        1
 92
        1
 93
        1
 72
         2
 10
124.58
 20
32.460000000000001
 40
0.45
 50
0.0
 51
360.0
 73
         1
 97
        1
330
37A
 75
         0
 76
         1
 98
        1
 10
0.0
 20
0.0
  0
CIRCLE
  5
37C
100
AcDbEntity
  8
PART_HOLES_LAYER_TOP
100
AcDbCircle
 10
106.8
 20
35.0
 30
0.0
 40
0.45
  0
HATCH
  5
37D
100
AcDbEntity
  8
PART_HOLES_LAYER_TOP
100
AcDbHatch
 10
0.0
 20
0.0
 30
0.0
210
0.0
220
0.0
230
1.0
  2
SOLID
 70
         1
 71
         1
 91
        1
 92
        1
 93
        1
 72
         2
 10
106.8
 20
35.0
 40
0.45
 50
0.0
 51
360.0
 73
         1
 97
        1
330
37C
 75
         0
 76
         1
 98
        1
 10
0.0
 20
0.0
  0
CIRCLE
  5
37E
100
AcDbEntity
  8
PART_HOLES_LAYER_TOP
100
AcDbCircle
 10
116.96
 20
32.46
 30
0.0
 40
0.45
  0
HATCH
  5
37F
100
AcDbEntity
  8
PART_HOLES_LAYER_TOP
100
AcDbHatch
 10
0.0
 20
0.0
 30
0.0
210
0.0
220
0.0
230
1.0
  2
SOLID
 70
         1
 71
         1
 91
        1
 92
        1
 93
        1
 72
         2
 10
116.95999999999999
 20
32.460000000000001
 40
0.45
 50
0.0
 51
360.0
 73
         1
 97
        1
330
37E
 75
         0
 76
         1
 98
        1
 10
0.0
 20
0.0
  0
CIRCLE
  5
380
100
AcDbEntity
  8
PART_HOLES_LAYER_TOP
100
AcDbCircle
 10
111.88
 20
32.46
 30
0.0
 40
0.45
  0
HATCH
  5
381
100
AcDbEntity
  8
PART_HOLES_LAYER_TOP
100
AcDbHatch
 10
0.0
 20
0.0
 30
0.0
210
0.0
220
0.0
230
1.0
  2
SOLID
 70
         1
 71
         1
 91
        1
 92
        1
 93
        1
 72
         2
 10
111.88
 20
32.460000000000001
 40
0.45
 50
0.0
 51
360.0
 73
         1
 97
        1
330
380
 75
         0
 76
         1
 98
        1
 10
0.0
 20
0.0
  0
CIRCLE
  5
382
100
AcDbEntity
  8
PART_HOLES_LAYER_TOP
100
AcDbCircle
 10
122.04
 20
32.46
 30
0.0
 40
0.45
  0
HATCH
  5
383
100
AcDbEntity
  8
PART_HOLES_LAYER_TOP
100
AcDbHatch
 10
0.0
 20
0.0
 30
0.0
210
0.0
220
0.0
230
1.0
  2
SOLID
 70
         1
 71
         1
 91
        1
 92
        1
 93
        1
 72
         2
 10
122.04000000000001
 20
32.460000000000001
 40
0.45
 50
0.0
 51
360.0
 73
         1
 97
        1
330
382
 75
         0
 76
         1
 98
        1
 10
0.0
 20
0.0
  0
CIRCLE
  5
384
100
AcDbEntity
  8
PART_HOLES_LAYER_TOP
100
AcDbCircle
 10
114.42
 20
32.46
 30
0.0
 40
0.45
  0
HATCH
  5
385
100
AcDbEntity
  8
PART_HOLES_LAYER_TOP
100
AcDbHatch
 10
0.0
 20
0.0
 30
0.0
210
0.0
220
0.0
230
1.0
  2
SOLID
 70
         1
 71
         1
 91
        1
 92
        1
 93
        1
 72
         2
 10
114.42
 20
32.460000000000001
 40
0.45
 50
0.0
 51
360.0
 73
         1
 97
        1
330
384
 75
         0
 76
         1
 98
        1
 10
0.0
 20
0.0
  0
CIRCLE
  5
386
100
AcDbEntity
  8
PART_HOLES_LAYER_TOP
100
AcDbCircle
 10
109.34
 20
32.46
 30
0.0
 40
0.45
  0
HATCH
  5
387
100
AcDbEntity
  8
PART_HOLES_LAYER_TOP
100
AcDbHatch
 10
0.0
 20
0.0
 30
0.0
210
0.0
220
0.0
230
1.0
  2
SOLID
 70
         1
 71
         1
 91
        1
 92
        1
 93
        1
 72
         2
 10
109.34
 20
32.460000000000001
 40
0.45
 50
0.0
 51
360.0
 73
         1
 97
        1
330
386
 75
         0
 76
         1
 98
        1
 10
0.0
 20
0.0
  0
CIRCLE
  5
388
100
AcDbEntity
  8
PART_HOLES_LAYER_TOP
100
AcDbCircle
 10
127.12
 20
32.46
 30
0.0
 40
0.45
  0
HATCH
  5
389
100
AcDbEntity
  8
PART_HOLES_LAYER_TOP
100
AcDbHatch
 10
0.0
 20
0.0
 30
0.0
210
0.0
220
0.0
230
1.0
  2
SOLID
 70
         1
 71
         1
 91
        1
 92
        1
 93
        1
 72
         2
 10
127.12
 20
32.460000000000001
 40
0.45
 50
0.0
 51
360.0
 73
         1
 97
        1
330
388
 75
         0
 76
         1
 98
        1
 10
0.0
 20
0.0
  0
CIRCLE
  5
38A
100
AcDbEntity
  8
PART_HOLES_LAYER_TOP
100
AcDbCircle
 10
129.66
 20
32.46
 30
0.0
 40
0.45
  0
HATCH
  5
38B
100
AcDbEntity
  8
PART_HOLES_LAYER_TOP
100
AcDbHatch
 10
0.0
 20
0.0
 30
0.0
210
0.0
220
0.0
230
1.0
  2
SOLID
 70
         1
 71
         1
 91
        1
 92
        1
 93
        1
 72
         2
 10
129.66
 20
32.460000000000001
 40
0.45
 50
0.0
 51
360.0
 73
         1
 97
        1
330
38A
 75
         0
 76
         1
 98
        1
 10
0.0
 20
0.0
  0
CIRCLE
  5
38C
100
AcDbEntity
  8
PART_HOLES_LAYER_TOP
100
AcDbCircle
 10
85.71
 20
32.8
 30
0.0
 40
0.45
  0
HATCH
  5
38D
100
AcDbEntity
  8
PART_HOLES_LAYER_TOP
100
AcDbHatch
 10
0.0
 20
0.0
 30
0.0
210
0.0
220
0.0
230
1.0
  2
SOLID
 70
         1
 71
         1
 91
        1
 92
        1
 93
        1
 72
         2
 10
85.709999999999994
 20
32.799999999999997
 40
0.45
 50
0.0
 51
360.0
 73
         1
 97
        1
330
38C
 75
         0
 76
         1
 98
        1
 10
0.0
 20
0.0
  0
CIRCLE
  5
38E
100
AcDbEntity
  8
PART_HOLES_LAYER_TOP
100
AcDbCircle
 10
90.59
 20
32.8
 30
0.0
 40
0.45
  0
HATCH
  5
38F
100
AcDbEntity
  8
PART_HOLES_LAYER_TOP
100
AcDbHatch
 10
0.0
 20
0.0
 30
0.0
210
0.0
220
0.0
230
1.0
  2
SOLID
 70
         1
 71
         1
 91
        1
 92
        1
 93
        1
 72
         2
 10
90.590000000000003
 20
32.799999999999997
 40
0.45
 50
0.0
 51
360.0
 73
         1
 97
        1
330
38E
 75
         0
 76
         1
 98
        1
 10
0.0
 20
0.0
  0
CIRCLE
  5
390
100
AcDbEntity
  8
PART_HOLES_LAYER_TOP
100
AcDbCircle
 10
4.95
 20
55.41
 30
0.0
 40
0.45
  0
HATCH
  5
391
100
AcDbEntity
  8
PART_HOLES_LAYER_TOP
100
AcDbHatch
 10
0.0
 20
0.0
 30
0.0
210
0.0
220
0.0
230
1.0
  2
SOLID
 70
         1
 71
         1
 91
        1
 92
        1
 93
        1
 72
         2
 10
4.9500000000000002
 20
55.409999999999997
 40
0.45
 50
0.0
 51
360.0
 73
         1
 97
        1
330
390
 75
         0
 76
         1
 98
        1
 10
0.0
 20
0.0
  0
CIRCLE
  5
392
100
AcDbEntity
  8
PART_HOLES_LAYER_TOP
100
AcDbCircle
 10
4.95
 20
57.95
 30
0.0
 40
0.45
  0
HATCH
  5
393
100
AcDbEntity
  8
PART_HOLES_LAYER_TOP
100
AcDbHatch
 10
0.0
 20
0.0
 30
0.0
210
0.0
220
0.0
230
1.0
  2
SOLID
 70
         1
 71
         1
 91
        1
 92
        1
 93
        1
 72
         2
 10
4.9500000000000002
 20
57.950000000000003
 40
0.45
 50
0.0
 51
360.0
 73
         1
 97
        1
330
392
 75
         0
 76
         1
 98
        1
 10
0.0
 20
0.0
  0
CIRCLE
  5
394
100
AcDbEntity
  8
PART_HOLES_LAYER_TOP
100
AcDbCircle
 10
84.7
 20
43.5
 30
0.0
 40
0.35
  0
HATCH
  5
395
100
AcDbEntity
  8
PART_HOLES_LAYER_TOP
100
AcDbHatch
 10
0.0
 20
0.0
 30
0.0
210
0.0
220
0.0
230
1.0
  2
SOLID
 70
         1
 71
         1
 91
        1
 92
        1
 93
        1
 72
         2
 10
84.700000000000003
 20
43.5
 40
0.35
 50
0.0
 51
360.0
 73
         1
 97
        1
330
394
 75
         0
 76
         1
 98
        1
 10
0.0
 20
0.0
  0
CIRCLE
  5
396
100
AcDbEntity
  8
PART_HOLES_LAYER_TOP
100
AcDbCircle
 10
84.7
 20
47.31
 30
0.0
 40
0.35
  0
HATCH
  5
397
100
AcDbEntity
  8
PART_HOLES_LAYER_TOP
100
AcDbHatch
 10
0.0
 20
0.0
 30
0.0
210
0.0
220
0.0
230
1.0
  2
SOLID
 70
         1
 71
         1
 91
        1
 92
        1
 93
        1
 72
         2
 10
84.700000000000003
 20
47.310000000000002
 40
0.35
 50
0.0
 51
360.0
 73
         1
 97
        1
330
396
 75
         0
 76
         1
 98
        1
 10
0.0
 20
0.0
  0
CIRCLE
  5
398
100
AcDbEntity
  8
PART_HOLES_LAYER_TOP
100
AcDbCircle
 10
84.7
 20
39.69
 30
0.0
 40
0.35
  0
HATCH
  5
399
100
AcDbEntity
  8
PART_HOLES_LAYER_TOP
100
AcDbHatch
 10
0.0
 20
0.0
 30
0.0
210
0.0
220
0.0
230
1.0
  2
SOLID
 70
         1
 71
         1
 91
        1
 92
        1
 93
        1
 72
         2
 10
84.700000000000003
 20
39.689999999999998
 40
0.35
 50
0.0
 51
360.0
 73
         1
 97
        1
330
398
 75
         0
 76
         1
 98
        1
 10
0.0
 20
0.0
  0
CIRCLE
  5
39A
100
AcDbEntity
  8
PART_HOLES_LAYER_TOP
100
AcDbCircle
 10
83.697983
 20
44.768972
 30
0.0
 40
0.35
  0
HATCH
  5
39B
100
AcDbEntity
  8
PART_HOLES_LAYER_TOP
100
AcDbHatch
 10
0.0
 20
0.0
 30
0.0
210
0.0
220
0.0
230
1.0
  2
SOLID
 70
         1
 71
         1
 91
        1
 92
        1
 93
        1
 72
         2
 10
83.697982999999994
 20
44.768971999999998
 40
0.35
 50
0.0
 51
360.0
 73
         1
 97
        1
330
39A
 75
         0
 76
         1
 98
        1
 10
0.0
 20
0.0
  0
CIRCLE
  5
39C
100
AcDbEntity
  8
PART_HOLES_LAYER_TOP
100
AcDbCircle
 10
83.697983
 20
46.038972
 30
0.0
 40
0.35
  0
HATCH
  5
39D
100
AcDbEntity
  8
PART_HOLES_LAYER_TOP
100
AcDbHatch
 10
0.0
 20
0.0
 30
0.0
210
0.0
220
0.0
230
1.0
  2
SOLID
 70
         1
 71
         1
 91
        1
 92
        1
 93
        1
 72
         2
 10
83.697982999999994
 20
46.038972000000001
 40
0.35
 50
0.0
 51
360.0
 73
         1
 97
        1
330
39C
 75
         0
 76
         1
 98
        1
 10
0.0
 20
0.0
  0
CIRCLE
  5
39E
100
AcDbEntity
  8
PART_HOLES_LAYER_TOP
100
AcDbCircle
 10
83.697983
 20
40.958972
 30
0.0
 40
0.35
  0
HATCH
  5
39F
100
AcDbEntity
  8
PART_HOLES_LAYER_TOP
100
AcDbHatch
 10
0.0
 20
0.0
 30
0.0
210
0.0
220
0.0
230
1.0
  2
SOLID
 70
         1
 71
         1
 91
        1
 92
        1
 93
        1
 72
         2
 10
83.697982999999994
 20
40.958972000000003
 40
0.35
 50
0.0
 51
360.0
 73
         1
 97
        1
330
39E
 75
         0
 76
         1
 98
        1
 10
0.0
 20
0.0
  0
CIRCLE
  5
3A0
100
AcDbEntity
  8
PART_HOLES_LAYER_TOP
100
AcDbCircle
 10
83.697983
 20
42.228972
 30
0.0
 40
0.35
  0
HATCH
  5
3A1
100
AcDbEntity
  8
PART_HOLES_LAYER_TOP
100
AcDbHatch
 10
0.0
 20
0.0
 30
0.0
210
0.0
220
0.0
230
1.0
  2
SOLID
 70
         1
 71
         1
 91
        1
 92
        1
 93
        1
 72
         2
 10
83.697982999999994
 20
42.228971999999999
 40
0.35
 50
0.0
 51
360.0
 73
         1
 97
        1
330
3A0
 75
         0
 76
         1
 98
        1
 10
0.0
 20
0.0
  0
CIRCLE
  5
3A2
100
AcDbEntity
  8
PART_HOLES_LAYER_TOP
100
AcDbCircle
 10
132.75
 20
48.35
 30
0.0
 40
0.45
  0
HATCH
  5
3A3
100
AcDbEntity
  8
PART_HOLES_LAYER_TOP
100
AcDbHatch
 10
0.0
 20
0.0
 30
0.0
210
0.0
220
0.0
230
1.0
  2
SOLID
 70
         1
 71
         1
 91
        1
 92
        1
 93
        1
 72
         2
 10
132.75
 20
48.350000000000001
 40
0.45
 50
0.0
 51
360.0
 73
         1
 97
        1
330
3A2
 75
         0
 76
         1
 98
        1
 10
0.0
 20
0.0
  0
CIRCLE
  5
3A4
100
AcDbEntity
  8
PART_HOLES_LAYER_TOP
100
AcDbCircle
 10
135.29
 20
48.35
 30
0.0
 40
0.45
  0
HATCH
  5
3A5
100
AcDbEntity
  8
PART_HOLES_LAYER_TOP
100
AcDbHatch
 10
0.0
 20
0.0
 30
0.0
210
0.0
220
0.0
230
1.0
  2
SOLID
 70
         1
 71
         1
 91
        1
 92
        1
 93
        1
 72
         2
 10
135.28999999999999
 20
48.350000000000001
 40
0.45
 50
0.0
 51
360.0
 73
         1
 97
        1
330
3A4
 75
         0
 76
         1
 98
        1
 10
0.0
 20
0.0
  0
CIRCLE
  5
3A6
100
AcDbEntity
  8
PART_HOLES_LAYER_TOP
100
AcDbCircle
 10
137.83
 20
48.35
 30
0.0
 40
0.45
  0
HATCH
  5
3A7
100
AcDbEntity
  8
PART_HOLES_LAYER_TOP
100
AcDbHatch
 10
0.0
 20
0.0
 30
0.0
210
0.0
220
0.0
230
1.0
  2
SOLID
 70
         1
 71
         1
 91
        1
 92
        1
 93
        1
 72
         2
 10
137.83000000000001
 20
48.350000000000001
 40
0.45
 50
0.0
 51
360.0
 73
         1
 97
        1
330
3A6
 75
         0
 76
         1
 98
        1
 10
0.0
 20
0.0
  0
CIRCLE
  5
3A8
100
AcDbEntity
  8
PART_HOLES_LAYER_TOP
100
AcDbCircle
 10
132.75
 20
45.75
 30
0.0
 40
0.45
  0
HATCH
  5
3A9
100
AcDbEntity
  8
PART_HOLES_LAYER_TOP
100
AcDbHatch
 10
0.0
 20
0.0
 30
0.0
210
0.0
220
0.0
230
1.0
  2
SOLID
 70
         1
 71
         1
 91
        1
 92
        1
 93
        1
 72
         2
 10
132.75
 20
45.75
 40
0.45
 50
0.0
 51
360.0
 73
         1
 97
        1
330
3A8
 75
         0
 76
         1
 98
        1
 10
0.0
 20
0.0
  0
CIRCLE
  5
3AA
100
AcDbEntity
  8
PART_HOLES_LAYER_TOP
100
AcDbCircle
 10
135.29
 20
45.75
 30
0.0
 40
0.45
  0
HATCH
  5
3AB
100
AcDbEntity
  8
PART_HOLES_LAYER_TOP
100
AcDbHatch
 10
0.0
 20
0.0
 30
0.0
210
0.0
220
0.0
230
1.0
  2
SOLID
 70
         1
 71
         1
 91
        1
 92
        1
 93
        1
 72
         2
 10
135.28999999999999
 20
45.75
 40
0.45
 50
0.0
 51
360.0
 73
         1
 97
        1
330
3AA
 75
         0
 76
         1
 98
        1
 10
0.0
 20
0.0
  0
CIRCLE
  5
3AC
100
AcDbEntity
  8
PART_HOLES_LAYER_TOP
100
AcDbCircle
 10
137.83
 20
45.75
 30
0.0
 40
0.45
  0
HATCH
  5
3AD
100
AcDbEntity
  8
PART_HOLES_LAYER_TOP
100
AcDbHatch
 10
0.0
 20
0.0
 30
0.0
210
0.0
220
0.0
230
1.0
  2
SOLID
 70
         1
 71
         1
 91
        1
 92
        1
 93
        1
 72
         2
 10
137.83000000000001
 20
45.75
 40
0.45
 50
0.0
 51
360.0
 73
         1
 97
        1
330
3AC
 75
         0
 76
         1
 98
        1
 10
0.0
 20
0.0
  0
CIRCLE
  5
3AE
100
AcDbEntity
  8
PART_HOLES_LAYER_TOP
100
AcDbCircle
 10
20.75
 20
51.9
 30
0.0
 40
0.45
  0
HATCH
  5
3AF
100
AcDbEntity
  8
PART_HOLES_LAYER_TOP
100
AcDbHatch
 10
0.0
 20
0.0
 30
0.0
210
0.0
220
0.0
230
1.0
  2
SOLID
 70
         1
 71
         1
 91
        1
 92
        1
 93
        1
 72
         2
 10
20.75
 20
51.899999999999999
 40
0.45
 50
0.0
 51
360.0
 73
         1
 97
        1
330
3AE
 75
         0
 76
         1
 98
        1
 10
0.0
 20
0.0
  0
CIRCLE
  5
3B0
100
AcDbEntity
  8
PART_HOLES_LAYER_TOP
100
AcDbCircle
 10
23.29
 20
51.9
 30
0.0
 40
0.45
  0
HATCH
  5
3B1
100
AcDbEntity
  8
PART_HOLES_LAYER_TOP
100
AcDbHatch
 10
0.0
 20
0.0
 30
0.0
210
0.0
220
0.0
230
1.0
  2
SOLID
 70
         1
 71
         1
 91
        1
 92
        1
 93
        1
 72
         2
 10
23.289999999999999
 20
51.899999999999999
 40
0.45
 50
0.0
 51
360.0
 73
         1
 97
        1
330
3B0
 75
         0
 76
         1
 98
        1
 10
0.0
 20
0.0
  0
CIRCLE
  5
3B2
100
AcDbEntity
  8
PART_HOLES_LAYER_TOP
100
AcDbCircle
 10
23.29
 20
29.04
 30
0.0
 40
0.45
  0
HATCH
  5
3B3
100
AcDbEntity
  8
PART_HOLES_LAYER_TOP
100
AcDbHatch
 10
0.0
 20
0.0
 30
0.0
210
0.0
220
0.0
230
1.0
  2
SOLID
 70
         1
 71
         1
 91
        1
 92
        1
 93
        1
 72
         2
 10
23.289999999999999
 20
29.039999999999999
 40
0.45
 50
0.0
 51
360.0
 73
         1
 97
        1
330
3B2
 75
         0
 76
         1
 98
        1
 10
0.0
 20
0.0
  0
CIRCLE
  5
3B4
100
AcDbEntity
  8
PART_HOLES_LAYER_TOP
100
AcDbCircle
 10
23.29
 20
31.58
 30
0.0
 40
0.45
  0
HATCH
  5
3B5
100
AcDbEntity
  8
PART_HOLES_LAYER_TOP
100
AcDbHatch
 10
0.0
 20
0.0
 30
0.0
210
0.0
220
0.0
230
1.0
  2
SOLID
 70
         1
 71
         1
 91
        1
 92
        1
 93
        1
 72
         2
 10
23.289999999999999
 20
31.579999999999998
 40
0.45
 50
0.0
 51
360.0
 73
         1
 97
        1
330
3B4
 75
         0
 76
         1
 98
        1
 10
0.0
 20
0.0
  0
CIRCLE
  5
3B6
100
AcDbEntity
  8
PART_HOLES_LAYER_TOP
100
AcDbCircle
 10
20.75
 20
41.74
 30
0.0
 40
0.45
  0
HATCH
  5
3B7
100
AcDbEntity
  8
PART_HOLES_LAYER_TOP
100
AcDbHatch
 10
0.0
 20
0.0
 30
0.0
210
0.0
220
0.0
230
1.0
  2
SOLID
 70
         1
 71
         1
 91
        1
 92
        1
 93
        1
 72
         2
 10
20.75
 20
41.740000000000002
 40
0.45
 50
0.0
 51
360.0
 73
         1
 97
        1
330
3B6
 75
         0
 76
         1
 98
        1
 10
0.0
 20
0.0
  0
CIRCLE
  5
3B8
100
AcDbEntity
  8
PART_HOLES_LAYER_TOP
100
AcDbCircle
 10
23.29
 20
41.74
 30
0.0
 40
0.45
  0
HATCH
  5
3B9
100
AcDbEntity
  8
PART_HOLES_LAYER_TOP
100
AcDbHatch
 10
0.0
 20
0.0
 30
0.0
210
0.0
220
0.0
230
1.0
  2
SOLID
 70
         1
 71
         1
 91
        1
 92
        1
 93
        1
 72
         2
 10
23.289999999999999
 20
41.740000000000002
 40
0.45
 50
0.0
 51
360.0
 73
         1
 97
        1
330
3B8
 75
         0
 76
         1
 98
        1
 10
0.0
 20
0.0
  0
CIRCLE
  5
3BA
100
AcDbEntity
  8
PART_HOLES_LAYER_TOP
100
AcDbCircle
 10
20.75
 20
49.36
 30
0.0
 40
0.45
  0
HATCH
  5
3BB
100
AcDbEntity
  8
PART_HOLES_LAYER_TOP
100
AcDbHatch
 10
0.0
 20
0.0
 30
0.0
210
0.0
220
0.0
230
1.0
  2
SOLID
 70
         1
 71
         1
 91
        1
 92
        1
 93
        1
 72
         2
 10
20.75
 20
49.359999999999999
 40
0.45
 50
0.0
 51
360.0
 73
         1
 97
        1
330
3BA
 75
         0
 76
         1
 98
        1
 10
0.0
 20
0.0
  0
CIRCLE
  5
3BC
100
AcDbEntity
  8
PART_HOLES_LAYER_TOP
100
AcDbCircle
 10
23.29
 20
49.36
 30
0.0
 40
0.45
  0
HATCH
  5
3BD
100
AcDbEntity
  8
PART_HOLES_LAYER_TOP
100
AcDbHatch
 10
0.0
 20
0.0
 30
0.0
210
0.0
220
0.0
230
1.0
  2
SOLID
 70
         1
 71
         1
 91
        1
 92
        1
 93
        1
 72
         2
 10
23.289999999999999
 20
49.359999999999999
 40
0.45
 50
0.0
 51
360.0
 73
         1
 97
        1
330
3BC
 75
         0
 76
         1
 98
        1
 10
0.0
 20
0.0
  0
CIRCLE
  5
3BE
100
AcDbEntity
  8
PART_HOLES_LAYER_TOP
100
AcDbCircle
 10
20.75
 20
46.82
 30
0.0
 40
0.45
  0
HATCH
  5
3BF
100
AcDbEntity
  8
PART_HOLES_LAYER_TOP
100
AcDbHatch
 10
0.0
 20
0.0
 30
0.0
210
0.0
220
0.0
230
1.0
  2
SOLID
 70
         1
 71
         1
 91
        1
 92
        1
 93
        1
 72
         2
 10
20.75
 20
46.82
 40
0.45
 50
0.0
 51
360.0
 73
         1
 97
        1
330
3BE
 75
         0
 76
         1
 98
        1
 10
0.0
 20
0.0
  0
CIRCLE
  5
3C0
100
AcDbEntity
  8
PART_HOLES_LAYER_TOP
100
AcDbCircle
 10
23.29
 20
46.82
 30
0.0
 40
0.45
  0
HATCH
  5
3C1
100
AcDbEntity
  8
PART_HOLES_LAYER_TOP
100
AcDbHatch
 10
0.0
 20
0.0
 30
0.0
210
0.0
220
0.0
230
1.0
  2
SOLID
 70
         1
 71
         1
 91
        1
 92
        1
 93
        1
 72
         2
 10
23.289999999999999
 20
46.82
 40
0.45
 50
0.0
 51
360.0
 73
         1
 97
        1
330
3C0
 75
         0
 76
         1
 98
        1
 10
0.0
 20
0.0
  0
CIRCLE
  5
3C2
100
AcDbEntity
  8
PART_HOLES_LAYER_TOP
100
AcDbCircle
 10
20.75
 20
44.28
 30
0.0
 40
0.45
  0
HATCH
  5
3C3
100
AcDbEntity
  8
PART_HOLES_LAYER_TOP
100
AcDbHatch
 10
0.0
 20
0.0
 30
0.0
210
0.0
220
0.0
230
1.0
  2
SOLID
 70
         1
 71
         1
 91
        1
 92
        1
 93
        1
 72
         2
 10
20.75
 20
44.280000000000001
 40
0.45
 50
0.0
 51
360.0
 73
         1
 97
        1
330
3C2
 75
         0
 76
         1
 98
        1
 10
0.0
 20
0.0
  0
CIRCLE
  5
3C4
100
AcDbEntity
  8
PART_HOLES_LAYER_TOP
100
AcDbCircle
 10
23.29
 20
44.28
 30
0.0
 40
0.45
  0
HATCH
  5
3C5
100
AcDbEntity
  8
PART_HOLES_LAYER_TOP
100
AcDbHatch
 10
0.0
 20
0.0
 30
0.0
210
0.0
220
0.0
230
1.0
  2
SOLID
 70
         1
 71
         1
 91
        1
 92
        1
 93
        1
 72
         2
 10
23.289999999999999
 20
44.280000000000001
 40
0.45
 50
0.0
 51
360.0
 73
         1
 97
        1
330
3C4
 75
         0
 76
         1
 98
        1
 10
0.0
 20
0.0
  0
CIRCLE
  5
3C6
100
AcDbEntity
  8
PART_HOLES_LAYER_TOP
100
AcDbCircle
 10
20.75
 20
39.2
 30
0.0
 40
0.45
  0
HATCH
  5
3C7
100
AcDbEntity
  8
PART_HOLES_LAYER_TOP
100
AcDbHatch
 10
0.0
 20
0.0
 30
0.0
210
0.0
220
0.0
230
1.0
  2
SOLID
 70
         1
 71
         1
 91
        1
 92
        1
 93
        1
 72
         2
 10
20.75
 20
39.200000000000003
 40
0.45
 50
0.0
 51
360.0
 73
         1
 97
        1
330
3C6
 75
         0
 76
         1
 98
        1
 10
0.0
 20
0.0
  0
CIRCLE
  5
3C8
100
AcDbEntity
  8
PART_HOLES_LAYER_TOP
100
AcDbCircle
 10
23.29
 20
39.2
 30
0.0
 40
0.45
  0
HATCH
  5
3C9
100
AcDbEntity
  8
PART_HOLES_LAYER_TOP
100
AcDbHatch
 10
0.0
 20
0.0
 30
0.0
210
0.0
220
0.0
230
1.0
  2
SOLID
 70
         1
 71
         1
 91
        1
 92
        1
 93
        1
 72
         2
 10
23.289999999999999
 20
39.200000000000003
 40
0.45
 50
0.0
 51
360.0
 73
         1
 97
        1
330
3C8
 75
         0
 76
         1
 98
        1
 10
0.0
 20
0.0
  0
CIRCLE
  5
3CA
100
AcDbEntity
  8
PART_HOLES_LAYER_TOP
100
AcDbCircle
 10
20.75
 20
29.04
 30
0.0
 40
0.45
  0
HATCH
  5
3CB
100
AcDbEntity
  8
PART_HOLES_LAYER_TOP
100
AcDbHatch
 10
0.0
 20
0.0
 30
0.0
210
0.0
220
0.0
230
1.0
  2
SOLID
 70
         1
 71
         1
 91
        1
 92
        1
 93
        1
 72
         2
 10
20.75
 20
29.039999999999999
 40
0.45
 50
0.0
 51
360.0
 73
         1
 97
        1
330
3CA
 75
         0
 76
         1
 98
        1
 10
0.0
 20
0.0
  0
CIRCLE
  5
3CC
100
AcDbEntity
  8
PART_HOLES_LAYER_TOP
100
AcDbCircle
 10
20.75
 20
34.12
 30
0.0
 40
0.45
  0
HATCH
  5
3CD
100
AcDbEntity
  8
PART_HOLES_LAYER_TOP
100
AcDbHatch
 10
0.0
 20
0.0
 30
0.0
210
0.0
220
0.0
230
1.0
  2
SOLID
 70
         1
 71
         1
 91
        1
 92
        1
 93
        1
 72
         2
 10
20.75
 20
34.119999999999997
 40
0.45
 50
0.0
 51
360.0
 73
         1
 97
        1
330
3CC
 75
         0
 76
         1
 98
        1
 10
0.0
 20
0.0
  0
CIRCLE
  5
3CE
100
AcDbEntity
  8
PART_HOLES_LAYER_TOP
100
AcDbCircle
 10
23.29
 20
34.12
 30
0.0
 40
0.45
  0
HATCH
  5
3CF
100
AcDbEntity
  8
PART_HOLES_LAYER_TOP
100
AcDbHatch
 10
0.0
 20
0.0
 30
0.0
210
0.0
220
0.0
230
1.0
  2
SOLID
 70
         1
 71
         1
 91
        1
 92
        1
 93
        1
 72
         2
 10
23.289999999999999
 20
34.119999999999997
 40
0.45
 50
0.0
 51
360.0
 73
         1
 97
        1
330
3CE
 75
         0
 76
         1
 98
        1
 10
0.0
 20
0.0
  0
CIRCLE
  5
3D0
100
AcDbEntity
  8
PART_HOLES_LAYER_TOP
100
AcDbCircle
 10
20.75
 20
31.58
 30
0.0
 40
0.45
  0
HATCH
  5
3D1
100
AcDbEntity
  8
PART_HOLES_LAYER_TOP
100
AcDbHatch
 10
0.0
 20
0.0
 30
0.0
210
0.0
220
0.0
230
1.0
  2
SOLID
 70
         1
 71
         1
 91
        1
 92
        1
 93
        1
 72
         2
 10
20.75
 20
31.579999999999998
 40
0.45
 50
0.0
 51
360.0
 73
         1
 97
        1
330
3D0
 75
         0
 76
         1
 98
        1
 10
0.0
 20
0.0
  0
CIRCLE
  5
3D2
100
AcDbEntity
  8
PART_HOLES_LAYER_TOP
100
AcDbCircle
 10
23.29
 20
36.66
 30
0.0
 40
0.45
  0
HATCH
  5
3D3
100
AcDbEntity
  8
PART_HOLES_LAYER_TOP
100
AcDbHatch
 10
0.0
 20
0.0
 30
0.0
210
0.0
220
0.0
230
1.0
  2
SOLID
 70
         1
 71
         1
 91
        1
 92
        1
 93
        1
 72
         2
 10
23.289999999999999
 20
36.659999999999997
 40
0.45
 50
0.0
 51
360.0
 73
         1
 97
        1
330
3D2
 75
         0
 76
         1
 98
        1
 10
0.0
 20
0.0
  0
CIRCLE
  5
3D4
100
AcDbEntity
  8
PART_HOLES_LAYER_TOP
100
AcDbCircle
 10
20.75
 20
36.66
 30
0.0
 40
0.45
  0
HATCH
  5
3D5
100
AcDbEntity
  8
PART_HOLES_LAYER_TOP
100
AcDbHatch
 10
0.0
 20
0.0
 30
0.0
210
0.0
220
0.0
230
1.0
  2
SOLID
 70
         1
 71
         1
 91
        1
 92
        1
 93
        1
 72
         2
 10
20.75
 20
36.659999999999997
 40
0.45
 50
0.0
 51
360.0
 73
         1
 97
        1
330
3D4
 75
         0
 76
         1
 98
        1
 10
0.0
 20
0.0
  0
CIRCLE
  5
3D6
100
AcDbEntity
  8
PART_HOLES_LAYER_TOP
100
AcDbCircle
 10
53.770002
 20
45.5
 30
0.0
 40
0.45
  0
HATCH
  5
3D7
100
AcDbEntity
  8
PART_HOLES_LAYER_TOP
100
AcDbHatch
 10
0.0
 20
0.0
 30
0.0
210
0.0
220
0.0
230
1.0
  2
SOLID
 70
         1
 71
         1
 91
        1
 92
        1
 93
        1
 72
         2
 10
53.770001999999998
 20
45.5
 40
0.45
 50
0.0
 51
360.0
 73
         1
 97
        1
330
3D6
 75
         0
 76
         1
 98
        1
 10
0.0
 20
0.0
  0
CIRCLE
  5
3D8
100
AcDbEntity
  8
PART_HOLES_LAYER_TOP
100
AcDbCircle
 10
51.23
 20
45.5
 30
0.0
 40
0.45
  0
HATCH
  5
3D9
100
AcDbEntity
  8
PART_HOLES_LAYER_TOP
100
AcDbHatch
 10
0.0
 20
0.0
 30
0.0
210
0.0
220
0.0
230
1.0
  2
SOLID
 70
         1
 71
         1
 91
        1
 92
        1
 93
        1
 72
         2
 10
51.229999999999997
 20
45.5
 40
0.45
 50
0.0
 51
360.0
 73
         1
 97
        1
330
3D8
 75
         0
 76
         1
 98
        1
 10
0.0
 20
0.0
  0
CIRCLE
  5
3DA
100
AcDbEntity
  8
PART_HOLES_LAYER_TOP
100
AcDbCircle
 10
24.3
 20
22.05
 30
0.0
 40
0.45
  0
HATCH
  5
3DB
100
AcDbEntity
  8
PART_HOLES_LAYER_TOP
100
AcDbHatch
 10
0.0
 20
0.0
 30
0.0
210
0.0
220
0.0
230
1.0
  2
SOLID
 70
         1
 71
         1
 91
        1
 92
        1
 93
        1
 72
         2
 10
24.300000000000001
 20
22.050000000000001
 40
0.45
 50
0.0
 51
360.0
 73
         1
 97
        1
330
3DA
 75
         0
 76
         1
 98
        1
 10
0.0
 20
0.0
  0
CIRCLE
  5
3DC
100
AcDbEntity
  8
PART_HOLES_LAYER_TOP
100
AcDbCircle
 10
37.0
 20
22.05
 30
0.0
 40
0.45
  0
HATCH
  5
3DD
100
AcDbEntity
  8
PART_HOLES_LAYER_TOP
100
AcDbHatch
 10
0.0
 20
0.0
 30
0.0
210
0.0
220
0.0
230
1.0
  2
SOLID
 70
         1
 71
         1
 91
        1
 92
        1
 93
        1
 72
         2
 10
37.0
 20
22.050000000000001
 40
0.45
 50
0.0
 51
360.0
 73
         1
 97
        1
330
3DC
 75
         0
 76
         1
 98
        1
 10
0.0
 20
0.0
  0
CIRCLE
  5
3DE
100
AcDbEntity
  8
PART_HOLES_LAYER_TOP
100
AcDbCircle
 10
29.38
 20
22.05
 30
0.0
 40
0.45
  0
HATCH
  5
3DF
100
AcDbEntity
  8
PART_HOLES_LAYER_TOP
100
AcDbHatch
 10
0.0
 20
0.0
 30
0.0
210
0.0
220
0.0
230
1.0
  2
SOLID
 70
         1
 71
         1
 91
        1
 92
        1
 93
        1
 72
         2
 10
29.379999999999999
 20
22.050000000000001
 40
0.45
 50
0.0
 51
360.0
 73
         1
 97
        1
330
3DE
 75
         0
 76
         1
 98
        1
 10
0.0
 20
0.0
  0
CIRCLE
  5
3E0
100
AcDbEntity
  8
PART_HOLES_LAYER_TOP
100
AcDbCircle
 10
26.84
 20
22.05
 30
0.0
 40
0.45
  0
HATCH
  5
3E1
100
AcDbEntity
  8
PART_HOLES_LAYER_TOP
100
AcDbHatch
 10
0.0
 20
0.0
 30
0.0
210
0.0
220
0.0
230
1.0
  2
SOLID
 70
         1
 71
         1
 91
        1
 92
        1
 93
        1
 72
         2
 10
26.84
 20
22.050000000000001
 40
0.45
 50
0.0
 51
360.0
 73
         1
 97
        1
330
3E0
 75
         0
 76
         1
 98
        1
 10
0.0
 20
0.0
  0
CIRCLE
  5
3E2
100
AcDbEntity
  8
PART_HOLES_LAYER_TOP
100
AcDbCircle
 10
34.46
 20
22.05
 30
0.0
 40
0.45
  0
HATCH
  5
3E3
100
AcDbEntity
  8
PART_HOLES_LAYER_TOP
100
AcDbHatch
 10
0.0
 20
0.0
 30
0.0
210
0.0
220
0.0
230
1.0
  2
SOLID
 70
         1
 71
         1
 91
        1
 92
        1
 93
        1
 72
         2
 10
34.460000000000001
 20
22.050000000000001
 40
0.45
 50
0.0
 51
360.0
 73
         1
 97
        1
330
3E2
 75
         0
 76
         1
 98
        1
 10
0.0
 20
0.0
  0
CIRCLE
  5
3E4
100
AcDbEntity
  8
PART_HOLES_LAYER_TOP
100
AcDbCircle
 10
31.92
 20
22.05
 30
0.0
 40
0.45
  0
HATCH
  5
3E5
100
AcDbEntity
  8
PART_HOLES_LAYER_TOP
100
AcDbHatch
 10
0.0
 20
0.0
 30
0.0
210
0.0
220
0.0
230
1.0
  2
SOLID
 70
         1
 71
         1
 91
        1
 92
        1
 93
        1
 72
         2
 10
31.920000000000002
 20
22.050000000000001
 40
0.45
 50
0.0
 51
360.0
 73
         1
 97
        1
330
3E4
 75
         0
 76
         1
 98
        1
 10
0.0
 20
0.0
  0
CIRCLE
  5
3E6
100
AcDbEntity
  8
PART_HOLES_LAYER_TOP
100
AcDbCircle
 10
76.72
 20
10.0
 30
0.0
 40
0.45
  0
HATCH
  5
3E7
100
AcDbEntity
  8
PART_HOLES_LAYER_TOP
100
AcDbHatch
 10
0.0
 20
0.0
 30
0.0
210
0.0
220
0.0
230
1.0
  2
SOLID
 70
         1
 71
         1
 91
        1
 92
        1
 93
        1
 72
         2
 10
76.719999999999999
 20
10.0
 40
0.45
 50
0.0
 51
360.0
 73
         1
 97
        1
330
3E6
 75
         0
 76
         1
 98
        1
 10
0.0
 20
0.0
  0
CIRCLE
  5
3E8
100
AcDbEntity
  8
PART_HOLES_LAYER_TOP
100
AcDbCircle
 10
83.72
 20
10.0
 30
0.0
 40
0.45
  0
HATCH
  5
3E9
100
AcDbEntity
  8
PART_HOLES_LAYER_TOP
100
AcDbHatch
 10
0.0
 20
0.0
 30
0.0
210
0.0
220
0.0
230
1.0
  2
SOLID
 70
         1
 71
         1
 91
        1
 92
        1
 93
        1
 72
         2
 10
83.719999999999999
 20
10.0
 40
0.45
 50
0.0
 51
360.0
 73
         1
 97
        1
330
3E8
 75
         0
 76
         1
 98
        1
 10
0.0
 20
0.0
  0
CIRCLE
  5
3EA
100
AcDbEntity
  8
PART_HOLES_LAYER_TOP
100
AcDbCircle
 10
86.82
 20
7.28
 30
0.0
 40
1.25
  0
HATCH
  5
3EB
100
AcDbEntity
  8
PART_HOLES_LAYER_TOP
100
AcDbHatch
 10
0.0
 20
0.0
 30
0.0
210
0.0
220
0.0
230
1.0
  2
SOLID
 70
         1
 71
         1
 91
        1
 92
        1
 93
        1
 72
         2
 10
86.819999999999993
 20
7.2800000000000002
 40
1.25
 50
0.0
 51
360.0
 73
         1
 97
        1
330
3EA
 75
         0
 76
         1
 98
        1
 10
0.0
 20
0.0
  0
CIRCLE
  5
3EC
100
AcDbEntity
  8
PART_HOLES_LAYER_TOP
100
AcDbCircle
 10
73.62
 20
7.28
 30
0.0
 40
1.25
  0
HATCH
  5
3ED
100
AcDbEntity
  8
PART_HOLES_LAYER_TOP
100
AcDbHatch
 10
0.0
 20
0.0
 30
0.0
210
0.0
220
0.0
230
1.0
  2
SOLID
 70
         1
 71
         1
 91
        1
 92
        1
 93
        1
 72
         2
 10
73.620000000000005
 20
7.2800000000000002
 40
1.25
 50
0.0
 51
360.0
 73
         1
 97
        1
330
3EC
 75
         0
 76
         1
 98
        1
 10
0.0
 20
0.0
  0
CIRCLE
  5
3EE
100
AcDbEntity
  8
PART_HOLES_LAYER_TOP
100
AcDbCircle
 10
79.22
 20
10.0
 30
0.0
 40
0.45
  0
HATCH
  5
3EF
100
AcDbEntity
  8
PART_HOLES_LAYER_TOP
100
AcDbHatch
 10
0.0
 20
0.0
 30
0.0
210
0.0
220
0.0
230
1.0
  2
SOLID
 70
         1
 71
         1
 91
        1
 92
        1
 93
        1
 72
         2
 10
79.219999999999999
 20
10.0
 40
0.45
 50
0.0
 51
360.0
 73
         1
 97
        1
330
3EE
 75
         0
 76
         1
 98
        1
 10
0.0
 20
0.0
  0
CIRCLE
  5
3F0
100
AcDbEntity
  8
PART_HOLES_LAYER_TOP
100
AcDbCircle
 10
81.22
 20
10.0
 30
0.0
 40
0.45
  0
HATCH
  5
3F1
100
AcDbEntity
  8
PART_HOLES_LAYER_TOP
100
AcDbHatch
 10
0.0
 20
0.0
 30
0.0
210
0.0
220
0.0
230
1.0
  2
SOLID
 70
         1
 71
         1
 91
        1
 92
        1
 93
        1
 72
         2
 10
81.219999999999999
 20
10.0
 40
0.45
 50
0.0
 51
360.0
 73
         1
 97
        1
330
3F0
 75
         0
 76
         1
 98
        1
 10
0.0
 20
0.0
  0
CIRCLE
  5
3F2
100
AcDbEntity
  8
PART_HOLES_LAYER_TOP
100
AcDbCircle
 10
49.15
 20
23.3
 30
0.0
 40
0.45
  0
HATCH
  5
3F3
100
AcDbEntity
  8
PART_HOLES_LAYER_TOP
100
AcDbHatch
 10
0.0
 20
0.0
 30
0.0
210
0.0
220
0.0
230
1.0
  2
SOLID
 70
         1
 71
         1
 91
        1
 92
        1
 93
        1
 72
         2
 10
49.149999999999999
 20
23.300000000000001
 40
0.45
 50
0.0
 51
360.0
 73
         1
 97
        1
330
3F2
 75
         0
 76
         1
 98
        1
 10
0.0
 20
0.0
  0
CIRCLE
  5
3F4
100
AcDbEntity
  8
PART_HOLES_LAYER_TOP
100
AcDbCircle
 10
46.61
 20
23.3
 30
0.0
 40
0.45
  0
HATCH
  5
3F5
100
AcDbEntity
  8
PART_HOLES_LAYER_TOP
100
AcDbHatch
 10
0.0
 20
0.0
 30
0.0
210
0.0
220
0.0
230
1.0
  2
SOLID
 70
         1
 71
         1
 91
        1
 92
        1
 93
        1
 72
         2
 10
46.609999999999999
 20
23.300000000000001
 40
0.45
 50
0.0
 51
360.0
 73
         1
 97
        1
330
3F4
 75
         0
 76
         1
 98
        1
 10
0.0
 20
0.0
  0
CIRCLE
  5
3F6
100
AcDbEntity
  8
PART_HOLES_LAYER_TOP
100
AcDbCircle
 10
45.2
 20
5.7
 30
0.0
 40
0.45
  0
HATCH
  5
3F7
100
AcDbEntity
  8
PART_HOLES_LAYER_TOP
100
AcDbHatch
 10
0.0
 20
0.0
 30
0.0
210
0.0
220
0.0
230
1.0
  2
SOLID
 70
         1
 71
         1
 91
        1
 92
        1
 93
        1
 72
         2
 10
45.200000000000003
 20
5.7000000000000002
 40
0.45
 50
0.0
 51
360.0
 73
         1
 97
        1
330
3F6
 75
         0
 76
         1
 98
        1
 10
0.0
 20
0.0
  0
CIRCLE
  5
3F8
100
AcDbEntity
  8
PART_HOLES_LAYER_TOP
100
AcDbCircle
 10
45.2
 20
8.24
 30
0.0
 40
0.45
  0
HATCH
  5
3F9
100
AcDbEntity
  8
PART_HOLES_LAYER_TOP
100
AcDbHatch
 10
0.0
 20
0.0
 30
0.0
210
0.0
220
0.0
230
1.0
  2
SOLID
 70
         1
 71
         1
 91
        1
 92
        1
 93
        1
 72
         2
 10
45.200000000000003
 20
8.2400000000000002
 40
0.45
 50
0.0
 51
360.0
 73
         1
 97
        1
330
3F8
 75
         0
 76
         1
 98
        1
 10
0.0
 20
0.0
  0
CIRCLE
  5
3FA
100
AcDbEntity
  8
PART_HOLES_LAYER_TOP
100
AcDbCircle
 10
29.7
 20
51.9
 30
0.0
 40
0.45
  0
HATCH
  5
3FB
100
AcDbEntity
  8
PART_HOLES_LAYER_TOP
100
AcDbHatch
 10
0.0
 20
0.0
 30
0.0
210
0.0
220
0.0
230
1.0
  2
SOLID
 70
         1
 71
         1
 91
        1
 92
        1
 93
        1
 72
         2
 10
29.699999999999999
 20
51.899999999999999
 40
0.45
 50
0.0
 51
360.0
 73
         1
 97
        1
330
3FA
 75
         0
 76
         1
 98
        1
 10
0.0
 20
0.0
  0
CIRCLE
  5
3FC
100
AcDbEntity
  8
PART_HOLES_LAYER_TOP
100
AcDbCircle
 10
32.24
 20
51.9
 30
0.0
 40
0.45
  0
HATCH
  5
3FD
100
AcDbEntity
  8
PART_HOLES_LAYER_TOP
100
AcDbHatch
 10
0.0
 20
0.0
 30
0.0
210
0.0
220
0.0
230
1.0
  2
SOLID
 70
         1
 71
         1
 91
        1
 92
        1
 93
        1
 72
         2
 10
32.240000000000002
 20
51.899999999999999
 40
0.45
 50
0.0
 51
360.0
 73
         1
 97
        1
330
3FC
 75
         0
 76
         1
 98
        1
 10
0.0
 20
0.0
  0
CIRCLE
  5
3FE
100
AcDbEntity
  8
PART_HOLES_LAYER_TOP
100
AcDbCircle
 10
32.24
 20
29.04
 30
0.0
 40
0.45
  0
HATCH
  5
3FF
100
AcDbEntity
  8
PART_HOLES_LAYER_TOP
100
AcDbHatch
 10
0.0
 20
0.0
 30
0.0
210
0.0
220
0.0
230
1.0
  2
SOLID
 70
         1
 71
         1
 91
        1
 92
        1
 93
        1
 72
         2
 10
32.240000000000002
 20
29.039999999999999
 40
0.45
 50
0.0
 51
360.0
 73
         1
 97
        1
330
3FE
 75
         0
 76
         1
 98
        1
 10
0.0
 20
0.0
  0
CIRCLE
  5
400
100
AcDbEntity
  8
PART_HOLES_LAYER_TOP
100
AcDbCircle
 10
32.24
 20
31.58
 30
0.0
 40
0.45
  0
HATCH
  5
401
100
AcDbEntity
  8
PART_HOLES_LAYER_TOP
100
AcDbHatch
 10
0.0
 20
0.0
 30
0.0
210
0.0
220
0.0
230
1.0
  2
SOLID
 70
         1
 71
         1
 91
        1
 92
        1
 93
        1
 72
         2
 10
32.240000000000002
 20
31.579999999999998
 40
0.45
 50
0.0
 51
360.0
 73
         1
 97
        1
330
400
 75
         0
 76
         1
 98
        1
 10
0.0
 20
0.0
  0
CIRCLE
  5
402
100
AcDbEntity
  8
PART_HOLES_LAYER_TOP
100
AcDbCircle
 10
29.7
 20
41.74
 30
0.0
 40
0.45
  0
HATCH
  5
403
100
AcDbEntity
  8
PART_HOLES_LAYER_TOP
100
AcDbHatch
 10
0.0
 20
0.0
 30
0.0
210
0.0
220
0.0
230
1.0
  2
SOLID
 70
         1
 71
         1
 91
        1
 92
        1
 93
        1
 72
         2
 10
29.699999999999999
 20
41.740000000000002
 40
0.45
 50
0.0
 51
360.0
 73
         1
 97
        1
330
402
 75
         0
 76
         1
 98
        1
 10
0.0
 20
0.0
  0
CIRCLE
  5
404
100
AcDbEntity
  8
PART_HOLES_LAYER_TOP
100
AcDbCircle
 10
32.24
 20
41.74
 30
0.0
 40
0.45
  0
HATCH
  5
405
100
AcDbEntity
  8
PART_HOLES_LAYER_TOP
100
AcDbHatch
 10
0.0
 20
0.0
 30
0.0
210
0.0
220
0.0
230
1.0
  2
SOLID
 70
         1
 71
         1
 91
        1
 92
        1
 93
        1
 72
         2
 10
32.240000000000002
 20
41.740000000000002
 40
0.45
 50
0.0
 51
360.0
 73
         1
 97
        1
330
404
 75
         0
 76
         1
 98
        1
 10
0.0
 20
0.0
  0
CIRCLE
  5
406
100
AcDbEntity
  8
PART_HOLES_LAYER_TOP
100
AcDbCircle
 10
29.7
 20
49.36
 30
0.0
 40
0.45
  0
HATCH
  5
407
100
AcDbEntity
  8
PART_HOLES_LAYER_TOP
100
AcDbHatch
 10
0.0
 20
0.0
 30
0.0
210
0.0
220
0.0
230
1.0
  2
SOLID
 70
         1
 71
         1
 91
        1
 92
        1
 93
        1
 72
         2
 10
29.699999999999999
 20
49.359999999999999
 40
0.45
 50
0.0
 51
360.0
 73
         1
 97
        1
330
406
 75
         0
 76
         1
 98
        1
 10
0.0
 20
0.0
  0
CIRCLE
  5
408
100
AcDbEntity
  8
PART_HOLES_LAYER_TOP
100
AcDbCircle
 10
32.24
 20
49.36
 30
0.0
 40
0.45
  0
HATCH
  5
409
100
AcDbEntity
  8
PART_HOLES_LAYER_TOP
100
AcDbHatch
 10
0.0
 20
0.0
 30
0.0
210
0.0
220
0.0
230
1.0
  2
SOLID
 70
         1
 71
         1
 91
        1
 92
        1
 93
        1
 72
         2
 10
32.240000000000002
 20
49.359999999999999
 40
0.45
 50
0.0
 51
360.0
 73
         1
 97
        1
330
408
 75
         0
 76
         1
 98
        1
 10
0.0
 20
0.0
  0
CIRCLE
  5
40A
100
AcDbEntity
  8
PART_HOLES_LAYER_TOP
100
AcDbCircle
 10
29.7
 20
46.82
 30
0.0
 40
0.45
  0
HATCH
  5
40B
100
AcDbEntity
  8
PART_HOLES_LAYER_TOP
100
AcDbHatch
 10
0.0
 20
0.0
 30
0.0
210
0.0
220
0.0
230
1.0
  2
SOLID
 70
         1
 71
         1
 91
        1
 92
        1
 93
        1
 72
         2
 10
29.699999999999999
 20
46.82
 40
0.45
 50
0.0
 51
360.0
 73
         1
 97
        1
330
40A
 75
         0
 76
         1
 98
        1
 10
0.0
 20
0.0
  0
CIRCLE
  5
40C
100
AcDbEntity
  8
PART_HOLES_LAYER_TOP
100
AcDbCircle
 10
32.24
 20
46.82
 30
0.0
 40
0.45
  0
HATCH
  5
40D
100
AcDbEntity
  8
PART_HOLES_LAYER_TOP
100
AcDbHatch
 10
0.0
 20
0.0
 30
0.0
210
0.0
220
0.0
230
1.0
  2
SOLID
 70
         1
 71
         1
 91
        1
 92
        1
 93
        1
 72
         2
 10
32.240000000000002
 20
46.82
 40
0.45
 50
0.0
 51
360.0
 73
         1
 97
        1
330
40C
 75
         0
 76
         1
 98
        1
 10
0.0
 20
0.0
  0
CIRCLE
  5
40E
100
AcDbEntity
  8
PART_HOLES_LAYER_TOP
100
AcDbCircle
 10
29.7
 20
44.28
 30
0.0
 40
0.45
  0
HATCH
  5
40F
100
AcDbEntity
  8
PART_HOLES_LAYER_TOP
100
AcDbHatch
 10
0.0
 20
0.0
 30
0.0
210
0.0
220
0.0
230
1.0
  2
SOLID
 70
         1
 71
         1
 91
        1
 92
        1
 93
        1
 72
         2
 10
29.699999999999999
 20
44.280000000000001
 40
0.45
 50
0.0
 51
360.0
 73
         1
 97
        1
330
40E
 75
         0
 76
         1
 98
        1
 10
0.0
 20
0.0
  0
CIRCLE
  5
410
100
AcDbEntity
  8
PART_HOLES_LAYER_TOP
100
AcDbCircle
 10
32.24
 20
44.28
 30
0.0
 40
0.45
  0
HATCH
  5
411
100
AcDbEntity
  8
PART_HOLES_LAYER_TOP
100
AcDbHatch
 10
0.0
 20
0.0
 30
0.0
210
0.0
220
0.0
230
1.0
  2
SOLID
 70
         1
 71
         1
 91
        1
 92
        1
 93
        1
 72
         2
 10
32.240000000000002
 20
44.280000000000001
 40
0.45
 50
0.0
 51
360.0
 73
         1
 97
        1
330
410
 75
         0
 76
         1
 98
        1
 10
0.0
 20
0.0
  0
CIRCLE
  5
412
100
AcDbEntity
  8
PART_HOLES_LAYER_TOP
100
AcDbCircle
 10
29.7
 20
39.2
 30
0.0
 40
0.45
  0
HATCH
  5
413
100
AcDbEntity
  8
PART_HOLES_LAYER_TOP
100
AcDbHatch
 10
0.0
 20
0.0
 30
0.0
210
0.0
220
0.0
230
1.0
  2
SOLID
 70
         1
 71
         1
 91
        1
 92
        1
 93
        1
 72
         2
 10
29.699999999999999
 20
39.200000000000003
 40
0.45
 50
0.0
 51
360.0
 73
         1
 97
        1
330
412
 75
         0
 76
         1
 98
        1
 10
0.0
 20
0.0
  0
CIRCLE
  5
414
100
AcDbEntity
  8
PART_HOLES_LAYER_TOP
100
AcDbCircle
 10
32.24
 20
39.2
 30
0.0
 40
0.45
  0
HATCH
  5
415
100
AcDbEntity
  8
PART_HOLES_LAYER_TOP
100
AcDbHatch
 10
0.0
 20
0.0
 30
0.0
210
0.0
220
0.0
230
1.0
  2
SOLID
 70
         1
 71
         1
 91
        1
 92
        1
 93
        1
 72
         2
 10
32.240000000000002
 20
39.200000000000003
 40
0.45
 50
0.0
 51
360.0
 73
         1
 97
        1
330
414
 75
         0
 76
         1
 98
        1
 10
0.0
 20
0.0
  0
CIRCLE
  5
416
100
AcDbEntity
  8
PART_HOLES_LAYER_TOP
100
AcDbCircle
 10
29.7
 20
31.58
 30
0.0
 40
0.45
  0
HATCH
  5
417
100
AcDbEntity
  8
PART_HOLES_LAYER_TOP
100
AcDbHatch
 10
0.0
 20
0.0
 30
0.0
210
0.0
220
0.0
230
1.0
  2
SOLID
 70
         1
 71
         1
 91
        1
 92
        1
 93
        1
 72
         2
 10
29.699999999999999
 20
31.579999999999998
 40
0.45
 50
0.0
 51
360.0
 73
         1
 97
        1
330
416
 75
         0
 76
         1
 98
        1
 10
0.0
 20
0.0
  0
CIRCLE
  5
418
100
AcDbEntity
  8
PART_HOLES_LAYER_TOP
100
AcDbCircle
 10
32.24
 20
34.12
 30
0.0
 40
0.45
  0
HATCH
  5
419
100
AcDbEntity
  8
PART_HOLES_LAYER_TOP
100
AcDbHatch
 10
0.0
 20
0.0
 30
0.0
210
0.0
220
0.0
230
1.0
  2
SOLID
 70
         1
 71
         1
 91
        1
 92
        1
 93
        1
 72
         2
 10
32.240000000000002
 20
34.119999999999997
 40
0.45
 50
0.0
 51
360.0
 73
         1
 97
        1
330
418
 75
         0
 76
         1
 98
        1
 10
0.0
 20
0.0
  0
CIRCLE
  5
41A
100
AcDbEntity
  8
PART_HOLES_LAYER_TOP
100
AcDbCircle
 10
29.7
 20
34.12
 30
0.0
 40
0.45
  0
HATCH
  5
41B
100
AcDbEntity
  8
PART_HOLES_LAYER_TOP
100
AcDbHatch
 10
0.0
 20
0.0
 30
0.0
210
0.0
220
0.0
230
1.0
  2
SOLID
 70
         1
 71
         1
 91
        1
 92
        1
 93
        1
 72
         2
 10
29.699999999999999
 20
34.119999999999997
 40
0.45
 50
0.0
 51
360.0
 73
         1
 97
        1
330
41A
 75
         0
 76
         1
 98
        1
 10
0.0
 20
0.0
  0
CIRCLE
  5
41C
100
AcDbEntity
  8
PART_HOLES_LAYER_TOP
100
AcDbCircle
 10
32.24
 20
36.66
 30
0.0
 40
0.45
  0
HATCH
  5
41D
100
AcDbEntity
  8
PART_HOLES_LAYER_TOP
100
AcDbHatch
 10
0.0
 20
0.0
 30
0.0
210
0.0
220
0.0
230
1.0
  2
SOLID
 70
         1
 71
         1
 91
        1
 92
        1
 93
        1
 72
         2
 10
32.240000000000002
 20
36.659999999999997
 40
0.45
 50
0.0
 51
360.0
 73
         1
 97
        1
330
41C
 75
         0
 76
         1
 98
        1
 10
0.0
 20
0.0
  0
CIRCLE
  5
41E
100
AcDbEntity
  8
PART_HOLES_LAYER_TOP
100
AcDbCircle
 10
29.7
 20
36.66
 30
0.0
 40
0.45
  0
HATCH
  5
41F
100
AcDbEntity
  8
PART_HOLES_LAYER_TOP
100
AcDbHatch
 10
0.0
 20
0.0
 30
0.0
210
0.0
220
0.0
230
1.0
  2
SOLID
 70
         1
 71
         1
 91
        1
 92
        1
 93
        1
 72
         2
 10
29.699999999999999
 20
36.659999999999997
 40
0.45
 50
0.0
 51
360.0
 73
         1
 97
        1
330
41E
 75
         0
 76
         1
 98
        1
 10
0.0
 20
0.0
  0
CIRCLE
  5
420
100
AcDbEntity
  8
PART_HOLES_LAYER_TOP
100
AcDbCircle
 10
29.7
 20
29.04
 30
0.0
 40
0.45
  0
HATCH
  5
421
100
AcDbEntity
  8
PART_HOLES_LAYER_TOP
100
AcDbHatch
 10
0.0
 20
0.0
 30
0.0
210
0.0
220
0.0
230
1.0
  2
SOLID
 70
         1
 71
         1
 91
        1
 92
        1
 93
        1
 72
         2
 10
29.699999999999999
 20
29.039999999999999
 40
0.45
 50
0.0
 51
360.0
 73
         1
 97
        1
330
420
 75
         0
 76
         1
 98
        1
 10
0.0
 20
0.0
  0
CIRCLE
  5
422
100
AcDbEntity
  8
PART_HOLES_LAYER_TOP
100
AcDbCircle
 10
11.370002
 20
7.699998
 30
0.0
 40
1.4
  0
HATCH
  5
423
100
AcDbEntity
  8
PART_HOLES_LAYER_TOP
100
AcDbHatch
 10
0.0
 20
0.0
 30
0.0
210
0.0
220
0.0
230
1.0
  2
SOLID
 70
         1
 71
         1
 91
        1
 92
        1
 93
        1
 72
         2
 10
11.370001999999999
 20
7.6999979999999999
 40
1.3999999999999999
 50
0.0
 51
360.0
 73
         1
 97
        1
330
422
 75
         0
 76
         1
 98
        1
 10
0.0
 20
0.0
  0
CIRCLE
  5
424
100
AcDbEntity
  8
PART_HOLES_LAYER_TOP
100
AcDbCircle
 10
6.670002
 20
4.7
 30
0.0
 40
1.4
  0
HATCH
  5
425
100
AcDbEntity
  8
PART_HOLES_LAYER_TOP
100
AcDbHatch
 10
0.0
 20
0.0
 30
0.0
210
0.0
220
0.0
230
1.0
  2
SOLID
 70
         1
 71
         1
 91
        1
 92
        1
 93
        1
 72
         2
 10
6.6700020000000002
 20
4.7000000000000002
 40
1.3999999999999999
 50
0.0
 51
360.0
 73
         1
 97
        1
330
424
 75
         0
 76
         1
 98
        1
 10
0.0
 20
0.0
  0
CIRCLE
  5
426
100
AcDbEntity
  8
PART_HOLES_LAYER_TOP
100
AcDbCircle
 10
6.670002
 20
10.9
 30
0.0
 40
1.4
  0
HATCH
  5
427
100
AcDbEntity
  8
PART_HOLES_LAYER_TOP
100
AcDbHatch
 10
0.0
 20
0.0
 30
0.0
210
0.0
220
0.0
230
1.0
  2
SOLID
 70
         1
 71
         1
 91
        1
 92
        1
 93
        1
 72
         2
 10
6.6700020000000002
 20
10.9
 40
1.3999999999999999
 50
0.0
 51
360.0
 73
         1
 97
        1
330
426
 75
         0
 76
         1
 98
        1
 10
0.0
 20
0.0
  0
CIRCLE
  5
428
100
AcDbEntity
  8
PART_HOLES_LAYER_TOP
100
AcDbCircle
 10
130.33
 20
58.12
 30
0.0
 40
1.4
  0
HATCH
  5
429
100
AcDbEntity
  8
PART_HOLES_LAYER_TOP
100
AcDbHatch
 10
0.0
 20
0.0
 30
0.0
210
0.0
220
0.0
230
1.0
  2
SOLID
 70
         1
 71
         1
 91
        1
 92
        1
 93
        1
 72
         2
 10
130.33000000000001
 20
58.119999999999997
 40
1.3999999999999999
 50
0.0
 51
360.0
 73
         1
 97
        1
330
428
 75
         0
 76
         1
 98
        1
 10
0.0
 20
0.0
  0
CIRCLE
  5
42A
100
AcDbEntity
  8
PART_HOLES_LAYER_TOP
100
AcDbCircle
 10
120.17
 20
58.12
 30
0.0
 40
1.4
  0
HATCH
  5
42B
100
AcDbEntity
  8
PART_HOLES_LAYER_TOP
100
AcDbHatch
 10
0.0
 20
0.0
 30
0.0
210
0.0
220
0.0
230
1.0
  2
SOLID
 70
         1
 71
         1
 91
        1
 92
        1
 93
        1
 72
         2
 10
120.17
 20
58.119999999999997
 40
1.3999999999999999
 50
0.0
 51
360.0
 73
         1
 97
        1
330
42A
 75
         0
 76
         1
 98
        1
 10
0.0
 20
0.0
  0
CIRCLE
  5
42C
100
AcDbEntity
  8
PART_HOLES_LAYER_TOP
100
AcDbCircle
 10
125.25
 20
63.2
 30
0.0
 40
1.4
  0
HATCH
  5
42D
100
AcDbEntity
  8
PART_HOLES_LAYER_TOP
100
AcDbHatch
 10
0.0
 20
0.0
 30
0.0
210
0.0
220
0.0
230
1.0
  2
SOLID
 70
         1
 71
         1
 91
        1
 92
        1
 93
        1
 72
         2
 10
125.25
 20
63.200000000000003
 40
1.3999999999999999
 50
0.0
 51
360.0
 73
         1
 97
        1
330
42C
 75
         0
 76
         1
 98
        1
 10
0.0
 20
0.0
  0
CIRCLE
  5
42E
100
AcDbEntity
  8
PART_HOLES_LAYER_TOP
100
AcDbCircle
 10
125.25
 20
58.12
 30
0.0
 40
1.4
  0
HATCH
  5
42F
100
AcDbEntity
  8
PART_HOLES_LAYER_TOP
100
AcDbHatch
 10
0.0
 20
0.0
 30
0.0
210
0.0
220
0.0
230
1.0
  2
SOLID
 70
         1
 71
         1
 91
        1
 92
        1
 93
        1
 72
         2
 10
125.25
 20
58.119999999999997
 40
1.3999999999999999
 50
0.0
 51
360.0
 73
         1
 97
        1
330
42E
 75
         0
 76
         1
 98
        1
 10
0.0
 20
0.0
  0
CIRCLE
  5
430
100
AcDbEntity
  8
PART_HOLES_LAYER_TOP
100
AcDbCircle
 10
51.6
 20
12.5
 30
0.0
 40
0.45
  0
HATCH
  5
431
100
AcDbEntity
  8
PART_HOLES_LAYER_TOP
100
AcDbHatch
 10
0.0
 20
0.0
 30
0.0
210
0.0
220
0.0
230
1.0
  2
SOLID
 70
         1
 71
         1
 91
        1
 92
        1
 93
        1
 72
         2
 10
51.600000000000001
 20
12.5
 40
0.45
 50
0.0
 51
360.0
 73
         1
 97
        1
330
430
 75
         0
 76
         1
 98
        1
 10
0.0
 20
0.0
  0
CIRCLE
  5
432
100
AcDbEntity
  8
PART_HOLES_LAYER_TOP
100
AcDbCircle
 10
59.22
 20
12.5
 30
0.0
 40
0.4
  0
HATCH
  5
433
100
AcDbEntity
  8
PART_HOLES_LAYER_TOP
100
AcDbHatch
 10
0.0
 20
0.0
 30
0.0
210
0.0
220
0.0
230
1.0
  2
SOLID
 70
         1
 71
         1
 91
        1
 92
        1
 93
        1
 72
         2
 10
59.219999999999999
 20
12.5
 40
0.4
 50
0.0
 51
360.0
 73
         1
 97
        1
330
432
 75
         0
 76
         1
 98
        1
 10
0.0
 20
0.0
  0
CIRCLE
  5
434
100
AcDbEntity
  8
PART_HOLES_LAYER_TOP
100
AcDbCircle
 10
54.14
 20
12.5
 30
0.0
 40
0.45
  0
HATCH
  5
435
100
AcDbEntity
  8
PART_HOLES_LAYER_TOP
100
AcDbHatch
 10
0.0
 20
0.0
 30
0.0
210
0.0
220
0.0
230
1.0
  2
SOLID
 70
         1
 71
         1
 91
        1
 92
        1
 93
        1
 72
         2
 10
54.140000000000001
 20
12.5
 40
0.45
 50
0.0
 51
360.0
 73
         1
 97
        1
330
434
 75
         0
 76
         1
 98
        1
 10
0.0
 20
0.0
  0
CIRCLE
  5
436
100
AcDbEntity
  8
PART_HOLES_LAYER_TOP
100
AcDbCircle
 10
56.68
 20
12.5
 30
0.0
 40
0.45
  0
HATCH
  5
437
100
AcDbEntity
  8
PART_HOLES_LAYER_TOP
100
AcDbHatch
 10
0.0
 20
0.0
 30
0.0
210
0.0
220
0.0
230
1.0
  2
SOLID
 70
         1
 71
         1
 91
        1
 92
        1
 93
        1
 72
         2
 10
56.68
 20
12.5
 40
0.45
 50
0.0
 51
360.0
 73
         1
 97
        1
330
436
 75
         0
 76
         1
 98
        1
 10
0.0
 20
0.0
  0
CIRCLE
  5
438
100
AcDbEntity
  8
PART_HOLES_LAYER_TOP
100
AcDbCircle
 10
130.84
 20
26.8
 30
0.0
 40
0.45
  0
HATCH
  5
439
100
AcDbEntity
  8
PART_HOLES_LAYER_TOP
100
AcDbHatch
 10
0.0
 20
0.0
 30
0.0
210
0.0
220
0.0
230
1.0
  2
SOLID
 70
         1
 71
         1
 91
        1
 92
        1
 93
        1
 72
         2
 10
130.84
 20
26.800000000000001
 40
0.45
 50
0.0
 51
360.0
 73
         1
 97
        1
330
438
 75
         0
 76
         1
 98
        1
 10
0.0
 20
0.0
  0
CIRCLE
  5
43A
100
AcDbEntity
  8
PART_HOLES_LAYER_TOP
100
AcDbCircle
 10
125.96
 20
26.8
 30
0.0
 40
0.45
  0
HATCH
  5
43B
100
AcDbEntity
  8
PART_HOLES_LAYER_TOP
100
AcDbHatch
 10
0.0
 20
0.0
 30
0.0
210
0.0
220
0.0
230
1.0
  2
SOLID
 70
         1
 71
         1
 91
        1
 92
        1
 93
        1
 72
         2
 10
125.95999999999999
 20
26.800000000000001
 40
0.45
 50
0.0
 51
360.0
 73
         1
 97
        1
330
43A
 75
         0
 76
         1
 98
        1
 10
0.0
 20
0.0
  0
CIRCLE
  5
43C
100
AcDbEntity
  8
PART_HOLES_LAYER_TOP
100
AcDbCircle
 10
67.6
 20
8.95
 30
0.0
 40
0.45
  0
HATCH
  5
43D
100
AcDbEntity
  8
PART_HOLES_LAYER_TOP
100
AcDbHatch
 10
0.0
 20
0.0
 30
0.0
210
0.0
220
0.0
230
1.0
  2
SOLID
 70
         1
 71
         1
 91
        1
 92
        1
 93
        1
 72
         2
 10
67.599999999999994
 20
8.9499999999999993
 40
0.45
 50
0.0
 51
360.0
 73
         1
 97
        1
330
43C
 75
         0
 76
         1
 98
        1
 10
0.0
 20
0.0
  0
CIRCLE
  5
43E
100
AcDbEntity
  8
PART_HOLES_LAYER_TOP
100
AcDbCircle
 10
65.06
 20
8.95
 30
0.0
 40
0.45
  0
HATCH
  5
43F
100
AcDbEntity
  8
PART_HOLES_LAYER_TOP
100
AcDbHatch
 10
0.0
 20
0.0
 30
0.0
210
0.0
220
0.0
230
1.0
  2
SOLID
 70
         1
 71
         1
 91
        1
 92
        1
 93
        1
 72
         2
 10
65.060000000000002
 20
8.9499999999999993
 40
0.45
 50
0.0
 51
360.0
 73
         1
 97
        1
330
43E
 75
         0
 76
         1
 98
        1
 10
0.0
 20
0.0
  0
CIRCLE
  5
440
100
AcDbEntity
  8
PART_HOLES_LAYER_TOP
100
AcDbCircle
 10
87.4
 20
21.3
 30
0.0
 40
0.45
  0
HATCH
  5
441
100
AcDbEntity
  8
PART_HOLES_LAYER_TOP
100
AcDbHatch
 10
0.0
 20
0.0
 30
0.0
210
0.0
220
0.0
230
1.0
  2
SOLID
 70
         1
 71
         1
 91
        1
 92
        1
 93
        1
 72
         2
 10
87.400000000000006
 20
21.300000000000001
 40
0.45
 50
0.0
 51
360.0
 73
         1
 97
        1
330
440
 75
         0
 76
         1
 98
        1
 10
0.0
 20
0.0
  0
CIRCLE
  5
442
100
AcDbEntity
  8
PART_HOLES_LAYER_TOP
100
AcDbCircle
 10
89.94
 20
21.3
 30
0.0
 40
0.45
  0
HATCH
  5
443
100
AcDbEntity
  8
PART_HOLES_LAYER_TOP
100
AcDbHatch
 10
0.0
 20
0.0
 30
0.0
210
0.0
220
0.0
230
1.0
  2
SOLID
 70
         1
 71
         1
 91
        1
 92
        1
 93
        1
 72
         2
 10
89.939999999999998
 20
21.300000000000001
 40
0.45
 50
0.0
 51
360.0
 73
         1
 97
        1
330
442
 75
         0
 76
         1
 98
        1
 10
0.0
 20
0.0
  0
CIRCLE
  5
444
100
AcDbEntity
  8
PART_HOLES_LAYER_TOP
100
AcDbCircle
 10
98.4
 20
50.12
 30
0.0
 40
0.45
  0
HATCH
  5
445
100
AcDbEntity
  8
PART_HOLES_LAYER_TOP
100
AcDbHatch
 10
0.0
 20
0.0
 30
0.0
210
0.0
220
0.0
230
1.0
  2
SOLID
 70
         1
 71
         1
 91
        1
 92
        1
 93
        1
 72
         2
 10
98.400000000000006
 20
50.119999999999997
 40
0.45
 50
0.0
 51
360.0
 73
         1
 97
        1
330
444
 75
         0
 76
         1
 98
        1
 10
0.0
 20
0.0
  0
CIRCLE
  5
446
100
AcDbEntity
  8
PART_HOLES_LAYER_TOP
100
AcDbCircle
 10
98.4
 20
47.579998
 30
0.0
 40
0.45
  0
HATCH
  5
447
100
AcDbEntity
  8
PART_HOLES_LAYER_TOP
100
AcDbHatch
 10
0.0
 20
0.0
 30
0.0
210
0.0
220
0.0
230
1.0
  2
SOLID
 70
         1
 71
         1
 91
        1
 92
        1
 93
        1
 72
         2
 10
98.400000000000006
 20
47.579998000000003
 40
0.45
 50
0.0
 51
360.0
 73
         1
 97
        1
330
446
 75
         0
 76
         1
 98
        1
 10
0.0
 20
0.0
  0
CIRCLE
  5
448
100
AcDbEntity
  8
PART_HOLES_LAYER_TOP
100
AcDbCircle
 10
58.91
 20
10.0
 30
0.0
 40
0.45
  0
HATCH
  5
449
100
AcDbEntity
  8
PART_HOLES_LAYER_TOP
100
AcDbHatch
 10
0.0
 20
0.0
 30
0.0
210
0.0
220
0.0
230
1.0
  2
SOLID
 70
         1
 71
         1
 91
        1
 92
        1
 93
        1
 72
         2
 10
58.909999999999997
 20
10.0
 40
0.45
 50
0.0
 51
360.0
 73
         1
 97
        1
330
448
 75
         0
 76
         1
 98
        1
 10
0.0
 20
0.0
  0
CIRCLE
  5
44A
100
AcDbEntity
  8
PART_HOLES_LAYER_TOP
100
AcDbCircle
 10
51.91
 20
10.0
 30
0.0
 40
0.45
  0
HATCH
  5
44B
100
AcDbEntity
  8
PART_HOLES_LAYER_TOP
100
AcDbHatch
 10
0.0
 20
0.0
 30
0.0
210
0.0
220
0.0
230
1.0
  2
SOLID
 70
         1
 71
         1
 91
        1
 92
        1
 93
        1
 72
         2
 10
51.909999999999997
 20
10.0
 40
0.45
 50
0.0
 51
360.0
 73
         1
 97
        1
330
44A
 75
         0
 76
         1
 98
        1
 10
0.0
 20
0.0
  0
CIRCLE
  5
44C
100
AcDbEntity
  8
PART_HOLES_LAYER_TOP
100
AcDbCircle
 10
62.01
 20
7.28
 30
0.0
 40
1.25
  0
HATCH
  5
44D
100
AcDbEntity
  8
PART_HOLES_LAYER_TOP
100
AcDbHatch
 10
0.0
 20
0.0
 30
0.0
210
0.0
220
0.0
230
1.0
  2
SOLID
 70
         1
 71
         1
 91
        1
 92
        1
 93
        1
 72
         2
 10
62.009999999999998
 20
7.2800000000000002
 40
1.25
 50
0.0
 51
360.0
 73
         1
 97
        1
330
44C
 75
         0
 76
         1
 98
        1
 10
0.0
 20
0.0
  0
CIRCLE
  5
44E
100
AcDbEntity
  8
PART_HOLES_LAYER_TOP
100
AcDbCircle
 10
48.81
 20
7.28
 30
0.0
 40
1.25
  0
HATCH
  5
44F
100
AcDbEntity
  8
PART_HOLES_LAYER_TOP
100
AcDbHatch
 10
0.0
 20
0.0
 30
0.0
210
0.0
220
0.0
230
1.0
  2
SOLID
 70
         1
 71
         1
 91
        1
 92
        1
 93
        1
 72
         2
 10
48.810000000000002
 20
7.2800000000000002
 40
1.25
 50
0.0
 51
360.0
 73
         1
 97
        1
330
44E
 75
         0
 76
         1
 98
        1
 10
0.0
 20
0.0
  0
CIRCLE
  5
450
100
AcDbEntity
  8
PART_HOLES_LAYER_TOP
100
AcDbCircle
 10
54.41
 20
10.0
 30
0.0
 40
0.45
  0
HATCH
  5
451
100
AcDbEntity
  8
PART_HOLES_LAYER_TOP
100
AcDbHatch
 10
0.0
 20
0.0
 30
0.0
210
0.0
220
0.0
230
1.0
  2
SOLID
 70
         1
 71
         1
 91
        1
 92
        1
 93
        1
 72
         2
 10
54.409999999999997
 20
10.0
 40
0.45
 50
0.0
 51
360.0
 73
         1
 97
        1
330
450
 75
         0
 76
         1
 98
        1
 10
0.0
 20
0.0
  0
CIRCLE
  5
452
100
AcDbEntity
  8
PART_HOLES_LAYER_TOP
100
AcDbCircle
 10
56.41
 20
10.0
 30
0.0
 40
0.45
  0
HATCH
  5
453
100
AcDbEntity
  8
PART_HOLES_LAYER_TOP
100
AcDbHatch
 10
0.0
 20
0.0
 30
0.0
210
0.0
220
0.0
230
1.0
  2
SOLID
 70
         1
 71
         1
 91
        1
 92
        1
 93
        1
 72
         2
 10
56.409999999999997
 20
10.0
 40
0.45
 50
0.0
 51
360.0
 73
         1
 97
        1
330
452
 75
         0
 76
         1
 98
        1
 10
0.0
 20
0.0
  0
CIRCLE
  5
454
100
AcDbEntity
  8
PART_HOLES_LAYER_TOP
100
AcDbCircle
 10
41.65
 20
51.6
 30
0.0
 40
0.45
  0
HATCH
  5
455
100
AcDbEntity
  8
PART_HOLES_LAYER_TOP
100
AcDbHatch
 10
0.0
 20
0.0
 30
0.0
210
0.0
220
0.0
230
1.0
  2
SOLID
 70
         1
 71
         1
 91
        1
 92
        1
 93
        1
 72
         2
 10
41.649999999999999
 20
51.600000000000001
 40
0.45
 50
0.0
 51
360.0
 73
         1
 97
        1
330
454
 75
         0
 76
         1
 98
        1
 10
0.0
 20
0.0
  0
CIRCLE
  5
456
100
AcDbEntity
  8
PART_HOLES_LAYER_TOP
100
AcDbCircle
 10
39.11
 20
51.6
 30
0.0
 40
0.45
  0
HATCH
  5
457
100
AcDbEntity
  8
PART_HOLES_LAYER_TOP
100
AcDbHatch
 10
0.0
 20
0.0
 30
0.0
210
0.0
220
0.0
230
1.0
  2
SOLID
 70
         1
 71
         1
 91
        1
 92
        1
 93
        1
 72
         2
 10
39.109999999999999
 20
51.600000000000001
 40
0.45
 50
0.0
 51
360.0
 73
         1
 97
        1
330
456
 75
         0
 76
         1
 98
        1
 10
0.0
 20
0.0
  0
CIRCLE
  5
458
100
AcDbEntity
  8
PART_HOLES_LAYER_TOP
100
AcDbCircle
 10
36.57
 20
51.6
 30
0.0
 40
0.45
  0
HATCH
  5
459
100
AcDbEntity
  8
PART_HOLES_LAYER_TOP
100
AcDbHatch
 10
0.0
 20
0.0
 30
0.0
210
0.0
220
0.0
230
1.0
  2
SOLID
 70
         1
 71
         1
 91
        1
 92
        1
 93
        1
 72
         2
 10
36.57
 20
51.600000000000001
 40
0.45
 50
0.0
 51
360.0
 73
         1
 97
        1
330
458
 75
         0
 76
         1
 98
        1
 10
0.0
 20
0.0
  0
CIRCLE
  5
45A
100
AcDbEntity
  8
PART_HOLES_LAYER_TOP
100
AcDbCircle
 10
110.2
 20
50.25
 30
0.0
 40
0.45
  0
HATCH
  5
45B
100
AcDbEntity
  8
PART_HOLES_LAYER_TOP
100
AcDbHatch
 10
0.0
 20
0.0
 30
0.0
210
0.0
220
0.0
230
1.0
  2
SOLID
 70
         1
 71
         1
 91
        1
 92
        1
 93
        1
 72
         2
 10
110.2
 20
50.25
 40
0.45
 50
0.0
 51
360.0
 73
         1
 97
        1
330
45A
 75
         0
 76
         1
 98
        1
 10
0.0
 20
0.0
  0
CIRCLE
  5
45C
100
AcDbEntity
  8
PART_HOLES_LAYER_TOP
100
AcDbCircle
 10
41.55
 20
49.05
 30
0.0
 40
0.45
  0
HATCH
  5
45D
100
AcDbEntity
  8
PART_HOLES_LAYER_TOP
100
AcDbHatch
 10
0.0
 20
0.0
 30
0.0
210
0.0
220
0.0
230
1.0
  2
SOLID
 70
         1
 71
         1
 91
        1
 92
        1
 93
        1
 72
         2
 10
41.549999999999997
 20
49.049999999999997
 40
0.45
 50
0.0
 51
360.0
 73
         1
 97
        1
330
45C
 75
         0
 76
         1
 98
        1
 10
0.0
 20
0.0
  0
CIRCLE
  5
45E
100
AcDbEntity
  8
PART_HOLES_LAYER_TOP
100
AcDbCircle
 10
39.01
 20
49.05
 30
0.0
 40
0.45
  0
HATCH
  5
45F
100
AcDbEntity
  8
PART_HOLES_LAYER_TOP
100
AcDbHatch
 10
0.0
 20
0.0
 30
0.0
210
0.0
220
0.0
230
1.0
  2
SOLID
 70
         1
 71
         1
 91
        1
 92
        1
 93
        1
 72
         2
 10
39.009999999999998
 20
49.049999999999997
 40
0.45
 50
0.0
 51
360.0
 73
         1
 97
        1
330
45E
 75
         0
 76
         1
 98
        1
 10
0.0
 20
0.0
  0
CIRCLE
  5
460
100
AcDbEntity
  8
PART_HOLES_LAYER_TOP
100
AcDbCircle
 10
99.8
 20
30.9
 30
0.0
 40
0.45
  0
HATCH
  5
461
100
AcDbEntity
  8
PART_HOLES_LAYER_TOP
100
AcDbHatch
 10
0.0
 20
0.0
 30
0.0
210
0.0
220
0.0
230
1.0
  2
SOLID
 70
         1
 71
         1
 91
        1
 92
        1
 93
        1
 72
         2
 10
99.799999999999997
 20
30.899999999999999
 40
0.45
 50
0.0
 51
360.0
 73
         1
 97
        1
330
460
 75
         0
 76
         1
 98
        1
 10
0.0
 20
0.0
  0
CIRCLE
  5
462
100
AcDbEntity
  8
PART_HOLES_LAYER_TOP
100
AcDbCircle
 10
119.905
 20
8.07
 30
0.0
 40
0.6
  0
HATCH
  5
463
100
AcDbEntity
  8
PART_HOLES_LAYER_TOP
100
AcDbHatch
 10
0.0
 20
0.0
 30
0.0
210
0.0
220
0.0
230
1.0
  2
SOLID
 70
         1
 71
         1
 91
        1
 92
        1
 93
        1
 72
         2
 10
119.905
 20
8.0700000000000003
 40
0.6
 50
0.0
 51
360.0
 73
         1
 97
        1
330
462
 75
         0
 76
         1
 98
        1
 10
0.0
 20
0.0
  0
CIRCLE
  5
464
100
AcDbEntity
  8
PART_HOLES_LAYER_TOP
100
AcDbCircle
 10
122.675
 20
8.07
 30
0.0
 40
0.6
  0
HATCH
  5
465
100
AcDbEntity
  8
PART_HOLES_LAYER_TOP
100
AcDbHatch
 10
0.0
 20
0.0
 30
0.0
210
0.0
220
0.0
230
1.0
  2
SOLID
 70
         1
 71
         1
 91
        1
 92
        1
 93
        1
 72
         2
 10
122.675
 20
8.0700000000000003
 40
0.6
 50
0.0
 51
360.0
 73
         1
 97
        1
330
464
 75
         0
 76
         1
 98
        1
 10
0.0
 20
0.0
  0
CIRCLE
  5
466
100
AcDbEntity
  8
PART_HOLES_LAYER_TOP
100
AcDbCircle
 10
125.445
 20
8.07
 30
0.0
 40
0.6
  0
HATCH
  5
467
100
AcDbEntity
  8
PART_HOLES_LAYER_TOP
100
AcDbHatch
 10
0.0
 20
0.0
 30
0.0
210
0.0
220
0.0
230
1.0
  2
SOLID
 70
         1
 71
         1
 91
        1
 92
        1
 93
        1
 72
         2
 10
125.44499999999999
 20
8.0700000000000003
 40
0.6
 50
0.0
 51
360.0
 73
         1
 97
        1
330
466
 75
         0
 76
         1
 98
        1
 10
0.0
 20
0.0
  0
CIRCLE
  5
468
100
AcDbEntity
  8
PART_HOLES_LAYER_TOP
100
AcDbCircle
 10
128.215
 20
8.07
 30
0.0
 40
0.6
  0
HATCH
  5
469
100
AcDbEntity
  8
PART_HOLES_LAYER_TOP
100
AcDbHatch
 10
0.0
 20
0.0
 30
0.0
210
0.0
220
0.0
230
1.0
  2
SOLID
 70
         1
 71
         1
 91
        1
 92
        1
 93
        1
 72
         2
 10
128.215
 20
8.0700000000000003
 40
0.6
 50
0.0
 51
360.0
 73
         1
 97
        1
330
468
 75
         0
 76
         1
 98
        1
 10
0.0
 20
0.0
  0
CIRCLE
  5
46A
100
AcDbEntity
  8
PART_HOLES_LAYER_TOP
100
AcDbCircle
 10
136.56
 20
9.49
 30
0.0
 40
1.5
  0
HATCH
  5
46B
100
AcDbEntity
  8
PART_HOLES_LAYER_TOP
100
AcDbHatch
 10
0.0
 20
0.0
 30
0.0
210
0.0
220
0.0
230
1.0
  2
SOLID
 70
         1
 71
         1
 91
        1
 92
        1
 93
        1
 72
         2
 10
136.56
 20
9.4900000000000002
 40
1.5
 50
0.0
 51
360.0
 73
         1
 97
        1
330
46A
 75
         0
 76
         1
 98
        1
 10
0.0
 20
0.0
  0
CIRCLE
  5
46C
100
AcDbEntity
  8
PART_HOLES_LAYER_TOP
100
AcDbCircle
 10
111.56
 20
9.49
 30
0.0
 40
1.5
  0
HATCH
  5
46D
100
AcDbEntity
  8
PART_HOLES_LAYER_TOP
100
AcDbHatch
 10
0.0
 20
0.0
 30
0.0
210
0.0
220
0.0
230
1.0
  2
SOLID
 70
         1
 71
         1
 91
        1
 92
        1
 93
        1
 72
         2
 10
111.56
 20
9.4900000000000002
 40
1.5
 50
0.0
 51
360.0
 73
         1
 97
        1
330
46C
 75
         0
 76
         1
 98
        1
 10
0.0
 20
0.0
  0
CIRCLE
  5
46E
100
AcDbEntity
  8
PART_HOLES_LAYER_TOP
100
AcDbCircle
 10
121.29
 20
10.91
 30
0.0
 40
0.6
  0
HATCH
  5
46F
100
AcDbEntity
  8
PART_HOLES_LAYER_TOP
100
AcDbHatch
 10
0.0
 20
0.0
 30
0.0
210
0.0
220
0.0
230
1.0
  2
SOLID
 70
         1
 71
         1
 91
        1
 92
        1
 93
        1
 72
         2
 10
121.29000000000001
 20
10.91
 40
0.6
 50
0.0
 51
360.0
 73
         1
 97
        1
330
46E
 75
         0
 76
         1
 98
        1
 10
0.0
 20
0.0
  0
CIRCLE
  5
470
100
AcDbEntity
  8
PART_HOLES_LAYER_TOP
100
AcDbCircle
 10
129.6
 20
10.91
 30
0.0
 40
0.6
  0
HATCH
  5
471
100
AcDbEntity
  8
PART_HOLES_LAYER_TOP
100
AcDbHatch
 10
0.0
 20
0.0
 30
0.0
210
0.0
220
0.0
230
1.0
  2
SOLID
 70
         1
 71
         1
 91
        1
 92
        1
 93
        1
 72
         2
 10
129.59999999999999
 20
10.91
 40
0.6
 50
0.0
 51
360.0
 73
         1
 97
        1
330
470
 75
         0
 76
         1
 98
        1
 10
0.0
 20
0.0
  0
CIRCLE
  5
472
100
AcDbEntity
  8
PART_HOLES_LAYER_TOP
100
AcDbCircle
 10
126.83
 20
10.91
 30
0.0
 40
0.6
  0
HATCH
  5
473
100
AcDbEntity
  8
PART_HOLES_LAYER_TOP
100
AcDbHatch
 10
0.0
 20
0.0
 30
0.0
210
0.0
220
0.0
230
1.0
  2
SOLID
 70
         1
 71
         1
 91
        1
 92
        1
 93
        1
 72
         2
 10
126.83
 20
10.91
 40
0.6
 50
0.0
 51
360.0
 73
         1
 97
        1
330
472
 75
         0
 76
         1
 98
        1
 10
0.0
 20
0.0
  0
CIRCLE
  5
474
100
AcDbEntity
  8
PART_HOLES_LAYER_TOP
100
AcDbCircle
 10
118.52
 20
10.91
 30
0.0
 40
0.6
  0
HATCH
  5
475
100
AcDbEntity
  8
PART_HOLES_LAYER_TOP
100
AcDbHatch
 10
0.0
 20
0.0
 30
0.0
210
0.0
220
0.0
230
1.0
  2
SOLID
 70
         1
 71
         1
 91
        1
 92
        1
 93
        1
 72
         2
 10
118.52
 20
10.91
 40
0.6
 50
0.0
 51
360.0
 73
         1
 97
        1
330
474
 75
         0
 76
         1
 98
        1
 10
0.0
 20
0.0
  0
CIRCLE
  5
476
100
AcDbEntity
  8
PART_HOLES_LAYER_TOP
100
AcDbCircle
 10
124.06
 20
10.91
 30
0.0
 40
0.6
  0
HATCH
  5
477
100
AcDbEntity
  8
PART_HOLES_LAYER_TOP
100
AcDbHatch
 10
0.0
 20
0.0
 30
0.0
210
0.0
220
0.0
230
1.0
  2
SOLID
 70
         1
 71
         1
 91
        1
 92
        1
 93
        1
 72
         2
 10
124.06
 20
10.91
 40
0.6
 50
0.0
 51
360.0
 73
         1
 97
        1
330
476
 75
         0
 76
         1
 98
        1
 10
0.0
 20
0.0
  0
CIRCLE
  5
478
100
AcDbEntity
  8
PART_HOLES_LAYER_TOP
100
AcDbCircle
 10
64.7
 20
4.7
 30
0.0
 40
0.45
  0
HATCH
  5
479
100
AcDbEntity
  8
PART_HOLES_LAYER_TOP
100
AcDbHatch
 10
0.0
 20
0.0
 30
0.0
210
0.0
220
0.0
230
1.0
  2
SOLID
 70
         1
 71
         1
 91
        1
 92
        1
 93
        1
 72
         2
 10
64.700000000000003
 20
4.7000000000000002
 40
0.45
 50
0.0
 51
360.0
 73
         1
 97
        1
330
478
 75
         0
 76
         1
 98
        1
 10
0.0
 20
0.0
  0
CIRCLE
  5
47A
100
AcDbEntity
  8
PART_HOLES_LAYER_TOP
100
AcDbCircle
 10
64.7
 20
2.16
 30
0.0
 40
0.45
  0
HATCH
  5
47B
100
AcDbEntity
  8
PART_HOLES_LAYER_TOP
100
AcDbHatch
 10
0.0
 20
0.0
 30
0.0
210
0.0
220
0.0
230
1.0
  2
SOLID
 70
         1
 71
         1
 91
        1
 92
        1
 93
        1
 72
         2
 10
64.700000000000003
 20
2.1600000000000001
 40
0.45
 50
0.0
 51
360.0
 73
         1
 97
        1
330
47A
 75
         0
 76
         1
 98
        1
 10
0.0
 20
0.0
  0
CIRCLE
  5
47C
100
AcDbEntity
  8
PART_HOLES_LAYER_TOP
100
AcDbCircle
 10
72.2
 20
4.7
 30
0.0
 40
0.45
  0
HATCH
  5
47D
100
AcDbEntity
  8
PART_HOLES_LAYER_TOP
100
AcDbHatch
 10
0.0
 20
0.0
 30
0.0
210
0.0
220
0.0
230
1.0
  2
SOLID
 70
         1
 71
         1
 91
        1
 92
        1
 93
        1
 72
         2
 10
72.200000000000003
 20
4.7000000000000002
 40
0.45
 50
0.0
 51
360.0
 73
         1
 97
        1
330
47C
 75
         0
 76
         1
 98
        1
 10
0.0
 20
0.0
  0
CIRCLE
  5
47E
100
AcDbEntity
  8
PART_HOLES_LAYER_TOP
100
AcDbCircle
 10
72.2
 20
2.16
 30
0.0
 40
0.45
  0
HATCH
  5
47F
100
AcDbEntity
  8
PART_HOLES_LAYER_TOP
100
AcDbHatch
 10
0.0
 20
0.0
 30
0.0
210
0.0
220
0.0
230
1.0
  2
SOLID
 70
         1
 71
         1
 91
        1
 92
        1
 93
        1
 72
         2
 10
72.200000000000003
 20
2.1600000000000001
 40
0.45
 50
0.0
 51
360.0
 73
         1
 97
        1
330
47E
 75
         0
 76
         1
 98
        1
 10
0.0
 20
0.0
  0
CIRCLE
  5
480
100
AcDbEntity
  8
PART_HOLES_LAYER_TOP
100
AcDbCircle
 10
87.4
 20
18.7
 30
0.0
 40
0.45
  0
HATCH
  5
481
100
AcDbEntity
  8
PART_HOLES_LAYER_TOP
100
AcDbHatch
 10
0.0
 20
0.0
 30
0.0
210
0.0
220
0.0
230
1.0
  2
SOLID
 70
         1
 71
         1
 91
        1
 92
        1
 93
        1
 72
         2
 10
87.400000000000006
 20
18.699999999999999
 40
0.45
 50
0.0
 51
360.0
 73
         1
 97
        1
330
480
 75
         0
 76
         1
 98
        1
 10
0.0
 20
0.0
  0
CIRCLE
  5
482
100
AcDbEntity
  8
PART_HOLES_LAYER_TOP
100
AcDbCircle
 10
89.94
 20
18.7
 30
0.0
 40
0.45
  0
HATCH
  5
483
100
AcDbEntity
  8
PART_HOLES_LAYER_TOP
100
AcDbHatch
 10
0.0
 20
0.0
 30
0.0
210
0.0
220
0.0
230
1.0
  2
SOLID
 70
         1
 71
         1
 91
        1
 92
        1
 93
        1
 72
         2
 10
89.939999999999998
 20
18.699999999999999
 40
0.45
 50
0.0
 51
360.0
 73
         1
 97
        1
330
482
 75
         0
 76
         1
 98
        1
 10
0.0
 20
0.0
  0
ENDSEC
  0
SECTION
  2
OBJECTS
  0
DICTIONARY
  5
19
100
AcDbDictionary
  3
ACAD_GROUP
350
1A
  3
ACAD_MLINESTYLE
350
1B
  0
DICTIONARY
  5
1A
102
{ACAD_REACTORS
330
19
102
}
100
AcDbDictionary
  0
DICTIONARY
  5
1B
102
{ACAD_REACTORS
330
19
102
}
100
AcDbDictionary
  3
STANDARD
350
1C
  0
MLINESTYLE
  5
1C
102
{ACAD_REACTORS
330
1B
102
}
100
AcDbMlineStyle
  2
STANDARD
 70
         0
  3

 62
         0
 51
90.0
 52
90.0
 71
         2
 49
0.5
 62
       256
  6
BYLAYER
 49
-0.5
 62
       256
  6
BYLAYER
  0
DICTIONARY
  5
22
102
{ACAD_REACTORS
330
19
102
}
100
AcDbDictionary
  0
ENDSEC
  0
EOF
