  0
SECTION
  2
HEADER
  9
$ACADVER
  1
AC1014
  9
$ACADMAINTVER
 70
         0
  9
$DWGCODEPAGE
  3
ANSI_1252
  9
$INSBASE
 10
0.0
 20
0.0
 30
0.0
  9
$EXTMIN
 10
-2.0
 20
-4.0
 30
0.0
  9
$EXTMAX
 10
183.0
 20
101.5
 30
0.0
  9
$LIMMIN
 10
0.0
 20
0.0
  9
$LIMMAX
 10
0.0
 20
0.0
  9
$ORTHOMODE
 70
         0
  9
$REGENMODE
 70
         1
  9
$FILLMODE
 70
         1
  9
$QTEXTMODE
 70
         0
  9
$MIRRTEXT
 70
         1
  9
$DRAGMODE
 70
         2
  9
$LTSCALE
 40
1.0
  9
$OSMODE
 70
         0
  9
$ATTMODE
 70
         1
  9
$TEXTSIZE
 40
0.2
  9
$TRACEWID
 40
0.05
  9
$TEXTSTYLE
  7
STANDARD
  9
$CLAYER
  8
0
  9
$CELTYPE
  6
CONTINUOUS
  9
$CECOLOR
 62
       256
  9
$CELTSCALE
 40
1.0
  9
$DELOBJ
 70
         1
  9
$DISPSILH
 70
         0
  9
$DIMSCALE
 40
1.0
  9
$DIMASZ
 40
0.18
  9
$DIMEXO
 40
0.0625
  9
$DIMDLI
 40
0.38
  9
$DIMRND
 40
0.0
  9
$DIMDLE
 40
0.0
  9
$DIMEXE
 40
0.18
  9
$DIMTP
 40
0.0
  9
$DIMTM
 40
0.0
  9
$DIMTXT
 40
0.18
  9
$DIMCEN
 40
0.09
  9
$DIMTSZ
 40
0.0
  9
$DIMTOL
 70
         0
  9
$DIMLIM
 70
         0
  9
$DIMTIH
 70
         1
  9
$DIMTOH
 70
         1
  9
$DIMSE1
 70
         0
  9
$DIMSE2
 70
         0
  9
$DIMTAD
 70
         0
  9
$DIMZIN
 70
         0
  9
$DIMBLK
  1

  9
$DIMASO
 70
         1
  9
$DIMSHO
 70
         1
  9
$DIMPOST
  1

  9
$DIMAPOST
  1

  9
$DIMALT
 70
         0
  9
$DIMALTD
 70
         2
  9
$DIMALTF
 40
25.4
  9
$DIMLFAC
 40
1.0
  9
$DIMTOFL
 70
         0
  9
$DIMTVP
 40
0.0
  9
$DIMTIX
 70
         0
  9
$DIMSOXD
 70
         0
  9
$DIMSAH
 70
         0
  9
$DIMBLK1
  1

  9
$DIMBLK2
  1

  9
$DIMSTYLE
  2
STANDARD
  9
$DIMCLRD
 70
         0
  9
$DIMCLRE
 70
         0
  9
$DIMCLRT
 70
         0
  9
$DIMTFAC
 40
1.0
  9
$DIMGAP
 40
0.09
  9
$DIMJUST
 70
         0
  9
$DIMSD1
 70
         0
  9
$DIMSD2
 70
         0
  9
$DIMTOLJ
 70
         1
  9
$DIMTZIN
 70
         0
  9
$DIMALTZ
 70
         0
  9
$DIMALTTZ
 70
         0
  9
$DIMFIT
 70
         3
  9
$DIMUPT
 70
         0
  9
$DIMUNIT
 70
         2
  9
$DIMDEC
 70
         4
  9
$DIMTDEC
 70
         4
  9
$DIMALTU
 70
         2
  9
$DIMALTTD
 70
         2
  9
$DIMTXSTY
  7
STANDARD
  9
$DIMAUNIT
 70
         0
  9
$LUNITS
 70
         2
  9
$LUPREC
 70
         4
  9
$SKETCHINC
 40
0.1
  9
$FILLETRAD
 40
0.0
  9
$AUNITS
 70
         0
  9
$AUPREC
 70
         0
  9
$MENU
  1
acad
  9
$ELEVATION
 40
0.0
  9
$PELEVATION
 40
0.0
  9
$THICKNESS
 40
0.0
  9
$LIMCHECK
 70
         0
  9
$BLIPMODE
 70
         1
  9
$CHAMFERA
 40
0.0
  9
$CHAMFERB
 40
0.0
  9
$CHAMFERC
 40
0.0
  9
$CHAMFERD
 40
0.0
  9
$SKPOLY
 70
         0
  9
$TDCREATE
 40
2455905.553506944
  9
$TDUPDATE
 40
0.000000000
  9
$TDINDWG
 40
0.0000000000
  9
$TDUSRTIMER
 40
0.0000000000
  9
$USRTIMER
 70
         1
  9
$ANGBASE
 50
0.0
  9
$ANGDIR
 70
         0
  9
$PDMODE
 70
         0
  9
$PDSIZE
 40
0.0
  9
$PLINEWID
 40
0.0
  9
$COORDS
 70
         0
  9
$SPLFRAME
 70
         0
  9
$SPLINETYPE
 70
         6
  9
$SPLINESEGS
 70
         8
  9
$ATTDIA
 70
         0
  9
$ATTREQ
 70
         1
  9
$HANDLING
 70
         1
  9
$HANDSEED
  5
15F
  9
$SURFTAB1
 70
         6
  9
$SURFTAB2
 70
         6
  9
$SURFTYPE
 70
         6
  9
$SURFU
 70
         6
  9
$SURFV
 70
         6
  9
$UCSNAME
  2

  9
$UCSORG
 10
0.0
 20
0.0
 30
0.0
  9
$UCSXDIR
 10
1.0
 20
0.0
 30
0.0
  9
$UCSYDIR
 10
0.0
 20
1.0
 30
0.0
  9
$PUCSNAME
  2

  9
$PUCSORG
 10
0.0
 20
0.0
 30
0.0
  9
$PUCSXDIR
 10
1.0
 20
0.0
 30
0.0
  9
$PUCSYDIR
 10
0.0
 20
1.0
 30
0.0
  9
$USERI1
 70
        -3
  9
$USERI2
 70
         0
  9
$USERI3
 70
         0
  9
$USERI4
 70
         0
  9
$USERI5
 70
         0
  9
$USERR1
 40
0.0
  9
$USERR2
 40
0.0
  9
$USERR3
 40
0.0
  9
$USERR4
 40
0.0
  9
$USERR5
 40
0.0
  9
$WORLDVIEW
 70
         1
  9
$SHADEDGE
 70
         3
  9
$SHADEDIF
 70
        70
  9
$TILEMODE
 70
         1
  9
$MAXACTVP
 70
        16
  9
$PINSBASE
 10
0.0
 20
0.0
 30
0.0
  9
$PLIMCHECK
 70
         0
  9
$PEXTMIN
 10
1.0000000000E+20
 20
1.0000000000E+20
 30
1.0000000000E+20
  9
$PEXTMAX
 10
-1.0000000000E+20
 20
-1.0000000000E+20
 30
-1.0000000000E+20
  9
$PLIMMIN
 10
0.0
 20
0.0
  9
$PLIMMAX
 10
12.0
 20
9.0
  9
$UNITMODE
 70
         0
  9
$VISRETAIN
 70
         0
  9
$PLINEGEN
 70
         1
  9
$PSLTSCALE
 70
         0
  9
$TREEDEPTH
 70
      3020
  9
$PICKSTYLE
 70
         1
  9
$CMLSTYLE
  2
STANDARD
  9
$CMLJUST
 70
         0
  9
$CMLSCALE
 40
1.0
  9
$PROXYGRAPHICS
 70
         0
  9
$MEASUREMENT
 70
         0
  0
ENDSEC
  0
SECTION
  2
CLASSES
  0
CLASS
  1
LWPOLYLINE
  2
AcDbPolyline
  3
"AutoCAD"
 90
        0
280
         0
281
         1
  0
CLASS
  1
IMAGE
  2
AcDbRasterImage
  3
ISM
 90
      127
280
         0
281
         1
  0
CLASS
  1
OLE2FRAME
  2
AcDbOle2Frame
  3
""
 90
        0
280
         0
281
         1
  0
CLASS
  1
HATCH
  2
AcDbHatch
  3
"ACAD_SEDONA"
 90
        0
280
         0
281
         1
  0
CLASS
  1
DICTIONARYVAR
  2
AcDbDictionaryVar
  3
"AutoCAD"
 90
        0
280
         0
281
         0
  0
CLASS
  1
RASTERVARIABLES
  2
AcDbRasterVariables
  3
ISM
 90
        0
280
         0
281
         0
  0
CLASS
  1
IMAGEDEF
  2
AcDbRasterImageDef
  3
ISM
 90
        0
280
         0
281
         0
  0
CLASS
  1
IMAGEDEF_REACTOR
  2
AcDbRasterImageDefReactor
  3
ISM
 90
        1
280
         0
281
         0
  0
CLASS
  1
IDBUFFER
  2
AcDbIdBuffer
  3
"Acad"
 90
        0
280
         0
281
         0
  0
CLASS
  1
SPATIAL_FILTER
  2
AcDbSpatialFilter
  3
"Acad"
 90
        0
280
         0
281
         0
  0
CLASS
  1
XRECORD
  2
AcDbXrecord
  3
"<Built In>"
 90
        0
280
         0
281
         0
  0
CLASS
  1
SORTENTSTABLE
  2
AcDbSortentsTable
  3
"AutoCAD"
 90
        0
280
         0
281
         0
  0
CLASS
  1
LAYER_INDEX
  2
AcDbLayerIndex
  3
"Acad"
 90
        0
280
         0
281
         0
  0
CLASS
  1
SPATIAL_INDEX
  2
AcDbSpatialIndex
  3
"Acad"
 90
        0
280
         0
281
         0
  0
CLASS
  1
OBJECT_PTR
  2
CAseDLPNTableRecord
  3
"ASE-LPNTableRecord"
 90
        1
280
         0
281
         0
  0
CLASS
  1
LAYOUT
  2
AcDbLayout
  3
"AutoCAD 2000"
 90
        0
280
         0
281
         0
  0
CLASS
  1
PLOTSETTINGS
  2
AcDbPlotSettings
  3
"AutoCAD 2000"
 90
        0
280
         0
281
         0
  0
CLASS
  1
ACDBDICTIONARYWDFLT
  2
AcDbDictionaryWithDefault
  3
"AutoCAD 2000"
 90
        0
280
         0
281
         0
  0
CLASS
  1
ACDBPLACEHOLDER
  2
AcDbPlaceHolder
  3
"AutoCAD 2000"
 90
        0
280
         0
281
         0
  0
CLASS
  1
VBA_PROJECT
  2
AcDbVbaProject
  3
"acadvba"
 90
        0
280
         0
281
         0
  0
CLASS
  1
WIPEOUT
  2
AcDbWipeout
  3
WipeOut|AutoCAD Express Tool|expresstools@autodesk.com
 90
      127
280
         0
281
         1
  0
CLASS
  1
WIPEOUTVARIABLES
  2
AcDbWipeoutVariables
  3
WipeOut|AutoCAD Express Tool|expresstools@autodesk.com
 90
        0
280
         0
281
         0
  0
CLASS
  1
RTEXT
  2
RText
  3
RText|AutoCAD Express Tool|expresstools@autodesk.com
 90
        0
280
         0
281
         1
  0
CLASS
  1
ARCALIGNEDTEXT
  2
AcDbArcAlignedText
  3
ATEXT|AutoCAD Express Tool|expresstools@autodesk.com
 90
        0
280
         0
281
         1
  0
ENDSEC
  0
SECTION
  2
TABLES
  0
TABLE
  2
VPORT
  5
7
100
AcDbSymbolTable
 70
         1
  0
VPORT
  5
15
100
AcDbSymbolTableRecord
100
AcDbViewportTableRecord
  2
*ACTIVE
 70
         0
 10
0.0
 20
0.0
 11
1.0
 21
1.0
 12
6.591288
 22
4.579184
 13
0.0
 23
0.0
 14
1.0
 24
1.0
 15
0.0
 25
0.0
 16
0.0
 26
0.0
 36
1.0
 17
0.0
 27
0.0
 37
0.0
 40
9.158369
 41
0.688564
 42
50.0
 43
0.0
 44
0.0
 50
0.0
 51
0.0
 71
         0
 72
       100
 73
         1
 74
         1
 75
         0
 76
         0
 77
         0
 78
         0
  0
ENDTAB
  0
TABLE
  2
LTYPE
  5
4
100
AcDbSymbolTable
 70
         3
  0
LTYPE
  5
11
100
AcDbSymbolTableRecord
100
AcDbLinetypeTableRecord
  2
BYBLOCK
 70
        64
  3

 72
        65
 73
         0
 40
0.0
  0
LTYPE
  5
12
100
AcDbSymbolTableRecord
100
AcDbLinetypeTableRecord
  2
BYLAYER
 70
        64
  3

 72
        65
 73
         0
 40
0.0
  0
LTYPE
  5
13
100
AcDbSymbolTableRecord
100
AcDbLinetypeTableRecord
  2
CONTINUOUS
 70
        64
  3
Solid line
 72
        65
 73
         0
 40
0.0
  0
ENDTAB
  0
TABLE
  2
LAYER
  5
2
100
AcDbSymbolTable
 70
         6
  0
LAYER
  5
14
100
AcDbSymbolTableRecord
100
AcDbLayerTableRecord
  2
0
 70
         0
 62
         7
  6
CONTINUOUS
  0
LAYER
  5
24
100
AcDbSymbolTableRecord
100
AcDbLayerTableRecord
  2
BOARD_OUTLINE
 70
         0
 62
        10
  6
CONTINUOUS
  0
LAYER
  5
25
100
AcDbSymbolTableRecord
100
AcDbLayerTableRecord
  2
GENERATED_SILKSCREEN_TOP
 70
         0
 62
       140
  6
CONTINUOUS
  0
LAYER
  5
26
100
AcDbSymbolTableRecord
100
AcDbLayerTableRecord
  2
MOUNTING_HOLES_LAYER_TOP
 70
         0
 62
        42
  6
CONTINUOUS
  0
LAYER
  5
27
100
AcDbSymbolTableRecord
100
AcDbLayerTableRecord
  2
PART_HOLES_LAYER_TOP
 70
         0
 62
        30
  6
CONTINUOUS
  0
LAYER
  5
28
100
AcDbSymbolTableRecord
100
AcDbLayerTableRecord
  2
SOLDERMASK_PADS_TOP
 70
         0
 62
       180
  6
CONTINUOUS
  0
ENDTAB
  0
TABLE
  2
STYLE
  5
3
100
AcDbSymbolTable
 70
         1
  0
STYLE
  5
17
100
AcDbSymbolTableRecord
100
AcDbTextStyleTableRecord
  2
STANDARD
 70
         0
 40
0.0
 41
1.0
 50
0.0
 71
         0
 42
0.0
  3
txt
  4

  0
ENDTAB
  0
TABLE
  2
VIEW
  5
5
100
AcDbSymbolTable
 70
         0
  0
ENDTAB
  0
TABLE
  2
UCS
  5
6
100
AcDbSymbolTable
 70
         0
  0
ENDTAB
  0
TABLE
  2
APPID
  5
8
100
AcDbSymbolTable
 70
         1
  0
APPID
  5
16
100
AcDbSymbolTableRecord
100
AcDbRegAppTableRecord
  2
ACAD
 70
         0
  0
ENDTAB
  0
TABLE
  2
DIMSTYLE
  5
9
100
AcDbSymbolTable
 70
         1
  0
DIMSTYLE
105
18
100
AcDbSymbolTableRecord
100
AcDbDimStyleTableRecord
  2
STANDARD
 70
         0
  3

  4

  5

  6

  7

 40
1.0
 41
0.18
 42
0.0625
 43
0.38
 44
0.18
 45
0.0
 46
0.0
 47
0.0
 48
0.0
 71
         0
 72
         0
 73
         1
 74
         1
 75
         0
 76
         0
 77
         0
 78
         0
140
0.18
141
0.09
142
0.0
143
25.4
144
1.0
145
0.0
146
1.0
147
0.09
170
         0
171
         2
172
         0
173
         0
174
         0
175
         0
176
         0
177
         0
178
         0
270
         2
271
         4
272
         4
273
         2
274
         2
275
         0
280
         0
281
         0
282
         0
283
         1
284
         0
285
         0
286
         0
287
         3
288
         0
340
17
  0
ENDTAB
  0
TABLE
  2
BLOCK_RECORD
  5
1
100
AcDbSymbolTable
 70
         0
  0
BLOCK_RECORD
  5
A
100
AcDbSymbolTableRecord
100
AcDbBlockTableRecord
  2
*MODEL_SPACE
  0
BLOCK_RECORD
  5
B
100
AcDbSymbolTableRecord
100
AcDbBlockTableRecord
  2
*PAPER_SPACE
  0
ENDTAB
  0
ENDSEC
  0
SECTION
  2
BLOCKS
  0
BLOCK
  5
D
100
AcDbEntity
  8
0
100
AcDbBlockBegin
  2
*MODEL_SPACE
 70
         0
 10
0.0
 20
0.0
 30
0.0
  3
*MODEL_SPACE
  1

  0
ENDBLK
  5
E
100
AcDbEntity
  8
0
100
AcDbBlockEnd
  0
BLOCK
  5
F
100
AcDbEntity
 67
         1
  8
0
100
AcDbBlockBegin
  2
*PAPER_SPACE
 70
         0
 10
0.0
 20
0.0
 30
0.0
  3
*PAPER_SPACE
  1

  0
ENDBLK
  5
10
100
AcDbEntity
 67
         1
  8
0
100
AcDbBlockEnd
  0
ENDSEC
  0
SECTION
  2
ENTITIES
  0
LWPOLYLINE
  5
29
100
AcDbEntity
  8
BOARD_OUTLINE
100
AcDbPolyline
 90
        4
 70
         1
 43
0.2
 10
-2.0
 20
-4.0
 10
-2.0
 20
101.5
 10
183.0
 20
101.5
 10
183.0
 20
-4.0
  0
LWPOLYLINE
  5
2A
100
AcDbEntity
  8
GENERATED_SILKSCREEN_TOP
100
AcDbPolyline
 90
       30
 70
         0
 43
0.07
 10
180.663
 20
44.928
 10
180.661
 20
44.88
 10
180.661
 20
44.635
 10
180.663
 20
44.616
 10
180.668
 20
44.597
 10
180.677
 20
44.581
 10
180.689
 20
44.566
 10
180.705
 20
44.554
 10
180.721
 20
44.545
 10
180.74
 20
44.539
 10
180.759
 20
44.538
 10
180.857
 20
44.538
 10
180.877
 20
44.539
 10
180.895
 20
44.544
 10
180.911
 20
44.553
 10
180.926
 20
44.565
 10
180.939
 20
44.58
 10
180.947
 20
44.596
 10
180.953
 20
44.615
 10
180.954
 20
44.635
 10
180.954
 20
44.831
 10
180.953
 20
44.85
 10
180.948
 20
44.869
 10
180.939
 20
44.885
 10
180.927
 20
44.9
 10
180.912
 20
44.912
 10
180.896
 20
44.921
 10
180.877
 20
44.927
 10
180.857
 20
44.928
 10
180.663
 20
44.928
  0
LWPOLYLINE
  5
2B
100
AcDbEntity
  8
GENERATED_SILKSCREEN_TOP
100
AcDbPolyline
 90
       99
 70
         0
 43
0.07
 10
180.68
 20
45.026
 10
180.857
 20
45.026
 10
180.876
 20
45.025
 10
180.895
 20
45.022
 10
180.914
 20
45.018
 10
180.931
 20
45.012
 10
180.948
 20
45.004
 10
180.964
 20
44.994
 10
180.98
 20
44.982
 10
180.995
 20
44.969
 10
181.008
 20
44.955
 10
181.02
 20
44.939
 10
181.03
 20
44.923
 10
181.038
 20
44.906
 10
181.044
 20
44.888
 10
181.048
 20
44.87
 10
181.051
 20
44.851
 10
181.052
 20
44.831
 10
181.052
 20
44.635
 10
181.051
 20
44.616
 10
181.049
 20
44.597
 10
181.044
 20
44.578
 10
181.038
 20
44.561
 10
181.03
 20
44.544
 10
181.02
 20
44.528
 10
181.009
 20
44.512
 10
180.995
 20
44.497
 10
180.981
 20
44.484
 10
180.965
 20
44.472
 10
180.949
 20
44.462
 10
180.932
 20
44.454
 10
180.915
 20
44.448
 10
180.896
 20
44.444
 10
180.877
 20
44.441
 10
180.857
 20
44.44
 10
180.759
 20
44.44
 10
180.74
 20
44.441
 10
180.721
 20
44.444
 10
180.703
 20
44.448
 10
180.685
 20
44.454
 10
180.668
 20
44.462
 10
180.652
 20
44.472
 10
180.636
 20
44.483
 10
180.622
 20
44.497
 10
180.608
 20
44.511
 10
180.596
 20
44.527
 10
180.586
 20
44.543
 10
180.578
 20
44.56
 10
180.572
 20
44.578
 10
180.567
 20
44.596
 10
180.565
 20
44.615
 10
180.564
 20
44.635
 10
180.564
 20
44.88
 10
180.565
 20
44.914
 10
180.567
 20
44.948
 10
180.571
 20
44.982
 10
180.577
 20
45.015
 10
180.584
 20
45.048
 10
180.594
 20
45.08
 10
180.604
 20
45.112
 10
180.617
 20
45.143
 10
180.626
 20
45.165
 10
180.637
 20
45.186
 10
180.649
 20
45.207
 10
180.662
 20
45.227
 10
180.676
 20
45.247
 10
180.691
 20
45.266
 10
180.707
 20
45.284
 10
180.724
 20
45.302
 10
180.76
 20
45.335
 10
180.8
 20
45.365
 10
180.842
 20
45.39
 10
180.887
 20
45.413
 10
180.908
 20
45.417
 10
180.917
 20
45.416
 10
180.926
 20
45.414
 10
180.934
 20
45.409
 10
180.942
 20
45.402
 10
180.947
 20
45.394
 10
180.951
 20
45.385
 10
180.954
 20
45.376
 10
180.954
 20
45.367
 10
180.953
 20
45.353
 10
180.948
 20
45.342
 10
180.944
 20
45.337
 10
180.939
 20
45.332
 10
180.932
 20
45.327
 10
180.924
 20
45.323
 10
180.889
 20
45.306
 10
180.855
 20
45.287
 10
180.824
 20
45.263
 10
180.809
 20
45.25
 10
180.794
 20
45.236
 10
180.767
 20
45.206
 10
180.743
 20
45.175
 10
180.723
 20
45.141
 10
180.706
 20
45.105
 10
180.691
 20
45.066
 10
180.68
 20
45.026
  0
LWPOLYLINE
  5
2C
100
AcDbEntity
  8
GENERATED_SILKSCREEN_TOP
100
AcDbPolyline
 90
      108
 70
         0
 43
0.07
 10
181.016
 20
87.241
 10
180.7
 20
86.738
 10
181.003
 20
86.738
 10
181.014
 20
86.737
 10
181.023
 20
86.734
 10
181.031
 20
86.729
 10
181.039
 20
86.723
 10
181.044
 20
86.715
 10
181.049
 20
86.707
 10
181.051
 20
86.698
 10
181.052
 20
86.689
 10
181.051
 20
86.68
 10
181.049
 20
86.672
 10
181.045
 20
86.664
 10
181.04
 20
86.656
 10
181.033
 20
86.649
 10
181.025
 20
86.644
 10
181.015
 20
86.641
 10
181.003
 20
86.64
 10
180.613
 20
86.64
 10
180.6
 20
86.641
 10
180.589
 20
86.642
 10
180.58
 20
86.645
 10
180.573
 20
86.65
 10
180.567
 20
86.655
 10
180.563
 20
86.662
 10
180.56
 20
86.67
 10
180.56
 20
86.679
 10
180.56
 20
86.687
 10
180.562
 20
86.696
 10
180.566
 20
86.705
 10
180.571
 20
86.715
 10
180.932
 20
87.29
 10
180.94
 20
87.309
 10
180.946
 20
87.328
 10
180.949
 20
87.346
 10
180.95
 20
87.364
 10
180.949
 20
87.379
 10
180.947
 20
87.394
 10
180.943
 20
87.408
 10
180.938
 20
87.422
 10
180.931
 20
87.435
 10
180.923
 20
87.448
 10
180.913
 20
87.461
 10
180.901
 20
87.472
 10
180.889
 20
87.483
 10
180.876
 20
87.493
 10
180.862
 20
87.501
 10
180.847
 20
87.507
 10
180.832
 20
87.512
 10
180.816
 20
87.516
 10
180.799
 20
87.518
 10
180.781
 20
87.519
 10
180.763
 20
87.518
 10
180.745
 20
87.514
 10
180.728
 20
87.508
 10
180.71
 20
87.5
 10
180.694
 20
87.488
 10
180.679
 20
87.475
 10
180.666
 20
87.46
 10
180.654
 20
87.444
 10
180.646
 20
87.434
 10
180.635
 20
87.426
 10
180.613
 20
87.421
 10
180.604
 20
87.422
 10
180.595
 20
87.425
 10
180.587
 20
87.429
 10
180.579
 20
87.435
 10
180.572
 20
87.442
 10
180.567
 20
87.45
 10
180.564
 20
87.459
 10
180.563
 20
87.469
 10
180.563
 20
87.475
 10
180.565
 20
87.481
 10
180.568
 20
87.489
 10
180.571
 20
87.497
 10
180.59
 20
87.522
 10
180.611
 20
87.544
 10
180.635
 20
87.565
 10
180.662
 20
87.583
 10
180.676
 20
87.591
 10
180.69
 20
87.598
 10
180.704
 20
87.603
 10
180.718
 20
87.608
 10
180.732
 20
87.612
 10
180.746
 20
87.615
 10
180.76
 20
87.616
 10
180.774
 20
87.617
 10
180.802
 20
87.616
 10
180.829
 20
87.612
 10
180.855
 20
87.606
 10
180.88
 20
87.598
 10
180.904
 20
87.587
 10
180.926
 20
87.574
 10
180.948
 20
87.559
 10
180.968
 20
87.541
 10
180.987
 20
87.522
 10
181.003
 20
87.501
 10
181.016
 20
87.48
 10
181.027
 20
87.458
 10
181.036
 20
87.435
 10
181.042
 20
87.411
 10
181.046
 20
87.386
 10
181.047
 20
87.361
 10
181.045
 20
87.33
 10
181.039
 20
87.3
 10
181.03
 20
87.27
 10
181.016
 20
87.241
  0
LWPOLYLINE
  5
2D
100
AcDbEntity
  8
GENERATED_SILKSCREEN_TOP
100
AcDbPolyline
 90
       65
 70
         0
 43
0.07
 10
180.6595
 20
24.126
 10
180.6755
 20
24.127
 10
180.6915
 20
24.129
 10
180.7065
 20
24.132
 10
180.7205
 20
24.138
 10
180.7335
 20
24.144
 10
180.7465
 20
24.152
 10
180.7575
 20
24.161
 10
180.7685
 20
24.172
 10
180.7775
 20
24.183
 10
180.7845
 20
24.194
 10
180.7905
 20
24.206
 10
180.7965
 20
24.218
 10
180.7995
 20
24.231
 10
180.8025
 20
24.245
 10
180.8045
 20
24.258
 10
180.8055
 20
24.273
 10
180.8045
 20
24.287
 10
180.8025
 20
24.301
 10
180.7995
 20
24.314
 10
180.7965
 20
24.327
 10
180.7905
 20
24.34
 10
180.7845
 20
24.351
 10
180.7775
 20
24.362
 10
180.7685
 20
24.373
 10
180.7585
 20
24.384
 10
180.7475
 20
24.393
 10
180.7345
 20
24.401
 10
180.7215
 20
24.408
 10
180.7075
 20
24.413
 10
180.6925
 20
24.416
 10
180.6765
 20
24.418
 10
180.6595
 20
24.419
 10
180.6435
 20
24.418
 10
180.6275
 20
24.416
 10
180.6135
 20
24.413
 10
180.5995
 20
24.408
 10
180.5855
 20
24.401
 10
180.5735
 20
24.393
 10
180.5615
 20
24.384
 10
180.5495
 20
24.373
 10
180.5415
 20
24.362
 10
180.5335
 20
24.351
 10
180.5275
 20
24.339
 10
180.5225
 20
24.327
 10
180.5185
 20
24.314
 10
180.5155
 20
24.301
 10
180.5135
 20
24.287
 10
180.5135
 20
24.273
 10
180.5135
 20
24.258
 10
180.5155
 20
24.244
 10
180.5185
 20
24.231
 10
180.5225
 20
24.218
 10
180.5275
 20
24.205
 10
180.5335
 20
24.194
 10
180.5415
 20
24.183
 10
180.5495
 20
24.172
 10
180.5605
 20
24.161
 10
180.5715
 20
24.152
 10
180.5835
 20
24.144
 10
180.5975
 20
24.138
 10
180.6115
 20
24.132
 10
180.6265
 20
24.129
 10
180.6425
 20
24.127
 10
180.6595
 20
24.126
  0
LWPOLYLINE
  5
2E
100
AcDbEntity
  8
GENERATED_SILKSCREEN_TOP
100
AcDbPolyline
 90
       65
 70
         0
 43
0.07
 10
180.6595
 20
24.028
 10
180.6365
 20
24.027
 10
180.6155
 20
24.025
 10
180.5955
 20
24.02
 10
180.5765
 20
24.013
 10
180.5585
 20
24.005
 10
180.5425
 20
23.994
 10
180.5265
 20
23.982
 10
180.5125
 20
23.968
 10
180.5015
 20
23.953
 10
180.4915
 20
23.939
 10
180.4825
 20
23.923
 10
180.4765
 20
23.906
 10
180.4705
 20
23.889
 10
180.4665
 20
23.871
 10
180.4645
 20
23.853
 10
180.4635
 20
23.833
 10
180.4645
 20
23.814
 10
180.4665
 20
23.795
 10
180.4705
 20
23.777
 10
180.4765
 20
23.76
 10
180.4825
 20
23.744
 10
180.4915
 20
23.728
 10
180.5015
 20
23.713
 10
180.5125
 20
23.699
 10
180.5275
 20
23.685
 10
180.5425
 20
23.672
 10
180.5595
 20
23.662
 10
180.5765
 20
23.653
 10
180.5955
 20
23.646
 10
180.6155
 20
23.641
 10
180.6365
 20
23.639
 10
180.6595
 20
23.638
 10
180.6815
 20
23.639
 10
180.7025
 20
23.641
 10
180.7235
 20
23.646
 10
180.7415
 20
23.653
 10
180.7595
 20
23.661
 10
180.7765
 20
23.672
 10
180.7915
 20
23.684
 10
180.8055
 20
23.698
 10
180.8175
 20
23.712
 10
180.8275
 20
23.727
 10
180.8355
 20
23.743
 10
180.8425
 20
23.76
 10
180.8475
 20
23.777
 10
180.8515
 20
23.795
 10
180.8535
 20
23.813
 10
180.8545
 20
23.833
 10
180.8535
 20
23.852
 10
180.8515
 20
23.87
 10
180.8475
 20
23.888
 10
180.8425
 20
23.905
 10
180.8355
 20
23.922
 10
180.8275
 20
23.937
 10
180.8175
 20
23.952
 10
180.8065
 20
23.967
 10
180.7925
 20
23.981
 10
180.7765
 20
23.994
 10
180.7595
 20
24.004
 10
180.7425
 20
24.013
 10
180.7235
 20
24.02
 10
180.7035
 20
24.024
 10
180.6815
 20
24.027
 10
180.6595
 20
24.028
  0
LWPOLYLINE
  5
2F
100
AcDbEntity
  8
GENERATED_SILKSCREEN_TOP
100
AcDbPolyline
 90
      109
 70
         0
 43
0.07
 10
180.8215
 20
24.083
 10
180.8515
 20
24.062
 10
180.8785
 20
24.038
 10
180.9005
 20
24.01
 10
180.9195
 20
23.978
 10
180.9275
 20
23.961
 10
180.9345
 20
23.943
 10
180.9395
 20
23.926
 10
180.9445
 20
23.908
 10
180.9485
 20
23.89
 10
180.9505
 20
23.871
 10
180.9525
 20
23.852
 10
180.9535
 20
23.833
 10
180.9515
 20
23.805
 10
180.9485
 20
23.777
 10
180.9425
 20
23.751
 10
180.9345
 20
23.725
 10
180.9245
 20
23.7
 10
180.9115
 20
23.677
 10
180.8965
 20
23.654
 10
180.8795
 20
23.632
 10
180.8585
 20
23.61
 10
180.8355
 20
23.592
 10
180.8105
 20
23.576
 10
180.7845
 20
23.563
 10
180.7555
 20
23.553
 10
180.7255
 20
23.546
 10
180.6935
 20
23.541
 10
180.6595
 20
23.54
 10
180.6255
 20
23.541
 10
180.5935
 20
23.546
 10
180.5635
 20
23.553
 10
180.5355
 20
23.563
 10
180.5085
 20
23.575
 10
180.4845
 20
23.591
 10
180.4605
 20
23.609
 10
180.4395
 20
23.631
 10
180.4225
 20
23.652
 10
180.4075
 20
23.674
 10
180.3945
 20
23.697
 10
180.3845
 20
23.722
 10
180.3765
 20
23.748
 10
180.3705
 20
23.775
 10
180.3675
 20
23.803
 10
180.3665
 20
23.833
 10
180.3665
 20
23.852
 10
180.3685
 20
23.871
 10
180.3705
 20
23.89
 10
180.3745
 20
23.908
 10
180.3785
 20
23.926
 10
180.3845
 20
23.943
 10
180.3915
 20
23.96
 10
180.3985
 20
23.977
 10
180.4075
 20
23.993
 10
180.4175
 20
24.009
 10
180.4275
 20
24.023
 10
180.4395
 20
24.037
 10
180.4525
 20
24.05
 10
180.4665
 20
24.062
 10
180.4815
 20
24.074
 10
180.4985
 20
24.084
 10
180.4795
 20
24.102
 10
180.4625
 20
24.122
 10
180.4485
 20
24.144
 10
180.4375
 20
24.168
 10
180.4275
 20
24.194
 10
180.4215
 20
24.22
 10
180.4175
 20
24.246
 10
180.4155
 20
24.273
 10
180.4165
 20
24.297
 10
180.4195
 20
24.32
 10
180.4245
 20
24.343
 10
180.4305
 20
24.364
 10
180.4395
 20
24.385
 10
180.4495
 20
24.404
 10
180.4625
 20
24.423
 10
180.4765
 20
24.441
 10
180.4945
 20
24.459
 10
180.5135
 20
24.474
 10
180.5335
 20
24.487
 10
180.5565
 20
24.498
 10
180.5795
 20
24.506
 10
180.6045
 20
24.512
 10
180.6315
 20
24.516
 10
180.6595
 20
24.517
 10
180.6865
 20
24.516
 10
180.7135
 20
24.512
 10
180.7375
 20
24.506
 10
180.7615
 20
24.498
 10
180.7835
 20
24.487
 10
180.8045
 20
24.474
 10
180.8235
 20
24.459
 10
180.8425
 20
24.441
 10
180.8565
 20
24.423
 10
180.8685
 20
24.404
 10
180.8795
 20
24.384
 10
180.8885
 20
24.364
 10
180.8945
 20
24.342
 10
180.8995
 20
24.32
 10
180.9025
 20
24.297
 10
180.9035
 20
24.273
 10
180.9025
 20
24.245
 10
180.8985
 20
24.218
 10
180.8915
 20
24.192
 10
180.8825
 20
24.167
 10
180.8715
 20
24.143
 10
180.8575
 20
24.121
 10
180.8405
 20
24.101
 10
180.8215
 20
24.083
  0
LWPOLYLINE
  5
30
100
AcDbEntity
  8
GENERATED_SILKSCREEN_TOP
100
AcDbPolyline
 90
       86
 70
         0
 43
0.07
 10
180.8055
 20
65.733
 10
180.9035
 20
65.733
 10
180.9135
 20
65.732
 10
180.9235
 20
65.729
 10
180.9315
 20
65.725
 10
180.9385
 20
65.718
 10
180.9445
 20
65.711
 10
180.9485
 20
65.702
 10
180.9515
 20
65.694
 10
180.9525
 20
65.684
 10
180.9515
 20
65.676
 10
180.9495
 20
65.667
 10
180.9455
 20
65.659
 10
180.9405
 20
65.651
 10
180.9335
 20
65.644
 10
180.9245
 20
65.639
 10
180.9145
 20
65.636
 10
180.9035
 20
65.635
 10
180.8055
 20
65.635
 10
180.8055
 20
65.489
 10
180.8045
 20
65.478
 10
180.8025
 20
65.468
 10
180.7975
 20
65.459
 10
180.7915
 20
65.452
 10
180.7845
 20
65.447
 10
180.7765
 20
65.443
 10
180.7675
 20
65.441
 10
180.7565
 20
65.44
 10
180.7475
 20
65.441
 10
180.7385
 20
65.443
 10
180.7305
 20
65.447
 10
180.7225
 20
65.452
 10
180.7165
 20
65.459
 10
180.7115
 20
65.467
 10
180.7095
 20
65.477
 10
180.7085
 20
65.489
 10
180.7085
 20
65.635
 10
180.4155
 20
65.635
 10
180.4035
 20
65.636
 10
180.3925
 20
65.638
 10
180.3845
 20
65.641
 10
180.3765
 20
65.645
 10
180.3715
 20
65.651
 10
180.3675
 20
65.658
 10
180.3645
 20
65.666
 10
180.3645
 20
65.675
 10
180.3655
 20
65.687
 10
180.3685
 20
65.698
 10
180.5635
 20
66.381
 10
180.5665
 20
66.389
 10
180.5695
 20
66.396
 10
180.5745
 20
66.402
 10
180.5805
 20
66.408
 10
180.5845
 20
66.41
 10
180.5895
 20
66.413
 10
180.5985
 20
66.416
 10
180.6085
 20
66.417
 10
180.6185
 20
66.416
 10
180.6285
 20
66.413
 10
180.6365
 20
66.409
 10
180.6435
 20
66.403
 10
180.6505
 20
66.396
 10
180.6555
 20
66.388
 10
180.6585
 20
66.379
 10
180.6595
 20
66.369
 10
180.6575
 20
66.354
 10
180.4795
 20
65.733
 10
180.7085
 20
65.733
 10
180.7085
 20
65.88
 10
180.7095
 20
65.889
 10
180.7115
 20
65.899
 10
180.7165
 20
65.908
 10
180.7225
 20
65.916
 10
180.7305
 20
65.921
 10
180.7385
 20
65.925
 10
180.7475
 20
65.928
 10
180.7565
 20
65.928
 10
180.7665
 20
65.928
 10
180.7745
 20
65.925
 10
180.7835
 20
65.921
 10
180.7905
 20
65.916
 10
180.7975
 20
65.909
 10
180.8025
 20
65.901
 10
180.8045
 20
65.891
 10
180.8055
 20
65.88
 10
180.8055
 20
65.733
  0
LWPOLYLINE
  5
31
100
AcDbEntity
  8
GENERATED_SILKSCREEN_TOP
100
AcDbPolyline
 90
       89
 70
         0
 43
0.07
 10
180.366
 20
45.357
 10
180.171
 20
44.478
 10
180.169
 20
44.47
 10
180.166
 20
44.463
 10
180.162
 20
44.456
 10
180.155
 20
44.45
 10
180.148
 20
44.445
 10
180.141
 20
44.442
 10
180.133
 20
44.44
 10
180.124
 20
44.439
 10
180.116
 20
44.44
 10
180.109
 20
44.441
 10
180.102
 20
44.444
 10
180.096
 20
44.447
 10
180.09
 20
44.452
 10
180.086
 20
44.458
 10
180.081
 20
44.464
 10
180.078
 20
44.472
 10
179.928
 20
44.884
 10
179.779
 20
44.472
 10
179.771
 20
44.459
 10
179.76
 20
44.448
 10
179.754
 20
44.444
 10
179.747
 20
44.441
 10
179.74
 20
44.44
 10
179.733
 20
44.439
 10
179.724
 20
44.44
 10
179.716
 20
44.442
 10
179.708
 20
44.445
 10
179.702
 20
44.449
 10
179.696
 20
44.454
 10
179.692
 20
44.461
 10
179.688
 20
44.469
 10
179.685
 20
44.478
 10
179.489
 20
45.357
 10
179.489
 20
45.37
 10
179.49
 20
45.379
 10
179.492
 20
45.387
 10
179.497
 20
45.395
 10
179.504
 20
45.402
 10
179.512
 20
45.408
 10
179.52
 20
45.413
 10
179.529
 20
45.416
 10
179.538
 20
45.417
 10
179.546
 20
45.416
 10
179.554
 20
45.415
 10
179.56
 20
45.412
 10
179.566
 20
45.408
 10
179.572
 20
45.403
 10
179.577
 20
45.397
 10
179.581
 20
45.388
 10
179.586
 20
45.378
 10
179.745
 20
44.664
 10
179.882
 20
45.043
 10
179.886
 20
45.052
 10
179.891
 20
45.06
 10
179.896
 20
45.067
 10
179.901
 20
45.073
 10
179.907
 20
45.077
 10
179.914
 20
45.08
 10
179.921
 20
45.082
 10
179.928
 20
45.083
 10
179.935
 20
45.082
 10
179.942
 20
45.08
 10
179.949
 20
45.077
 10
179.954
 20
45.073
 10
179.96
 20
45.067
 10
179.965
 20
45.06
 10
179.97
 20
45.052
 10
179.974
 20
45.043
 10
180.112
 20
44.664
 10
180.271
 20
45.378
 10
180.273
 20
45.387
 10
180.277
 20
45.395
 10
180.281
 20
45.402
 10
180.287
 20
45.407
 10
180.293
 20
45.411
 10
180.3
 20
45.414
 10
180.308
 20
45.416
 10
180.317
 20
45.417
 10
180.327
 20
45.416
 10
180.336
 20
45.413
 10
180.344
 20
45.409
 10
180.352
 20
45.403
 10
180.359
 20
45.396
 10
180.364
 20
45.388
 10
180.367
 20
45.379
 10
180.368
 20
45.369
 10
180.366
 20
45.357
  0
LWPOLYLINE
  5
32
100
AcDbEntity
  8
GENERATED_SILKSCREEN_TOP
100
AcDbPolyline
 90
       89
 70
         0
 43
0.07
 10
180.366
 20
87.557
 10
180.171
 20
86.678
 10
180.169
 20
86.67
 10
180.166
 20
86.663
 10
180.162
 20
86.656
 10
180.155
 20
86.65
 10
180.148
 20
86.645
 10
180.141
 20
86.642
 10
180.133
 20
86.64
 10
180.124
 20
86.639
 10
180.116
 20
86.64
 10
180.109
 20
86.641
 10
180.102
 20
86.644
 10
180.096
 20
86.647
 10
180.09
 20
86.652
 10
180.086
 20
86.658
 10
180.081
 20
86.664
 10
180.078
 20
86.672
 10
179.928
 20
87.084
 10
179.779
 20
86.672
 10
179.771
 20
86.659
 10
179.76
 20
86.648
 10
179.754
 20
86.644
 10
179.747
 20
86.641
 10
179.74
 20
86.64
 10
179.733
 20
86.639
 10
179.724
 20
86.64
 10
179.716
 20
86.642
 10
179.708
 20
86.645
 10
179.702
 20
86.649
 10
179.696
 20
86.654
 10
179.692
 20
86.661
 10
179.688
 20
86.669
 10
179.685
 20
86.678
 10
179.489
 20
87.557
 10
179.489
 20
87.57
 10
179.49
 20
87.579
 10
179.492
 20
87.587
 10
179.497
 20
87.595
 10
179.504
 20
87.602
 10
179.512
 20
87.608
 10
179.52
 20
87.613
 10
179.529
 20
87.616
 10
179.538
 20
87.617
 10
179.546
 20
87.616
 10
179.554
 20
87.615
 10
179.56
 20
87.612
 10
179.566
 20
87.608
 10
179.572
 20
87.603
 10
179.577
 20
87.597
 10
179.581
 20
87.588
 10
179.586
 20
87.578
 10
179.745
 20
86.864
 10
179.882
 20
87.243
 10
179.886
 20
87.252
 10
179.891
 20
87.26
 10
179.896
 20
87.267
 10
179.901
 20
87.273
 10
179.907
 20
87.277
 10
179.914
 20
87.28
 10
179.921
 20
87.282
 10
179.928
 20
87.283
 10
179.935
 20
87.282
 10
179.942
 20
87.28
 10
179.949
 20
87.277
 10
179.954
 20
87.273
 10
179.96
 20
87.267
 10
179.965
 20
87.26
 10
179.97
 20
87.252
 10
179.974
 20
87.243
 10
180.112
 20
86.864
 10
180.271
 20
87.578
 10
180.273
 20
87.587
 10
180.277
 20
87.595
 10
180.281
 20
87.602
 10
180.287
 20
87.607
 10
180.293
 20
87.611
 10
180.3
 20
87.614
 10
180.308
 20
87.616
 10
180.317
 20
87.617
 10
180.327
 20
87.616
 10
180.336
 20
87.613
 10
180.344
 20
87.609
 10
180.352
 20
87.603
 10
180.359
 20
87.596
 10
180.364
 20
87.588
 10
180.367
 20
87.579
 10
180.368
 20
87.569
 10
180.366
 20
87.557
  0
LWPOLYLINE
  5
33
100
AcDbEntity
  8
GENERATED_SILKSCREEN_TOP
100
AcDbPolyline
 90
       89
 70
         0
 43
0.07
 10
180.1685
 20
24.457
 10
179.9735
 20
23.578
 10
179.9715
 20
23.57
 10
179.9685
 20
23.563
 10
179.9645
 20
23.556
 10
179.9575
 20
23.55
 10
179.9505
 20
23.545
 10
179.9435
 20
23.542
 10
179.9355
 20
23.54
 10
179.9265
 20
23.539
 10
179.9185
 20
23.54
 10
179.9115
 20
23.541
 10
179.9045
 20
23.544
 10
179.8985
 20
23.547
 10
179.8925
 20
23.552
 10
179.8885
 20
23.558
 10
179.8835
 20
23.564
 10
179.8805
 20
23.572
 10
179.7305
 20
23.984
 10
179.5815
 20
23.572
 10
179.5735
 20
23.559
 10
179.5625
 20
23.548
 10
179.5565
 20
23.544
 10
179.5495
 20
23.541
 10
179.5425
 20
23.54
 10
179.5355
 20
23.539
 10
179.5265
 20
23.54
 10
179.5185
 20
23.542
 10
179.5105
 20
23.545
 10
179.5045
 20
23.549
 10
179.4985
 20
23.554
 10
179.4945
 20
23.561
 10
179.4905
 20
23.569
 10
179.4875
 20
23.578
 10
179.2915
 20
24.457
 10
179.2915
 20
24.47
 10
179.2925
 20
24.479
 10
179.2945
 20
24.487
 10
179.2995
 20
24.495
 10
179.3065
 20
24.502
 10
179.3145
 20
24.508
 10
179.3225
 20
24.513
 10
179.3315
 20
24.516
 10
179.3405
 20
24.517
 10
179.3485
 20
24.516
 10
179.3565
 20
24.515
 10
179.3625
 20
24.512
 10
179.3685
 20
24.508
 10
179.3745
 20
24.503
 10
179.3795
 20
24.497
 10
179.3835
 20
24.488
 10
179.3885
 20
24.478
 10
179.5475
 20
23.764
 10
179.6845
 20
24.143
 10
179.6885
 20
24.152
 10
179.6935
 20
24.16
 10
179.6985
 20
24.167
 10
179.7035
 20
24.173
 10
179.7095
 20
24.177
 10
179.7165
 20
24.18
 10
179.7235
 20
24.182
 10
179.7305
 20
24.183
 10
179.7375
 20
24.182
 10
179.7445
 20
24.18
 10
179.7515
 20
24.177
 10
179.7565
 20
24.173
 10
179.7625
 20
24.167
 10
179.7675
 20
24.16
 10
179.7725
 20
24.152
 10
179.7765
 20
24.143
 10
179.9145
 20
23.764
 10
180.0735
 20
24.478
 10
180.0755
 20
24.487
 10
180.0795
 20
24.495
 10
180.0835
 20
24.502
 10
180.0895
 20
24.507
 10
180.0955
 20
24.511
 10
180.1025
 20
24.514
 10
180.1105
 20
24.516
 10
180.1195
 20
24.517
 10
180.1295
 20
24.516
 10
180.1385
 20
24.513
 10
180.1465
 20
24.509
 10
180.1545
 20
24.503
 10
180.1615
 20
24.496
 10
180.1665
 20
24.488
 10
180.1695
 20
24.479
 10
180.1705
 20
24.469
 10
180.1685
 20
24.457
  0
LWPOLYLINE
  5
34
100
AcDbEntity
  8
GENERATED_SILKSCREEN_TOP
100
AcDbPolyline
 90
       89
 70
         0
 43
0.07
 10
180.1685
 20
66.357
 10
179.9735
 20
65.478
 10
179.9715
 20
65.47
 10
179.9685
 20
65.463
 10
179.9645
 20
65.456
 10
179.9575
 20
65.45
 10
179.9505
 20
65.445
 10
179.9435
 20
65.442
 10
179.9355
 20
65.44
 10
179.9265
 20
65.439
 10
179.9185
 20
65.44
 10
179.9115
 20
65.441
 10
179.9045
 20
65.444
 10
179.8985
 20
65.447
 10
179.8925
 20
65.452
 10
179.8885
 20
65.458
 10
179.8835
 20
65.464
 10
179.8805
 20
65.472
 10
179.7305
 20
65.884
 10
179.5815
 20
65.472
 10
179.5735
 20
65.459
 10
179.5625
 20
65.448
 10
179.5565
 20
65.444
 10
179.5495
 20
65.441
 10
179.5425
 20
65.44
 10
179.5355
 20
65.439
 10
179.5265
 20
65.44
 10
179.5185
 20
65.442
 10
179.5105
 20
65.445
 10
179.5045
 20
65.449
 10
179.4985
 20
65.454
 10
179.4945
 20
65.461
 10
179.4905
 20
65.469
 10
179.4875
 20
65.478
 10
179.2915
 20
66.357
 10
179.2915
 20
66.37
 10
179.2925
 20
66.379
 10
179.2945
 20
66.387
 10
179.2995
 20
66.395
 10
179.3065
 20
66.402
 10
179.3145
 20
66.408
 10
179.3225
 20
66.413
 10
179.3315
 20
66.416
 10
179.3405
 20
66.417
 10
179.3485
 20
66.416
 10
179.3565
 20
66.415
 10
179.3625
 20
66.412
 10
179.3685
 20
66.408
 10
179.3745
 20
66.403
 10
179.3795
 20
66.397
 10
179.3835
 20
66.388
 10
179.3885
 20
66.378
 10
179.5475
 20
65.664
 10
179.6845
 20
66.043
 10
179.6885
 20
66.052
 10
179.6935
 20
66.06
 10
179.6985
 20
66.067
 10
179.7035
 20
66.073
 10
179.7095
 20
66.077
 10
179.7165
 20
66.08
 10
179.7235
 20
66.082
 10
179.7305
 20
66.083
 10
179.7375
 20
66.082
 10
179.7445
 20
66.08
 10
179.7515
 20
66.077
 10
179.7565
 20
66.073
 10
179.7625
 20
66.067
 10
179.7675
 20
66.06
 10
179.7725
 20
66.052
 10
179.7765
 20
66.043
 10
179.9145
 20
65.664
 10
180.0735
 20
66.378
 10
180.0755
 20
66.387
 10
180.0795
 20
66.395
 10
180.0835
 20
66.402
 10
180.0895
 20
66.407
 10
180.0955
 20
66.411
 10
180.1025
 20
66.414
 10
180.1105
 20
66.416
 10
180.1195
 20
66.417
 10
180.1295
 20
66.416
 10
180.1385
 20
66.413
 10
180.1465
 20
66.409
 10
180.1545
 20
66.403
 10
180.1615
 20
66.396
 10
180.1665
 20
66.388
 10
180.1695
 20
66.379
 10
180.1705
 20
66.369
 10
180.1685
 20
66.357
  0
LWPOLYLINE
  5
35
100
AcDbEntity
  8
GENERATED_SILKSCREEN_TOP
100
AcDbPolyline
 90
      160
 70
         0
 43
0.07
 10
179.264
 20
45.334
 10
179.273
 20
45.327
 10
179.279
 20
45.316
 10
179.283
 20
45.307
 10
179.285
 20
45.295
 10
179.284
 20
45.287
 10
179.281
 20
45.279
 10
179.276
 20
45.27
 10
179.27
 20
45.262
 10
179.262
 20
45.254
 10
179.254
 20
45.249
 10
179.245
 20
45.245
 10
179.236
 20
45.244
 10
179.228
 20
45.245
 10
179.221
 20
45.247
 10
179.214
 20
45.25
 10
179.207
 20
45.254
 10
179.183
 20
45.27
 10
179.158
 20
45.284
 10
179.133
 20
45.295
 10
179.108
 20
45.304
 10
179.082
 20
45.312
 10
179.055
 20
45.317
 10
179.028
 20
45.32
 10
179.0
 20
45.321
 10
178.965
 20
45.319
 10
178.932
 20
45.313
 10
178.9
 20
45.304
 10
178.869
 20
45.291
 10
178.856
 20
45.282
 10
178.844
 20
45.273
 10
178.833
 20
45.263
 10
178.824
 20
45.251
 10
178.812
 20
45.227
 10
178.809
 20
45.215
 10
178.808
 20
45.2
 10
178.81
 20
45.184
 10
178.815
 20
45.169
 10
178.824
 20
45.156
 10
178.837
 20
45.145
 10
179.199
 20
44.877
 10
179.22
 20
44.861
 10
179.238
 20
44.841
 10
179.255
 20
44.818
 10
179.27
 20
44.792
 10
179.282
 20
44.765
 10
179.291
 20
44.736
 10
179.296
 20
44.708
 10
179.298
 20
44.679
 10
179.296
 20
44.65
 10
179.292
 20
44.621
 10
179.284
 20
44.594
 10
179.273
 20
44.568
 10
179.258
 20
44.543
 10
179.24
 20
44.522
 10
179.218
 20
44.504
 10
179.193
 20
44.488
 10
179.17
 20
44.477
 10
179.145
 20
44.467
 10
179.119
 20
44.457
 10
179.091
 20
44.448
 10
179.066
 20
44.442
 10
179.041
 20
44.438
 10
179.017
 20
44.436
 10
178.993
 20
44.435
 10
178.96
 20
44.436
 10
178.927
 20
44.44
 10
178.894
 20
44.447
 10
178.863
 20
44.457
 10
178.829
 20
44.469
 10
178.799
 20
44.484
 10
178.784
 20
44.492
 10
178.768
 20
44.501
 10
178.752
 20
44.512
 10
178.734
 20
44.523
 10
178.724
 20
44.531
 10
178.717
 20
44.54
 10
178.713
 20
44.551
 10
178.712
 20
44.563
 10
178.713
 20
44.573
 10
178.715
 20
44.583
 10
178.72
 20
44.591
 10
178.726
 20
44.599
 10
178.733
 20
44.605
 10
178.741
 20
44.61
 10
178.75
 20
44.613
 10
178.759
 20
44.614
 10
178.766
 20
44.613
 10
178.772
 20
44.612
 10
178.779
 20
44.609
 10
178.787
 20
44.605
 10
178.813
 20
44.589
 10
178.839
 20
44.575
 10
178.865
 20
44.563
 10
178.891
 20
44.553
 10
178.916
 20
44.544
 10
178.943
 20
44.538
 10
178.969
 20
44.535
 10
178.995
 20
44.533
 10
179.014
 20
44.534
 10
179.033
 20
44.536
 10
179.052
 20
44.539
 10
179.071
 20
44.544
 10
179.09
 20
44.549
 10
179.11
 20
44.557
 10
179.129
 20
44.565
 10
179.149
 20
44.575
 10
179.161
 20
44.582
 10
179.171
 20
44.591
 10
179.18
 20
44.603
 10
179.188
 20
44.616
 10
179.195
 20
44.631
 10
179.199
 20
44.646
 10
179.202
 20
44.661
 10
179.203
 20
44.677
 10
179.202
 20
44.694
 10
179.199
 20
44.711
 10
179.195
 20
44.728
 10
179.188
 20
44.746
 10
179.18
 20
44.759
 10
179.17
 20
44.772
 10
179.158
 20
44.785
 10
179.144
 20
44.797
 10
178.782
 20
45.065
 10
178.767
 20
45.077
 10
178.754
 20
45.09
 10
178.743
 20
45.106
 10
178.733
 20
45.123
 10
178.725
 20
45.142
 10
178.719
 20
45.161
 10
178.716
 20
45.18
 10
178.715
 20
45.2
 10
178.716
 20
45.226
 10
178.721
 20
45.252
 10
178.729
 20
45.276
 10
178.74
 20
45.299
 10
178.747
 20
45.31
 10
178.755
 20
45.321
 10
178.764
 20
45.331
 10
178.774
 20
45.341
 10
178.785
 20
45.351
 10
178.797
 20
45.36
 10
178.81
 20
45.368
 10
178.824
 20
45.376
 10
178.844
 20
45.386
 10
178.865
 20
45.394
 10
178.886
 20
45.401
 10
178.908
 20
45.407
 10
178.93
 20
45.411
 10
178.953
 20
45.414
 10
178.977
 20
45.416
 10
179.001
 20
45.417
 10
179.036
 20
45.415
 10
179.071
 20
45.411
 10
179.105
 20
45.405
 10
179.139
 20
45.396
 10
179.172
 20
45.384
 10
179.204
 20
45.37
 10
179.235
 20
45.353
 10
179.264
 20
45.334
  0
LWPOLYLINE
  5
36
100
AcDbEntity
  8
GENERATED_SILKSCREEN_TOP
100
AcDbPolyline
 90
      160
 70
         0
 43
0.07
 10
179.264
 20
87.534
 10
179.273
 20
87.527
 10
179.279
 20
87.516
 10
179.283
 20
87.507
 10
179.285
 20
87.495
 10
179.284
 20
87.487
 10
179.281
 20
87.479
 10
179.276
 20
87.47
 10
179.27
 20
87.462
 10
179.262
 20
87.454
 10
179.254
 20
87.449
 10
179.245
 20
87.445
 10
179.236
 20
87.444
 10
179.228
 20
87.445
 10
179.221
 20
87.447
 10
179.214
 20
87.45
 10
179.207
 20
87.454
 10
179.183
 20
87.47
 10
179.158
 20
87.484
 10
179.133
 20
87.495
 10
179.108
 20
87.504
 10
179.082
 20
87.512
 10
179.055
 20
87.517
 10
179.028
 20
87.52
 10
179.0
 20
87.521
 10
178.965
 20
87.519
 10
178.932
 20
87.513
 10
178.9
 20
87.504
 10
178.869
 20
87.491
 10
178.856
 20
87.482
 10
178.844
 20
87.473
 10
178.833
 20
87.463
 10
178.824
 20
87.451
 10
178.812
 20
87.427
 10
178.809
 20
87.415
 10
178.808
 20
87.4
 10
178.81
 20
87.384
 10
178.815
 20
87.369
 10
178.824
 20
87.356
 10
178.837
 20
87.345
 10
179.199
 20
87.077
 10
179.22
 20
87.061
 10
179.238
 20
87.041
 10
179.255
 20
87.018
 10
179.27
 20
86.992
 10
179.282
 20
86.965
 10
179.291
 20
86.936
 10
179.296
 20
86.908
 10
179.298
 20
86.879
 10
179.296
 20
86.85
 10
179.292
 20
86.821
 10
179.284
 20
86.794
 10
179.273
 20
86.768
 10
179.258
 20
86.743
 10
179.24
 20
86.722
 10
179.218
 20
86.704
 10
179.193
 20
86.688
 10
179.17
 20
86.677
 10
179.145
 20
86.667
 10
179.119
 20
86.657
 10
179.091
 20
86.648
 10
179.066
 20
86.642
 10
179.041
 20
86.638
 10
179.017
 20
86.636
 10
178.993
 20
86.635
 10
178.96
 20
86.636
 10
178.927
 20
86.64
 10
178.894
 20
86.647
 10
178.863
 20
86.657
 10
178.829
 20
86.669
 10
178.799
 20
86.684
 10
178.784
 20
86.692
 10
178.768
 20
86.701
 10
178.752
 20
86.712
 10
178.734
 20
86.723
 10
178.724
 20
86.731
 10
178.717
 20
86.74
 10
178.713
 20
86.751
 10
178.712
 20
86.763
 10
178.713
 20
86.773
 10
178.715
 20
86.783
 10
178.72
 20
86.791
 10
178.726
 20
86.799
 10
178.733
 20
86.805
 10
178.741
 20
86.81
 10
178.75
 20
86.813
 10
178.759
 20
86.814
 10
178.766
 20
86.813
 10
178.772
 20
86.812
 10
178.779
 20
86.809
 10
178.787
 20
86.805
 10
178.813
 20
86.789
 10
178.839
 20
86.775
 10
178.865
 20
86.763
 10
178.891
 20
86.753
 10
178.916
 20
86.744
 10
178.943
 20
86.738
 10
178.969
 20
86.735
 10
178.995
 20
86.733
 10
179.014
 20
86.734
 10
179.033
 20
86.736
 10
179.052
 20
86.739
 10
179.071
 20
86.744
 10
179.09
 20
86.749
 10
179.11
 20
86.757
 10
179.129
 20
86.765
 10
179.149
 20
86.775
 10
179.161
 20
86.782
 10
179.171
 20
86.791
 10
179.18
 20
86.803
 10
179.188
 20
86.816
 10
179.195
 20
86.831
 10
179.199
 20
86.846
 10
179.202
 20
86.861
 10
179.203
 20
86.877
 10
179.202
 20
86.894
 10
179.199
 20
86.911
 10
179.195
 20
86.928
 10
179.188
 20
86.946
 10
179.18
 20
86.959
 10
179.17
 20
86.972
 10
179.158
 20
86.985
 10
179.144
 20
86.997
 10
178.782
 20
87.265
 10
178.767
 20
87.277
 10
178.754
 20
87.29
 10
178.743
 20
87.306
 10
178.733
 20
87.323
 10
178.725
 20
87.342
 10
178.719
 20
87.361
 10
178.716
 20
87.38
 10
178.715
 20
87.4
 10
178.716
 20
87.426
 10
178.721
 20
87.452
 10
178.729
 20
87.476
 10
178.74
 20
87.499
 10
178.747
 20
87.51
 10
178.755
 20
87.521
 10
178.764
 20
87.531
 10
178.774
 20
87.541
 10
178.785
 20
87.551
 10
178.797
 20
87.56
 10
178.81
 20
87.568
 10
178.824
 20
87.576
 10
178.844
 20
87.586
 10
178.865
 20
87.594
 10
178.886
 20
87.601
 10
178.908
 20
87.607
 10
178.93
 20
87.611
 10
178.953
 20
87.614
 10
178.977
 20
87.616
 10
179.001
 20
87.617
 10
179.036
 20
87.615
 10
179.071
 20
87.611
 10
179.105
 20
87.605
 10
179.139
 20
87.596
 10
179.172
 20
87.584
 10
179.204
 20
87.57
 10
179.235
 20
87.553
 10
179.264
 20
87.534
  0
LWPOLYLINE
  5
37
100
AcDbEntity
  8
GENERATED_SILKSCREEN_TOP
100
AcDbPolyline
 90
      160
 70
         0
 43
0.07
 10
179.0665
 20
24.434
 10
179.0755
 20
24.427
 10
179.0815
 20
24.416
 10
179.0855
 20
24.407
 10
179.0875
 20
24.395
 10
179.0865
 20
24.387
 10
179.0835
 20
24.379
 10
179.0785
 20
24.37
 10
179.0725
 20
24.362
 10
179.0645
 20
24.354
 10
179.0565
 20
24.349
 10
179.0475
 20
24.345
 10
179.0385
 20
24.344
 10
179.0305
 20
24.345
 10
179.0235
 20
24.347
 10
179.0165
 20
24.35
 10
179.0095
 20
24.354
 10
178.9855
 20
24.37
 10
178.9605
 20
24.384
 10
178.9355
 20
24.395
 10
178.9105
 20
24.404
 10
178.8845
 20
24.412
 10
178.8575
 20
24.417
 10
178.8305
 20
24.42
 10
178.8025
 20
24.421
 10
178.7675
 20
24.419
 10
178.7345
 20
24.413
 10
178.7025
 20
24.404
 10
178.6715
 20
24.391
 10
178.6585
 20
24.382
 10
178.6465
 20
24.373
 10
178.6355
 20
24.363
 10
178.6265
 20
24.351
 10
178.6145
 20
24.327
 10
178.6115
 20
24.315
 10
178.6105
 20
24.3
 10
178.6125
 20
24.284
 10
178.6175
 20
24.269
 10
178.6265
 20
24.256
 10
178.6395
 20
24.245
 10
179.0015
 20
23.977
 10
179.0225
 20
23.961
 10
179.0405
 20
23.941
 10
179.0575
 20
23.918
 10
179.0725
 20
23.892
 10
179.0845
 20
23.865
 10
179.0935
 20
23.836
 10
179.0985
 20
23.808
 10
179.1005
 20
23.779
 10
179.0985
 20
23.75
 10
179.0945
 20
23.721
 10
179.0865
 20
23.694
 10
179.0755
 20
23.668
 10
179.0605
 20
23.643
 10
179.0425
 20
23.622
 10
179.0205
 20
23.604
 10
178.9955
 20
23.588
 10
178.9725
 20
23.577
 10
178.9475
 20
23.567
 10
178.9215
 20
23.557
 10
178.8935
 20
23.548
 10
178.8685
 20
23.542
 10
178.8435
 20
23.538
 10
178.8195
 20
23.536
 10
178.7955
 20
23.535
 10
178.7625
 20
23.536
 10
178.7295
 20
23.54
 10
178.6965
 20
23.547
 10
178.6655
 20
23.557
 10
178.6315
 20
23.569
 10
178.6015
 20
23.584
 10
178.5865
 20
23.592
 10
178.5705
 20
23.601
 10
178.5545
 20
23.612
 10
178.5365
 20
23.623
 10
178.5265
 20
23.631
 10
178.5195
 20
23.64
 10
178.5155
 20
23.651
 10
178.5145
 20
23.663
 10
178.5155
 20
23.673
 10
178.5175
 20
23.683
 10
178.5225
 20
23.691
 10
178.5285
 20
23.699
 10
178.5355
 20
23.705
 10
178.5435
 20
23.71
 10
178.5525
 20
23.713
 10
178.5615
 20
23.714
 10
178.5685
 20
23.713
 10
178.5745
 20
23.712
 10
178.5815
 20
23.709
 10
178.5895
 20
23.705
 10
178.6155
 20
23.689
 10
178.6415
 20
23.675
 10
178.6675
 20
23.663
 10
178.6935
 20
23.653
 10
178.7185
 20
23.644
 10
178.7455
 20
23.638
 10
178.7715
 20
23.635
 10
178.7975
 20
23.633
 10
178.8165
 20
23.634
 10
178.8355
 20
23.636
 10
178.8545
 20
23.639
 10
178.8735
 20
23.644
 10
178.8925
 20
23.649
 10
178.9125
 20
23.657
 10
178.9315
 20
23.665
 10
178.9515
 20
23.675
 10
178.9635
 20
23.682
 10
178.9735
 20
23.691
 10
178.9825
 20
23.703
 10
178.9905
 20
23.716
 10
178.9975
 20
23.731
 10
179.0015
 20
23.746
 10
179.0045
 20
23.761
 10
179.0055
 20
23.777
 10
179.0045
 20
23.794
 10
179.0015
 20
23.811
 10
178.9975
 20
23.828
 10
178.9905
 20
23.846
 10
178.9825
 20
23.859
 10
178.9725
 20
23.872
 10
178.9605
 20
23.885
 10
178.9465
 20
23.897
 10
178.5845
 20
24.165
 10
178.5695
 20
24.177
 10
178.5565
 20
24.19
 10
178.5455
 20
24.206
 10
178.5355
 20
24.223
 10
178.5275
 20
24.242
 10
178.5215
 20
24.261
 10
178.5185
 20
24.28
 10
178.5175
 20
24.3
 10
178.5185
 20
24.326
 10
178.5235
 20
24.352
 10
178.5315
 20
24.376
 10
178.5425
 20
24.399
 10
178.5495
 20
24.41
 10
178.5575
 20
24.421
 10
178.5665
 20
24.431
 10
178.5765
 20
24.441
 10
178.5875
 20
24.451
 10
178.5995
 20
24.46
 10
178.6125
 20
24.468
 10
178.6265
 20
24.476
 10
178.6465
 20
24.486
 10
178.6675
 20
24.494
 10
178.6885
 20
24.501
 10
178.7105
 20
24.507
 10
178.7325
 20
24.511
 10
178.7555
 20
24.514
 10
178.7795
 20
24.516
 10
178.8035
 20
24.517
 10
178.8385
 20
24.515
 10
178.8735
 20
24.511
 10
178.9075
 20
24.505
 10
178.9415
 20
24.496
 10
178.9745
 20
24.484
 10
179.0065
 20
24.47
 10
179.0375
 20
24.453
 10
179.0665
 20
24.434
  0
LWPOLYLINE
  5
38
100
AcDbEntity
  8
GENERATED_SILKSCREEN_TOP
100
AcDbPolyline
 90
      160
 70
         0
 43
0.07
 10
179.0665
 20
66.334
 10
179.0755
 20
66.327
 10
179.0815
 20
66.316
 10
179.0855
 20
66.307
 10
179.0875
 20
66.295
 10
179.0865
 20
66.287
 10
179.0835
 20
66.279
 10
179.0785
 20
66.27
 10
179.0725
 20
66.262
 10
179.0645
 20
66.254
 10
179.0565
 20
66.249
 10
179.0475
 20
66.245
 10
179.0385
 20
66.244
 10
179.0305
 20
66.245
 10
179.0235
 20
66.247
 10
179.0165
 20
66.25
 10
179.0095
 20
66.254
 10
178.9855
 20
66.27
 10
178.9605
 20
66.284
 10
178.9355
 20
66.295
 10
178.9105
 20
66.304
 10
178.8845
 20
66.312
 10
178.8575
 20
66.317
 10
178.8305
 20
66.32
 10
178.8025
 20
66.321
 10
178.7675
 20
66.319
 10
178.7345
 20
66.313
 10
178.7025
 20
66.304
 10
178.6715
 20
66.291
 10
178.6585
 20
66.282
 10
178.6465
 20
66.273
 10
178.6355
 20
66.263
 10
178.6265
 20
66.251
 10
178.6145
 20
66.227
 10
178.6115
 20
66.215
 10
178.6105
 20
66.2
 10
178.6125
 20
66.184
 10
178.6175
 20
66.169
 10
178.6265
 20
66.156
 10
178.6395
 20
66.145
 10
179.0015
 20
65.877
 10
179.0225
 20
65.861
 10
179.0405
 20
65.841
 10
179.0575
 20
65.818
 10
179.0725
 20
65.792
 10
179.0845
 20
65.765
 10
179.0935
 20
65.736
 10
179.0985
 20
65.708
 10
179.1005
 20
65.679
 10
179.0985
 20
65.65
 10
179.0945
 20
65.621
 10
179.0865
 20
65.594
 10
179.0755
 20
65.568
 10
179.0605
 20
65.543
 10
179.0425
 20
65.522
 10
179.0205
 20
65.504
 10
178.9955
 20
65.488
 10
178.9725
 20
65.477
 10
178.9475
 20
65.467
 10
178.9215
 20
65.457
 10
178.8935
 20
65.448
 10
178.8685
 20
65.442
 10
178.8435
 20
65.438
 10
178.8195
 20
65.436
 10
178.7955
 20
65.435
 10
178.7625
 20
65.436
 10
178.7295
 20
65.44
 10
178.6965
 20
65.447
 10
178.6655
 20
65.457
 10
178.6315
 20
65.469
 10
178.6015
 20
65.484
 10
178.5865
 20
65.492
 10
178.5705
 20
65.501
 10
178.5545
 20
65.512
 10
178.5365
 20
65.523
 10
178.5265
 20
65.531
 10
178.5195
 20
65.54
 10
178.5155
 20
65.551
 10
178.5145
 20
65.563
 10
178.5155
 20
65.573
 10
178.5175
 20
65.583
 10
178.5225
 20
65.591
 10
178.5285
 20
65.599
 10
178.5355
 20
65.605
 10
178.5435
 20
65.61
 10
178.5525
 20
65.613
 10
178.5615
 20
65.614
 10
178.5685
 20
65.613
 10
178.5745
 20
65.612
 10
178.5815
 20
65.609
 10
178.5895
 20
65.605
 10
178.6155
 20
65.589
 10
178.6415
 20
65.575
 10
178.6675
 20
65.563
 10
178.6935
 20
65.553
 10
178.7185
 20
65.544
 10
178.7455
 20
65.538
 10
178.7715
 20
65.535
 10
178.7975
 20
65.533
 10
178.8165
 20
65.534
 10
178.8355
 20
65.536
 10
178.8545
 20
65.539
 10
178.8735
 20
65.544
 10
178.8925
 20
65.549
 10
178.9125
 20
65.557
 10
178.9315
 20
65.565
 10
178.9515
 20
65.575
 10
178.9635
 20
65.582
 10
178.9735
 20
65.591
 10
178.9825
 20
65.603
 10
178.9905
 20
65.616
 10
178.9975
 20
65.631
 10
179.0015
 20
65.646
 10
179.0045
 20
65.661
 10
179.0055
 20
65.677
 10
179.0045
 20
65.694
 10
179.0015
 20
65.711
 10
178.9975
 20
65.728
 10
178.9905
 20
65.746
 10
178.9825
 20
65.759
 10
178.9725
 20
65.772
 10
178.9605
 20
65.785
 10
178.9465
 20
65.797
 10
178.5845
 20
66.065
 10
178.5695
 20
66.077
 10
178.5565
 20
66.09
 10
178.5455
 20
66.106
 10
178.5355
 20
66.123
 10
178.5275
 20
66.142
 10
178.5215
 20
66.161
 10
178.5185
 20
66.18
 10
178.5175
 20
66.2
 10
178.5185
 20
66.226
 10
178.5235
 20
66.252
 10
178.5315
 20
66.276
 10
178.5425
 20
66.299
 10
178.5495
 20
66.31
 10
178.5575
 20
66.321
 10
178.5665
 20
66.331
 10
178.5765
 20
66.341
 10
178.5875
 20
66.351
 10
178.5995
 20
66.36
 10
178.6125
 20
66.368
 10
178.6265
 20
66.376
 10
178.6465
 20
66.386
 10
178.6675
 20
66.394
 10
178.6885
 20
66.401
 10
178.7105
 20
66.407
 10
178.7325
 20
66.411
 10
178.7555
 20
66.414
 10
178.7795
 20
66.416
 10
178.8035
 20
66.417
 10
178.8385
 20
66.415
 10
178.8735
 20
66.411
 10
178.9075
 20
66.405
 10
178.9415
 20
66.396
 10
178.9745
 20
66.384
 10
179.0065
 20
66.37
 10
179.0375
 20
66.353
 10
179.0665
 20
66.334
  0
LWPOLYLINE
  5
39
100
AcDbEntity
  8
GENERATED_SILKSCREEN_TOP
100
AcDbPolyline
 90
       49
 70
         0
 43
0.07
 10
2.453
 20
86.809
 10
2.452
 20
86.798
 10
2.449
 20
86.788
 10
2.445
 20
86.779
 10
2.439
 20
86.772
 10
2.432
 20
86.767
 10
2.423
 20
86.763
 10
2.414
 20
86.761
 10
2.404
 20
86.76
 10
2.394
 20
86.761
 10
2.386
 20
86.763
 10
2.377
 20
86.767
 10
2.37
 20
86.772
 10
2.363
 20
86.779
 10
2.359
 20
86.787
 10
2.356
 20
86.797
 10
2.355
 20
86.809
 10
2.355
 20
87.571
 10
2.243
 20
87.458
 10
2.235
 20
87.452
 10
2.227
 20
87.447
 10
2.218
 20
87.445
 10
2.209
 20
87.444
 10
2.2
 20
87.445
 10
2.192
 20
87.447
 10
2.183
 20
87.452
 10
2.175
 20
87.459
 10
2.169
 20
87.466
 10
2.164
 20
87.475
 10
2.161
 20
87.484
 10
2.16
 20
87.493
 10
2.161
 20
87.502
 10
2.163
 20
87.51
 10
2.168
 20
87.518
 10
2.174
 20
87.527
 10
2.37
 20
87.722
 10
2.38
 20
87.731
 10
2.39
 20
87.738
 10
2.401
 20
87.742
 10
2.413
 20
87.744
 10
2.42
 20
87.743
 10
2.427
 20
87.74
 10
2.434
 20
87.736
 10
2.441
 20
87.729
 10
2.446
 20
87.721
 10
2.45
 20
87.711
 10
2.452
 20
87.7
 10
2.453
 20
87.688
 10
2.453
 20
86.809
  0
LWPOLYLINE
  5
3A
100
AcDbEntity
  8
GENERATED_SILKSCREEN_TOP
100
AcDbPolyline
 90
       58
 70
         0
 43
0.07
 10
2.161
 20
24.739
 10
2.161
 20
24.69
 10
2.161
 20
24.679
 10
2.158
 20
24.669
 10
2.154
 20
24.661
 10
2.147
 20
24.653
 10
2.14
 20
24.648
 10
2.132
 20
24.644
 10
2.123
 20
24.642
 10
2.113
 20
24.641
 10
2.103
 20
24.642
 10
2.094
 20
24.644
 10
2.086
 20
24.648
 10
2.078
 20
24.654
 10
2.072
 20
24.66
 10
2.067
 20
24.669
 10
2.065
 20
24.679
 10
2.064
 20
24.69
 10
2.064
 20
24.788
 10
2.064
 20
24.799
 10
2.067
 20
24.809
 10
2.071
 20
24.818
 10
2.076
 20
24.825
 10
2.083
 20
24.83
 10
2.091
 20
24.834
 10
2.101
 20
24.836
 10
2.113
 20
24.837
 10
2.503
 20
24.837
 10
2.515
 20
24.836
 10
2.525
 20
24.834
 10
2.533
 20
24.831
 10
2.54
 20
24.827
 10
2.546
 20
24.821
 10
2.55
 20
24.814
 10
2.552
 20
24.806
 10
2.553
 20
24.796
 10
2.55
 20
24.775
 10
2.306
 20
23.896
 10
2.304
 20
23.889
 10
2.301
 20
23.882
 10
2.296
 20
23.876
 10
2.29
 20
23.871
 10
2.283
 20
23.866
 10
2.275
 20
23.863
 10
2.268
 20
23.861
 10
2.26
 20
23.86
 10
2.249
 20
23.861
 10
2.24
 20
23.863
 10
2.232
 20
23.867
 10
2.224
 20
23.872
 10
2.218
 20
23.879
 10
2.214
 20
23.887
 10
2.211
 20
23.896
 10
2.21
 20
23.907
 10
2.211
 20
23.916
 10
2.212
 20
23.921
 10
2.439
 20
24.739
 10
2.161
 20
24.739
  0
LWPOLYLINE
  5
3B
100
AcDbEntity
  8
GENERATED_SILKSCREEN_TOP
100
AcDbPolyline
 90
      123
 70
         0
 43
0.07
 10
2.061
 20
45.739
 10
2.061
 20
45.446
 10
2.208
 20
45.446
 10
2.232
 20
45.445
 10
2.256
 20
45.442
 10
2.279
 20
45.436
 10
2.301
 20
45.428
 10
2.322
 20
45.418
 10
2.342
 20
45.406
 10
2.361
 20
45.391
 10
2.38
 20
45.374
 10
2.397
 20
45.356
 10
2.411
 20
45.337
 10
2.424
 20
45.317
 10
2.434
 20
45.296
 10
2.442
 20
45.273
 10
2.448
 20
45.251
 10
2.451
 20
45.227
 10
2.452
 20
45.202
 10
2.452
 20
45.104
 10
2.451
 20
45.08
 10
2.448
 20
45.056
 10
2.442
 20
45.033
 10
2.434
 20
45.011
 10
2.424
 20
44.99
 10
2.412
 20
44.97
 10
2.397
 20
44.951
 10
2.381
 20
44.932
 10
2.362
 20
44.915
 10
2.343
 20
44.901
 10
2.323
 20
44.888
 10
2.302
 20
44.878
 10
2.28
 20
44.87
 10
2.257
 20
44.864
 10
2.233
 20
44.861
 10
2.208
 20
44.86
 10
2.013
 20
44.86
 10
2.002
 20
44.861
 10
1.992
 20
44.863
 10
1.984
 20
44.868
 10
1.976
 20
44.874
 10
1.971
 20
44.882
 10
1.967
 20
44.89
 10
1.965
 20
44.899
 10
1.964
 20
44.909
 10
1.965
 20
44.918
 10
1.967
 20
44.926
 10
1.971
 20
44.934
 10
1.976
 20
44.942
 10
1.983
 20
44.949
 10
1.992
 20
44.954
 10
2.001
 20
44.957
 10
2.013
 20
44.958
 10
2.208
 20
44.958
 10
2.223
 20
44.958
 10
2.237
 20
44.96
 10
2.251
 20
44.964
 10
2.264
 20
44.968
 10
2.277
 20
44.974
 10
2.289
 20
44.981
 10
2.301
 20
44.99
 10
2.312
 20
45.0
 10
2.322
 20
45.011
 10
2.33
 20
45.022
 10
2.338
 20
45.034
 10
2.344
 20
45.047
 10
2.348
 20
45.06
 10
2.352
 20
45.074
 10
2.354
 20
45.089
 10
2.354
 20
45.104
 10
2.354
 20
45.202
 10
2.354
 20
45.217
 10
2.352
 20
45.231
 10
2.348
 20
45.245
 10
2.344
 20
45.258
 10
2.338
 20
45.271
 10
2.331
 20
45.283
 10
2.322
 20
45.294
 10
2.312
 20
45.305
 10
2.301
 20
45.315
 10
2.29
 20
45.324
 10
2.278
 20
45.332
 10
2.265
 20
45.338
 10
2.252
 20
45.342
 10
2.238
 20
45.346
 10
2.223
 20
45.348
 10
2.208
 20
45.348
 10
2.013
 20
45.348
 10
2.001
 20
45.349
 10
1.991
 20
45.351
 10
1.983
 20
45.355
 10
1.976
 20
45.361
 10
1.971
 20
45.367
 10
1.967
 20
45.376
 10
1.964
 20
45.386
 10
1.964
 20
45.397
 10
1.964
 20
45.788
 10
1.964
 20
45.799
 10
1.967
 20
45.809
 10
1.971
 20
45.818
 10
1.976
 20
45.825
 10
1.983
 20
45.83
 10
1.991
 20
45.834
 10
2.001
 20
45.836
 10
2.013
 20
45.837
 10
2.403
 20
45.837
 10
2.414
 20
45.836
 10
2.423
 20
45.833
 10
2.431
 20
45.828
 10
2.439
 20
45.822
 10
2.444
 20
45.814
 10
2.449
 20
45.806
 10
2.451
 20
45.797
 10
2.452
 20
45.788
 10
2.451
 20
45.779
 10
2.449
 20
45.771
 10
2.445
 20
45.763
 10
2.44
 20
45.755
 10
2.433
 20
45.748
 10
2.425
 20
45.743
 10
2.415
 20
45.74
 10
2.403
 20
45.739
 10
2.061
 20
45.739
  0
LWPOLYLINE
  5
3C
100
AcDbEntity
  8
GENERATED_SILKSCREEN_TOP
100
AcDbPolyline
 90
      169
 70
         0
 43
0.07
 10
2.103
 20
66.838
 10
1.908
 20
66.838
 10
1.897
 20
66.839
 10
1.887
 20
66.841
 10
1.879
 20
66.846
 10
1.871
 20
66.852
 10
1.866
 20
66.859
 10
1.862
 20
66.868
 10
1.86
 20
66.877
 10
1.859
 20
66.887
 10
1.86
 20
66.895
 10
1.862
 20
66.904
 10
1.866
 20
66.912
 10
1.871
 20
66.92
 10
1.878
 20
66.927
 10
1.887
 20
66.932
 10
1.896
 20
66.934
 10
1.908
 20
66.935
 10
2.103
 20
66.935
 10
2.131
 20
66.934
 10
2.157
 20
66.931
 10
2.182
 20
66.925
 10
2.206
 20
66.917
 10
2.228
 20
66.906
 10
2.249
 20
66.893
 10
2.268
 20
66.878
 10
2.286
 20
66.861
 10
2.3
 20
66.843
 10
2.313
 20
66.824
 10
2.323
 20
66.804
 10
2.332
 20
66.784
 10
2.339
 20
66.762
 10
2.343
 20
66.74
 10
2.346
 20
66.717
 10
2.347
 20
66.693
 10
2.346
 20
66.663
 10
2.341
 20
66.636
 10
2.334
 20
66.609
 10
2.324
 20
66.583
 10
2.311
 20
66.559
 10
2.294
 20
66.536
 10
2.275
 20
66.515
 10
2.252
 20
66.494
 10
2.272
 20
66.477
 10
2.29
 20
66.457
 10
2.306
 20
66.435
 10
2.32
 20
66.41
 10
2.332
 20
66.384
 10
2.341
 20
66.357
 10
2.346
 20
66.33
 10
2.347
 20
66.301
 10
2.347
 20
66.203
 10
2.346
 20
66.179
 10
2.343
 20
66.155
 10
2.337
 20
66.132
 10
2.329
 20
66.11
 10
2.319
 20
66.089
 10
2.307
 20
66.069
 10
2.292
 20
66.05
 10
2.276
 20
66.031
 10
2.257
 20
66.014
 10
2.238
 20
66.0
 10
2.218
 20
65.987
 10
2.197
 20
65.977
 10
2.175
 20
65.969
 10
2.152
 20
65.964
 10
2.128
 20
65.96
 10
2.103
 20
65.959
 10
1.908
 20
65.959
 10
1.897
 20
65.96
 10
1.887
 20
65.963
 10
1.879
 20
65.967
 10
1.871
 20
65.973
 10
1.866
 20
65.981
 10
1.862
 20
65.989
 10
1.86
 20
65.998
 10
1.859
 20
66.008
 10
1.86
 20
66.016
 10
1.862
 20
66.025
 10
1.866
 20
66.033
 10
1.871
 20
66.041
 10
1.878
 20
66.048
 10
1.886
 20
66.053
 10
1.896
 20
66.056
 10
1.908
 20
66.057
 10
2.103
 20
66.057
 10
2.118
 20
66.058
 10
2.132
 20
66.06
 10
2.146
 20
66.063
 10
2.159
 20
66.068
 10
2.172
 20
66.074
 10
2.184
 20
66.081
 10
2.196
 20
66.09
 10
2.207
 20
66.1
 10
2.217
 20
66.111
 10
2.225
 20
66.122
 10
2.233
 20
66.134
 10
2.239
 20
66.147
 10
2.244
 20
66.16
 10
2.247
 20
66.174
 10
2.249
 20
66.189
 10
2.25
 20
66.203
 10
2.25
 20
66.301
 10
2.249
 20
66.316
 10
2.247
 20
66.33
 10
2.244
 20
66.344
 10
2.239
 20
66.357
 10
2.233
 20
66.37
 10
2.226
 20
66.382
 10
2.217
 20
66.393
 10
2.207
 20
66.404
 10
2.196
 20
66.414
 10
2.185
 20
66.423
 10
2.173
 20
66.431
 10
2.16
 20
66.437
 10
2.147
 20
66.442
 10
2.133
 20
66.445
 10
2.118
 20
66.447
 10
2.103
 20
66.448
 10
2.005
 20
66.448
 10
1.995
 20
66.448
 10
1.985
 20
66.451
 10
1.977
 20
66.455
 10
1.969
 20
66.461
 10
1.964
 20
66.469
 10
1.96
 20
66.478
 10
1.957
 20
66.487
 10
1.956
 20
66.497
 10
1.957
 20
66.505
 10
1.96
 20
66.513
 10
1.963
 20
66.521
 10
1.969
 20
66.529
 10
1.976
 20
66.536
 10
1.984
 20
66.541
 10
1.994
 20
66.544
 10
2.005
 20
66.545
 10
2.103
 20
66.545
 10
2.119
 20
66.546
 10
2.134
 20
66.548
 10
2.148
 20
66.552
 10
2.162
 20
66.557
 10
2.175
 20
66.564
 10
2.187
 20
66.572
 10
2.199
 20
66.581
 10
2.21
 20
66.592
 10
2.218
 20
66.603
 10
2.225
 20
66.614
 10
2.231
 20
66.626
 10
2.236
 20
66.639
 10
2.24
 20
66.652
 10
2.243
 20
66.665
 10
2.245
 20
66.68
 10
2.245
 20
66.695
 10
2.245
 20
66.709
 10
2.243
 20
66.723
 10
2.241
 20
66.736
 10
2.237
 20
66.749
 10
2.232
 20
66.761
 10
2.226
 20
66.772
 10
2.219
 20
66.783
 10
2.211
 20
66.793
 10
2.201
 20
66.804
 10
2.19
 20
66.813
 10
2.178
 20
66.82
 10
2.165
 20
66.827
 10
2.151
 20
66.831
 10
2.136
 20
66.835
 10
2.12
 20
66.837
 10
2.103
 20
66.838
  0
LWPOLYLINE
  5
3D
100
AcDbEntity
  8
GENERATED_SILKSCREEN_TOP
100
AcDbPolyline
 90
       89
 70
         0
 43
0.07
 10
1.962
 20
87.677
 10
1.767
 20
86.798
 10
1.765
 20
86.79
 10
1.762
 20
86.783
 10
1.758
 20
86.776
 10
1.751
 20
86.77
 10
1.744
 20
86.765
 10
1.737
 20
86.762
 10
1.729
 20
86.76
 10
1.72
 20
86.759
 10
1.712
 20
86.76
 10
1.705
 20
86.761
 10
1.698
 20
86.764
 10
1.692
 20
86.767
 10
1.686
 20
86.772
 10
1.682
 20
86.778
 10
1.677
 20
86.784
 10
1.674
 20
86.792
 10
1.524
 20
87.204
 10
1.375
 20
86.792
 10
1.367
 20
86.779
 10
1.356
 20
86.768
 10
1.35
 20
86.764
 10
1.343
 20
86.761
 10
1.336
 20
86.76
 10
1.329
 20
86.759
 10
1.32
 20
86.76
 10
1.312
 20
86.762
 10
1.304
 20
86.765
 10
1.298
 20
86.769
 10
1.292
 20
86.774
 10
1.288
 20
86.781
 10
1.284
 20
86.789
 10
1.281
 20
86.798
 10
1.085
 20
87.677
 10
1.085
 20
87.69
 10
1.086
 20
87.699
 10
1.088
 20
87.707
 10
1.093
 20
87.715
 10
1.1
 20
87.722
 10
1.108
 20
87.728
 10
1.116
 20
87.733
 10
1.125
 20
87.736
 10
1.134
 20
87.737
 10
1.142
 20
87.736
 10
1.15
 20
87.735
 10
1.156
 20
87.732
 10
1.162
 20
87.728
 10
1.168
 20
87.723
 10
1.173
 20
87.717
 10
1.177
 20
87.708
 10
1.182
 20
87.698
 10
1.341
 20
86.984
 10
1.478
 20
87.363
 10
1.482
 20
87.372
 10
1.487
 20
87.38
 10
1.492
 20
87.387
 10
1.497
 20
87.393
 10
1.503
 20
87.397
 10
1.51
 20
87.4
 10
1.517
 20
87.402
 10
1.524
 20
87.403
 10
1.531
 20
87.402
 10
1.538
 20
87.4
 10
1.545
 20
87.397
 10
1.55
 20
87.393
 10
1.556
 20
87.387
 10
1.561
 20
87.38
 10
1.566
 20
87.372
 10
1.57
 20
87.363
 10
1.708
 20
86.984
 10
1.867
 20
87.698
 10
1.869
 20
87.707
 10
1.873
 20
87.715
 10
1.877
 20
87.722
 10
1.883
 20
87.727
 10
1.889
 20
87.731
 10
1.896
 20
87.734
 10
1.904
 20
87.736
 10
1.913
 20
87.737
 10
1.923
 20
87.736
 10
1.932
 20
87.733
 10
1.94
 20
87.729
 10
1.948
 20
87.723
 10
1.955
 20
87.716
 10
1.96
 20
87.708
 10
1.963
 20
87.699
 10
1.964
 20
87.689
 10
1.962
 20
87.677
  0
LWPOLYLINE
  5
3E
100
AcDbEntity
  8
GENERATED_SILKSCREEN_TOP
100
AcDbPolyline
 90
       89
 70
         0
 43
0.07
 10
1.866
 20
24.777
 10
1.671
 20
23.898
 10
1.669
 20
23.89
 10
1.666
 20
23.883
 10
1.662
 20
23.876
 10
1.655
 20
23.87
 10
1.648
 20
23.865
 10
1.641
 20
23.862
 10
1.633
 20
23.86
 10
1.624
 20
23.859
 10
1.616
 20
23.86
 10
1.609
 20
23.861
 10
1.602
 20
23.864
 10
1.596
 20
23.867
 10
1.59
 20
23.872
 10
1.586
 20
23.878
 10
1.581
 20
23.884
 10
1.578
 20
23.892
 10
1.428
 20
24.304
 10
1.279
 20
23.892
 10
1.271
 20
23.879
 10
1.26
 20
23.868
 10
1.254
 20
23.864
 10
1.247
 20
23.861
 10
1.24
 20
23.86
 10
1.233
 20
23.859
 10
1.224
 20
23.86
 10
1.216
 20
23.862
 10
1.208
 20
23.865
 10
1.202
 20
23.869
 10
1.196
 20
23.874
 10
1.192
 20
23.881
 10
1.188
 20
23.889
 10
1.185
 20
23.898
 10
0.989
 20
24.777
 10
0.989
 20
24.79
 10
0.99
 20
24.799
 10
0.992
 20
24.807
 10
0.997
 20
24.815
 10
1.004
 20
24.822
 10
1.012
 20
24.828
 10
1.02
 20
24.833
 10
1.029
 20
24.836
 10
1.038
 20
24.837
 10
1.046
 20
24.836
 10
1.054
 20
24.835
 10
1.06
 20
24.832
 10
1.066
 20
24.828
 10
1.072
 20
24.823
 10
1.077
 20
24.817
 10
1.081
 20
24.808
 10
1.086
 20
24.798
 10
1.245
 20
24.084
 10
1.382
 20
24.463
 10
1.386
 20
24.472
 10
1.391
 20
24.48
 10
1.396
 20
24.487
 10
1.401
 20
24.493
 10
1.407
 20
24.497
 10
1.414
 20
24.5
 10
1.421
 20
24.502
 10
1.428
 20
24.503
 10
1.435
 20
24.502
 10
1.442
 20
24.5
 10
1.449
 20
24.497
 10
1.454
 20
24.493
 10
1.46
 20
24.487
 10
1.465
 20
24.48
 10
1.47
 20
24.472
 10
1.474
 20
24.463
 10
1.612
 20
24.084
 10
1.771
 20
24.798
 10
1.773
 20
24.807
 10
1.777
 20
24.815
 10
1.781
 20
24.822
 10
1.787
 20
24.827
 10
1.793
 20
24.831
 10
1.8
 20
24.834
 10
1.808
 20
24.836
 10
1.817
 20
24.837
 10
1.827
 20
24.836
 10
1.836
 20
24.833
 10
1.844
 20
24.829
 10
1.852
 20
24.823
 10
1.859
 20
24.816
 10
1.864
 20
24.808
 10
1.867
 20
24.799
 10
1.868
 20
24.789
 10
1.866
 20
24.777
  0
LWPOLYLINE
  5
3F
100
AcDbEntity
  8
GENERATED_SILKSCREEN_TOP
100
AcDbPolyline
 90
       89
 70
         0
 43
0.07
 10
1.766
 20
45.777
 10
1.571
 20
44.898
 10
1.569
 20
44.89
 10
1.566
 20
44.883
 10
1.562
 20
44.876
 10
1.555
 20
44.87
 10
1.548
 20
44.865
 10
1.541
 20
44.862
 10
1.533
 20
44.86
 10
1.524
 20
44.859
 10
1.516
 20
44.86
 10
1.509
 20
44.861
 10
1.502
 20
44.864
 10
1.496
 20
44.867
 10
1.49
 20
44.872
 10
1.486
 20
44.878
 10
1.481
 20
44.884
 10
1.478
 20
44.892
 10
1.328
 20
45.304
 10
1.179
 20
44.892
 10
1.171
 20
44.879
 10
1.16
 20
44.868
 10
1.154
 20
44.864
 10
1.147
 20
44.861
 10
1.14
 20
44.86
 10
1.133
 20
44.859
 10
1.124
 20
44.86
 10
1.116
 20
44.862
 10
1.108
 20
44.865
 10
1.102
 20
44.869
 10
1.096
 20
44.874
 10
1.092
 20
44.881
 10
1.088
 20
44.889
 10
1.085
 20
44.898
 10
0.889
 20
45.777
 10
0.889
 20
45.79
 10
0.89
 20
45.799
 10
0.892
 20
45.807
 10
0.897
 20
45.815
 10
0.904
 20
45.822
 10
0.912
 20
45.828
 10
0.92
 20
45.833
 10
0.929
 20
45.836
 10
0.938
 20
45.837
 10
0.946
 20
45.836
 10
0.954
 20
45.835
 10
0.96
 20
45.832
 10
0.966
 20
45.828
 10
0.972
 20
45.823
 10
0.977
 20
45.817
 10
0.981
 20
45.808
 10
0.986
 20
45.798
 10
1.145
 20
45.084
 10
1.282
 20
45.463
 10
1.286
 20
45.472
 10
1.291
 20
45.48
 10
1.296
 20
45.487
 10
1.301
 20
45.493
 10
1.307
 20
45.497
 10
1.314
 20
45.5
 10
1.321
 20
45.502
 10
1.328
 20
45.503
 10
1.335
 20
45.502
 10
1.342
 20
45.5
 10
1.349
 20
45.497
 10
1.354
 20
45.493
 10
1.36
 20
45.487
 10
1.365
 20
45.48
 10
1.37
 20
45.472
 10
1.374
 20
45.463
 10
1.512
 20
45.084
 10
1.671
 20
45.798
 10
1.673
 20
45.807
 10
1.677
 20
45.815
 10
1.681
 20
45.822
 10
1.687
 20
45.827
 10
1.693
 20
45.831
 10
1.7
 20
45.834
 10
1.708
 20
45.836
 10
1.717
 20
45.837
 10
1.727
 20
45.836
 10
1.736
 20
45.833
 10
1.744
 20
45.829
 10
1.752
 20
45.823
 10
1.759
 20
45.816
 10
1.764
 20
45.808
 10
1.767
 20
45.799
 10
1.768
 20
45.789
 10
1.766
 20
45.777
  0
LWPOLYLINE
  5
40
100
AcDbEntity
  8
GENERATED_SILKSCREEN_TOP
100
AcDbPolyline
 90
       89
 70
         0
 43
0.07
 10
1.666
 20
66.877
 10
1.471
 20
65.998
 10
1.469
 20
65.99
 10
1.466
 20
65.983
 10
1.462
 20
65.976
 10
1.455
 20
65.97
 10
1.448
 20
65.965
 10
1.441
 20
65.962
 10
1.433
 20
65.96
 10
1.424
 20
65.959
 10
1.416
 20
65.96
 10
1.409
 20
65.961
 10
1.402
 20
65.964
 10
1.396
 20
65.967
 10
1.39
 20
65.972
 10
1.386
 20
65.978
 10
1.381
 20
65.984
 10
1.378
 20
65.992
 10
1.228
 20
66.404
 10
1.079
 20
65.992
 10
1.071
 20
65.979
 10
1.06
 20
65.968
 10
1.054
 20
65.964
 10
1.047
 20
65.961
 10
1.04
 20
65.96
 10
1.033
 20
65.959
 10
1.024
 20
65.96
 10
1.016
 20
65.962
 10
1.008
 20
65.965
 10
1.002
 20
65.969
 10
0.996
 20
65.974
 10
0.992
 20
65.981
 10
0.988
 20
65.989
 10
0.985
 20
65.998
 10
0.789
 20
66.877
 10
0.789
 20
66.89
 10
0.79
 20
66.899
 10
0.792
 20
66.907
 10
0.797
 20
66.915
 10
0.804
 20
66.922
 10
0.812
 20
66.928
 10
0.82
 20
66.933
 10
0.829
 20
66.936
 10
0.838
 20
66.937
 10
0.846
 20
66.936
 10
0.854
 20
66.935
 10
0.86
 20
66.932
 10
0.866
 20
66.928
 10
0.872
 20
66.923
 10
0.877
 20
66.917
 10
0.881
 20
66.908
 10
0.886
 20
66.898
 10
1.045
 20
66.184
 10
1.182
 20
66.563
 10
1.186
 20
66.572
 10
1.191
 20
66.58
 10
1.196
 20
66.587
 10
1.201
 20
66.593
 10
1.207
 20
66.597
 10
1.214
 20
66.6
 10
1.221
 20
66.602
 10
1.228
 20
66.603
 10
1.235
 20
66.602
 10
1.242
 20
66.6
 10
1.249
 20
66.597
 10
1.254
 20
66.593
 10
1.26
 20
66.587
 10
1.265
 20
66.58
 10
1.27
 20
66.572
 10
1.274
 20
66.563
 10
1.412
 20
66.184
 10
1.571
 20
66.898
 10
1.573
 20
66.907
 10
1.577
 20
66.915
 10
1.581
 20
66.922
 10
1.587
 20
66.927
 10
1.593
 20
66.931
 10
1.6
 20
66.934
 10
1.608
 20
66.936
 10
1.617
 20
66.937
 10
1.627
 20
66.936
 10
1.636
 20
66.933
 10
1.644
 20
66.929
 10
1.652
 20
66.923
 10
1.659
 20
66.916
 10
1.664
 20
66.908
 10
1.667
 20
66.899
 10
1.668
 20
66.889
 10
1.666
 20
66.877
  0
LWPOLYLINE
  5
41
100
AcDbEntity
  8
GENERATED_SILKSCREEN_TOP
100
AcDbPolyline
 90
      160
 70
         0
 43
0.07
 10
0.86
 20
87.654
 10
0.869
 20
87.647
 10
0.875
 20
87.636
 10
0.879
 20
87.627
 10
0.881
 20
87.615
 10
0.88
 20
87.607
 10
0.877
 20
87.599
 10
0.872
 20
87.59
 10
0.866
 20
87.582
 10
0.858
 20
87.574
 10
0.85
 20
87.569
 10
0.841
 20
87.565
 10
0.832
 20
87.564
 10
0.824
 20
87.565
 10
0.817
 20
87.567
 10
0.81
 20
87.57
 10
0.803
 20
87.574
 10
0.779
 20
87.59
 10
0.754
 20
87.604
 10
0.729
 20
87.615
 10
0.704
 20
87.624
 10
0.678
 20
87.632
 10
0.651
 20
87.637
 10
0.624
 20
87.64
 10
0.596
 20
87.641
 10
0.561
 20
87.639
 10
0.528
 20
87.633
 10
0.496
 20
87.624
 10
0.465
 20
87.611
 10
0.452
 20
87.602
 10
0.44
 20
87.593
 10
0.429
 20
87.583
 10
0.42
 20
87.571
 10
0.408
 20
87.547
 10
0.405
 20
87.535
 10
0.404
 20
87.52
 10
0.406
 20
87.504
 10
0.411
 20
87.489
 10
0.42
 20
87.476
 10
0.433
 20
87.465
 10
0.795
 20
87.197
 10
0.816
 20
87.181
 10
0.834
 20
87.161
 10
0.851
 20
87.138
 10
0.866
 20
87.112
 10
0.878
 20
87.085
 10
0.887
 20
87.056
 10
0.892
 20
87.028
 10
0.894
 20
86.999
 10
0.892
 20
86.97
 10
0.888
 20
86.941
 10
0.88
 20
86.914
 10
0.869
 20
86.888
 10
0.854
 20
86.863
 10
0.836
 20
86.842
 10
0.814
 20
86.824
 10
0.789
 20
86.808
 10
0.766
 20
86.797
 10
0.741
 20
86.787
 10
0.715
 20
86.777
 10
0.687
 20
86.768
 10
0.662
 20
86.762
 10
0.637
 20
86.758
 10
0.613
 20
86.756
 10
0.589
 20
86.755
 10
0.556
 20
86.756
 10
0.523
 20
86.76
 10
0.49
 20
86.767
 10
0.459
 20
86.777
 10
0.425
 20
86.789
 10
0.395
 20
86.804
 10
0.38
 20
86.812
 10
0.364
 20
86.821
 10
0.348
 20
86.832
 10
0.33
 20
86.843
 10
0.32
 20
86.851
 10
0.313
 20
86.86
 10
0.309
 20
86.871
 10
0.308
 20
86.883
 10
0.309
 20
86.893
 10
0.311
 20
86.903
 10
0.316
 20
86.911
 10
0.322
 20
86.919
 10
0.329
 20
86.925
 10
0.337
 20
86.93
 10
0.346
 20
86.933
 10
0.355
 20
86.934
 10
0.362
 20
86.933
 10
0.368
 20
86.932
 10
0.375
 20
86.929
 10
0.383
 20
86.925
 10
0.409
 20
86.909
 10
0.435
 20
86.895
 10
0.461
 20
86.883
 10
0.487
 20
86.873
 10
0.512
 20
86.864
 10
0.539
 20
86.858
 10
0.565
 20
86.855
 10
0.591
 20
86.853
 10
0.61
 20
86.854
 10
0.629
 20
86.856
 10
0.648
 20
86.859
 10
0.667
 20
86.864
 10
0.686
 20
86.869
 10
0.706
 20
86.877
 10
0.725
 20
86.885
 10
0.745
 20
86.895
 10
0.757
 20
86.902
 10
0.767
 20
86.911
 10
0.776
 20
86.923
 10
0.784
 20
86.936
 10
0.791
 20
86.951
 10
0.795
 20
86.966
 10
0.798
 20
86.981
 10
0.799
 20
86.997
 10
0.798
 20
87.014
 10
0.795
 20
87.031
 10
0.791
 20
87.048
 10
0.784
 20
87.066
 10
0.776
 20
87.079
 10
0.766
 20
87.092
 10
0.754
 20
87.105
 10
0.74
 20
87.117
 10
0.378
 20
87.385
 10
0.363
 20
87.397
 10
0.35
 20
87.41
 10
0.339
 20
87.426
 10
0.329
 20
87.443
 10
0.321
 20
87.462
 10
0.315
 20
87.481
 10
0.312
 20
87.5
 10
0.311
 20
87.52
 10
0.312
 20
87.546
 10
0.317
 20
87.572
 10
0.325
 20
87.596
 10
0.336
 20
87.619
 10
0.343
 20
87.63
 10
0.351
 20
87.641
 10
0.36
 20
87.651
 10
0.37
 20
87.661
 10
0.381
 20
87.671
 10
0.393
 20
87.68
 10
0.406
 20
87.688
 10
0.42
 20
87.696
 10
0.44
 20
87.706
 10
0.461
 20
87.714
 10
0.482
 20
87.721
 10
0.504
 20
87.727
 10
0.526
 20
87.731
 10
0.549
 20
87.734
 10
0.573
 20
87.736
 10
0.597
 20
87.737
 10
0.632
 20
87.735
 10
0.667
 20
87.731
 10
0.701
 20
87.725
 10
0.735
 20
87.716
 10
0.768
 20
87.704
 10
0.8
 20
87.69
 10
0.831
 20
87.673
 10
0.86
 20
87.654
  0
LWPOLYLINE
  5
42
100
AcDbEntity
  8
GENERATED_SILKSCREEN_TOP
100
AcDbPolyline
 90
      160
 70
         0
 43
0.07
 10
0.764
 20
24.754
 10
0.773
 20
24.747
 10
0.779
 20
24.736
 10
0.783
 20
24.727
 10
0.785
 20
24.715
 10
0.784
 20
24.707
 10
0.781
 20
24.699
 10
0.776
 20
24.69
 10
0.77
 20
24.682
 10
0.762
 20
24.674
 10
0.754
 20
24.669
 10
0.745
 20
24.665
 10
0.736
 20
24.664
 10
0.728
 20
24.665
 10
0.721
 20
24.667
 10
0.714
 20
24.67
 10
0.707
 20
24.674
 10
0.683
 20
24.69
 10
0.658
 20
24.704
 10
0.633
 20
24.715
 10
0.608
 20
24.724
 10
0.582
 20
24.732
 10
0.555
 20
24.737
 10
0.528
 20
24.74
 10
0.5
 20
24.741
 10
0.465
 20
24.739
 10
0.432
 20
24.733
 10
0.4
 20
24.724
 10
0.369
 20
24.711
 10
0.356
 20
24.702
 10
0.344
 20
24.693
 10
0.333
 20
24.683
 10
0.324
 20
24.671
 10
0.312
 20
24.647
 10
0.309
 20
24.635
 10
0.308
 20
24.62
 10
0.31
 20
24.604
 10
0.315
 20
24.589
 10
0.324
 20
24.576
 10
0.337
 20
24.565
 10
0.699
 20
24.297
 10
0.72
 20
24.281
 10
0.738
 20
24.261
 10
0.755
 20
24.238
 10
0.77
 20
24.212
 10
0.782
 20
24.185
 10
0.791
 20
24.156
 10
0.796
 20
24.128
 10
0.798
 20
24.099
 10
0.796
 20
24.07
 10
0.792
 20
24.041
 10
0.784
 20
24.014
 10
0.773
 20
23.988
 10
0.758
 20
23.963
 10
0.74
 20
23.942
 10
0.718
 20
23.924
 10
0.693
 20
23.908
 10
0.67
 20
23.897
 10
0.645
 20
23.887
 10
0.619
 20
23.877
 10
0.591
 20
23.868
 10
0.566
 20
23.862
 10
0.541
 20
23.858
 10
0.517
 20
23.856
 10
0.493
 20
23.855
 10
0.46
 20
23.856
 10
0.427
 20
23.86
 10
0.394
 20
23.867
 10
0.363
 20
23.877
 10
0.329
 20
23.889
 10
0.299
 20
23.904
 10
0.284
 20
23.912
 10
0.268
 20
23.921
 10
0.252
 20
23.932
 10
0.234
 20
23.943
 10
0.224
 20
23.951
 10
0.217
 20
23.96
 10
0.213
 20
23.971
 10
0.212
 20
23.983
 10
0.213
 20
23.993
 10
0.215
 20
24.003
 10
0.22
 20
24.011
 10
0.226
 20
24.019
 10
0.233
 20
24.025
 10
0.241
 20
24.03
 10
0.25
 20
24.033
 10
0.259
 20
24.034
 10
0.266
 20
24.033
 10
0.272
 20
24.032
 10
0.279
 20
24.029
 10
0.287
 20
24.025
 10
0.313
 20
24.009
 10
0.339
 20
23.995
 10
0.365
 20
23.983
 10
0.391
 20
23.973
 10
0.416
 20
23.964
 10
0.443
 20
23.958
 10
0.469
 20
23.955
 10
0.495
 20
23.953
 10
0.514
 20
23.954
 10
0.533
 20
23.956
 10
0.552
 20
23.959
 10
0.571
 20
23.964
 10
0.59
 20
23.969
 10
0.61
 20
23.977
 10
0.629
 20
23.985
 10
0.649
 20
23.995
 10
0.661
 20
24.002
 10
0.671
 20
24.011
 10
0.68
 20
24.023
 10
0.688
 20
24.036
 10
0.695
 20
24.051
 10
0.699
 20
24.066
 10
0.702
 20
24.081
 10
0.703
 20
24.097
 10
0.702
 20
24.114
 10
0.699
 20
24.131
 10
0.695
 20
24.148
 10
0.688
 20
24.166
 10
0.68
 20
24.179
 10
0.67
 20
24.192
 10
0.658
 20
24.205
 10
0.644
 20
24.217
 10
0.282
 20
24.485
 10
0.267
 20
24.497
 10
0.254
 20
24.51
 10
0.243
 20
24.526
 10
0.233
 20
24.543
 10
0.225
 20
24.562
 10
0.219
 20
24.581
 10
0.216
 20
24.6
 10
0.215
 20
24.62
 10
0.216
 20
24.646
 10
0.221
 20
24.672
 10
0.229
 20
24.696
 10
0.24
 20
24.719
 10
0.247
 20
24.73
 10
0.255
 20
24.741
 10
0.264
 20
24.751
 10
0.274
 20
24.761
 10
0.285
 20
24.771
 10
0.297
 20
24.78
 10
0.31
 20
24.788
 10
0.324
 20
24.796
 10
0.344
 20
24.806
 10
0.365
 20
24.814
 10
0.386
 20
24.821
 10
0.408
 20
24.827
 10
0.43
 20
24.831
 10
0.453
 20
24.834
 10
0.477
 20
24.836
 10
0.501
 20
24.837
 10
0.536
 20
24.835
 10
0.571
 20
24.831
 10
0.605
 20
24.825
 10
0.639
 20
24.816
 10
0.672
 20
24.804
 10
0.704
 20
24.79
 10
0.735
 20
24.773
 10
0.764
 20
24.754
  0
LWPOLYLINE
  5
43
100
AcDbEntity
  8
GENERATED_SILKSCREEN_TOP
100
AcDbPolyline
 90
      160
 70
         0
 43
0.07
 10
0.664
 20
45.754
 10
0.673
 20
45.747
 10
0.679
 20
45.736
 10
0.683
 20
45.727
 10
0.685
 20
45.715
 10
0.684
 20
45.707
 10
0.681
 20
45.699
 10
0.676
 20
45.69
 10
0.67
 20
45.682
 10
0.662
 20
45.674
 10
0.654
 20
45.669
 10
0.645
 20
45.665
 10
0.636
 20
45.664
 10
0.628
 20
45.665
 10
0.621
 20
45.667
 10
0.614
 20
45.67
 10
0.607
 20
45.674
 10
0.583
 20
45.69
 10
0.558
 20
45.704
 10
0.533
 20
45.715
 10
0.508
 20
45.724
 10
0.482
 20
45.732
 10
0.455
 20
45.737
 10
0.428
 20
45.74
 10
0.4
 20
45.741
 10
0.365
 20
45.739
 10
0.332
 20
45.733
 10
0.3
 20
45.724
 10
0.269
 20
45.711
 10
0.256
 20
45.702
 10
0.244
 20
45.693
 10
0.233
 20
45.683
 10
0.224
 20
45.671
 10
0.212
 20
45.647
 10
0.209
 20
45.635
 10
0.208
 20
45.62
 10
0.21
 20
45.604
 10
0.215
 20
45.589
 10
0.224
 20
45.576
 10
0.237
 20
45.565
 10
0.599
 20
45.297
 10
0.62
 20
45.281
 10
0.638
 20
45.261
 10
0.655
 20
45.238
 10
0.67
 20
45.212
 10
0.682
 20
45.185
 10
0.691
 20
45.156
 10
0.696
 20
45.128
 10
0.698
 20
45.099
 10
0.696
 20
45.07
 10
0.692
 20
45.041
 10
0.684
 20
45.014
 10
0.673
 20
44.988
 10
0.658
 20
44.963
 10
0.64
 20
44.942
 10
0.618
 20
44.924
 10
0.593
 20
44.908
 10
0.57
 20
44.897
 10
0.545
 20
44.887
 10
0.519
 20
44.877
 10
0.491
 20
44.868
 10
0.466
 20
44.862
 10
0.441
 20
44.858
 10
0.417
 20
44.856
 10
0.393
 20
44.855
 10
0.36
 20
44.856
 10
0.327
 20
44.86
 10
0.294
 20
44.867
 10
0.263
 20
44.877
 10
0.229
 20
44.889
 10
0.199
 20
44.904
 10
0.184
 20
44.912
 10
0.168
 20
44.921
 10
0.152
 20
44.932
 10
0.134
 20
44.943
 10
0.124
 20
44.951
 10
0.117
 20
44.96
 10
0.113
 20
44.971
 10
0.112
 20
44.983
 10
0.113
 20
44.993
 10
0.115
 20
45.003
 10
0.12
 20
45.011
 10
0.126
 20
45.019
 10
0.133
 20
45.025
 10
0.141
 20
45.03
 10
0.15
 20
45.033
 10
0.159
 20
45.034
 10
0.166
 20
45.033
 10
0.172
 20
45.032
 10
0.179
 20
45.029
 10
0.187
 20
45.025
 10
0.213
 20
45.009
 10
0.239
 20
44.995
 10
0.265
 20
44.983
 10
0.291
 20
44.973
 10
0.316
 20
44.964
 10
0.343
 20
44.958
 10
0.369
 20
44.955
 10
0.395
 20
44.953
 10
0.414
 20
44.954
 10
0.433
 20
44.956
 10
0.452
 20
44.959
 10
0.471
 20
44.964
 10
0.49
 20
44.969
 10
0.51
 20
44.977
 10
0.529
 20
44.985
 10
0.549
 20
44.995
 10
0.561
 20
45.002
 10
0.571
 20
45.011
 10
0.58
 20
45.023
 10
0.588
 20
45.036
 10
0.595
 20
45.051
 10
0.599
 20
45.066
 10
0.602
 20
45.081
 10
0.603
 20
45.097
 10
0.602
 20
45.114
 10
0.599
 20
45.131
 10
0.595
 20
45.148
 10
0.588
 20
45.166
 10
0.58
 20
45.179
 10
0.57
 20
45.192
 10
0.558
 20
45.205
 10
0.544
 20
45.217
 10
0.182
 20
45.485
 10
0.167
 20
45.497
 10
0.154
 20
45.51
 10
0.143
 20
45.526
 10
0.133
 20
45.543
 10
0.125
 20
45.562
 10
0.119
 20
45.581
 10
0.116
 20
45.6
 10
0.115
 20
45.62
 10
0.116
 20
45.646
 10
0.121
 20
45.672
 10
0.129
 20
45.696
 10
0.14
 20
45.719
 10
0.147
 20
45.73
 10
0.155
 20
45.741
 10
0.164
 20
45.751
 10
0.174
 20
45.761
 10
0.185
 20
45.771
 10
0.197
 20
45.78
 10
0.21
 20
45.788
 10
0.224
 20
45.796
 10
0.244
 20
45.806
 10
0.265
 20
45.814
 10
0.286
 20
45.821
 10
0.308
 20
45.827
 10
0.33
 20
45.831
 10
0.353
 20
45.834
 10
0.377
 20
45.836
 10
0.401
 20
45.837
 10
0.436
 20
45.835
 10
0.471
 20
45.831
 10
0.505
 20
45.825
 10
0.539
 20
45.816
 10
0.572
 20
45.804
 10
0.604
 20
45.79
 10
0.635
 20
45.773
 10
0.664
 20
45.754
  0
LWPOLYLINE
  5
44
100
AcDbEntity
  8
GENERATED_SILKSCREEN_TOP
100
AcDbPolyline
 90
      160
 70
         0
 43
0.07
 10
0.564
 20
66.854
 10
0.573
 20
66.847
 10
0.579
 20
66.836
 10
0.583
 20
66.827
 10
0.585
 20
66.815
 10
0.584
 20
66.807
 10
0.581
 20
66.799
 10
0.576
 20
66.79
 10
0.57
 20
66.782
 10
0.562
 20
66.774
 10
0.554
 20
66.769
 10
0.545
 20
66.765
 10
0.536
 20
66.764
 10
0.528
 20
66.765
 10
0.521
 20
66.767
 10
0.514
 20
66.77
 10
0.507
 20
66.774
 10
0.483
 20
66.79
 10
0.458
 20
66.804
 10
0.433
 20
66.815
 10
0.408
 20
66.824
 10
0.382
 20
66.832
 10
0.355
 20
66.837
 10
0.328
 20
66.84
 10
0.3
 20
66.841
 10
0.265
 20
66.839
 10
0.232
 20
66.833
 10
0.2
 20
66.824
 10
0.169
 20
66.811
 10
0.156
 20
66.802
 10
0.144
 20
66.793
 10
0.133
 20
66.783
 10
0.124
 20
66.771
 10
0.112
 20
66.747
 10
0.109
 20
66.735
 10
0.108
 20
66.72
 10
0.11
 20
66.704
 10
0.115
 20
66.689
 10
0.124
 20
66.676
 10
0.137
 20
66.665
 10
0.499
 20
66.397
 10
0.52
 20
66.381
 10
0.538
 20
66.361
 10
0.555
 20
66.338
 10
0.57
 20
66.312
 10
0.582
 20
66.285
 10
0.591
 20
66.256
 10
0.596
 20
66.228
 10
0.598
 20
66.199
 10
0.596
 20
66.17
 10
0.592
 20
66.141
 10
0.584
 20
66.114
 10
0.573
 20
66.088
 10
0.558
 20
66.063
 10
0.54
 20
66.042
 10
0.518
 20
66.024
 10
0.493
 20
66.008
 10
0.47
 20
65.997
 10
0.445
 20
65.987
 10
0.419
 20
65.977
 10
0.391
 20
65.968
 10
0.366
 20
65.962
 10
0.341
 20
65.958
 10
0.317
 20
65.956
 10
0.293
 20
65.955
 10
0.26
 20
65.956
 10
0.227
 20
65.96
 10
0.194
 20
65.967
 10
0.163
 20
65.977
 10
0.129
 20
65.989
 10
0.099
 20
66.004
 10
0.084
 20
66.012
 10
0.068
 20
66.021
 10
0.052
 20
66.032
 10
0.034
 20
66.043
 10
0.024
 20
66.051
 10
0.017
 20
66.06
 10
0.013
 20
66.071
 10
0.012
 20
66.083
 10
0.013
 20
66.093
 10
0.015
 20
66.103
 10
0.02
 20
66.111
 10
0.026
 20
66.119
 10
0.033
 20
66.125
 10
0.041
 20
66.13
 10
0.05
 20
66.133
 10
0.059
 20
66.134
 10
0.066
 20
66.133
 10
0.072
 20
66.132
 10
0.079
 20
66.129
 10
0.087
 20
66.125
 10
0.113
 20
66.109
 10
0.139
 20
66.095
 10
0.165
 20
66.083
 10
0.191
 20
66.073
 10
0.216
 20
66.064
 10
0.243
 20
66.058
 10
0.269
 20
66.055
 10
0.295
 20
66.053
 10
0.314
 20
66.054
 10
0.333
 20
66.056
 10
0.352
 20
66.059
 10
0.371
 20
66.064
 10
0.39
 20
66.069
 10
0.41
 20
66.077
 10
0.429
 20
66.085
 10
0.449
 20
66.095
 10
0.461
 20
66.102
 10
0.471
 20
66.111
 10
0.48
 20
66.123
 10
0.488
 20
66.136
 10
0.495
 20
66.151
 10
0.499
 20
66.166
 10
0.502
 20
66.181
 10
0.503
 20
66.197
 10
0.502
 20
66.214
 10
0.499
 20
66.231
 10
0.495
 20
66.248
 10
0.488
 20
66.266
 10
0.48
 20
66.279
 10
0.47
 20
66.292
 10
0.458
 20
66.305
 10
0.444
 20
66.317
 10
0.082
 20
66.585
 10
0.067
 20
66.597
 10
0.054
 20
66.61
 10
0.043
 20
66.626
 10
0.033
 20
66.643
 10
0.025
 20
66.662
 10
0.019
 20
66.681
 10
0.016
 20
66.7
 10
0.015
 20
66.72
 10
0.016
 20
66.746
 10
0.021
 20
66.772
 10
0.029
 20
66.796
 10
0.04
 20
66.819
 10
0.047
 20
66.83
 10
0.055
 20
66.841
 10
0.064
 20
66.851
 10
0.074
 20
66.861
 10
0.085
 20
66.871
 10
0.097
 20
66.88
 10
0.11
 20
66.888
 10
0.124
 20
66.896
 10
0.144
 20
66.906
 10
0.165
 20
66.914
 10
0.186
 20
66.921
 10
0.208
 20
66.927
 10
0.23
 20
66.931
 10
0.253
 20
66.934
 10
0.277
 20
66.936
 10
0.301
 20
66.937
 10
0.336
 20
66.935
 10
0.371
 20
66.931
 10
0.405
 20
66.925
 10
0.439
 20
66.916
 10
0.472
 20
66.904
 10
0.504
 20
66.89
 10
0.535
 20
66.873
 10
0.564
 20
66.854
  0
LWPOLYLINE
  5
45
100
AcDbEntity
  8
GENERATED_SILKSCREEN_TOP
100
AcDbPolyline
 90
       11
 70
         0
 43
0.15
 10
-1.646867
 20
20.749995
 10
-1.849995
 20
20.749995
 10
-1.849995
 20
15.750005
 10
-1.646867
 20
15.750005
 42
0.0000035166
 10
-1.646869
 20
15.749995
 10
-1.85
 20
15.749995
 42
-0.4142135624
 10
-1.850005
 20
15.75
 10
-1.850005
 20
20.75
 42
-0.4142135624
 10
-1.85
 20
20.750005
 10
-1.646869
 20
20.750005
 42
0.0000035166
 10
-1.646867
 20
20.749995
  0
LWPOLYLINE
  5
46
100
AcDbEntity
  8
GENERATED_SILKSCREEN_TOP
100
AcDbPolyline
 90
       11
 70
         0
 43
0.15
 10
-1.646867
 20
41.749995
 10
-1.849995
 20
41.749995
 10
-1.849995
 20
36.750005
 10
-1.646867
 20
36.750005
 42
0.0000035166
 10
-1.646869
 20
36.749995
 10
-1.85
 20
36.749995
 42
-0.4142135624
 10
-1.850005
 20
36.75
 10
-1.850005
 20
41.75
 42
-0.4142135624
 10
-1.85
 20
41.750005
 10
-1.646869
 20
41.750005
 42
0.0000035166
 10
-1.646867
 20
41.749995
  0
LWPOLYLINE
  5
47
100
AcDbEntity
  8
GENERATED_SILKSCREEN_TOP
100
AcDbPolyline
 90
       11
 70
         0
 43
0.15
 10
-1.646867
 20
62.749995
 10
-1.849995
 20
62.749995
 10
-1.849995
 20
57.750005
 10
-1.646867
 20
57.750005
 42
0.0000035166
 10
-1.646869
 20
57.749995
 10
-1.85
 20
57.749995
 42
-0.4142135624
 10
-1.850005
 20
57.75
 10
-1.850005
 20
62.75
 42
-0.4142135624
 10
-1.85
 20
62.750005
 10
-1.646869
 20
62.750005
 42
0.0000035166
 10
-1.646867
 20
62.749995
  0
LWPOLYLINE
  5
48
100
AcDbEntity
  8
GENERATED_SILKSCREEN_TOP
100
AcDbPolyline
 90
       11
 70
         0
 43
0.15
 10
-1.646867
 20
83.749995
 10
-1.849995
 20
83.749995
 10
-1.849995
 20
78.750005
 10
-1.646867
 20
78.750005
 42
0.0000035166
 10
-1.646869
 20
78.749995
 10
-1.85
 20
78.749995
 42
-0.4142135624
 10
-1.850005
 20
78.75
 10
-1.850005
 20
83.75
 42
-0.4142135624
 10
-1.85
 20
83.750005
 10
-1.646869
 20
83.750005
 42
0.0000035166
 10
-1.646867
 20
83.749995
  0
LWPOLYLINE
  5
49
100
AcDbEntity
  8
GENERATED_SILKSCREEN_TOP
100
AcDbPolyline
 90
        5
 70
         0
 43
0.15
 10
2.853133
 20
15.750005
 42
0.0000035166
 10
2.853131
 20
15.749995
 10
-0.253131
 20
15.749995
 42
0.0000035166
 10
-0.253133
 20
15.750005
 10
2.853133
 20
15.750005
  0
LWPOLYLINE
  5
4A
100
AcDbEntity
  8
GENERATED_SILKSCREEN_TOP
100
AcDbPolyline
 90
        5
 70
         0
 43
0.15
 10
2.853133
 20
20.749995
 10
-0.253133
 20
20.749995
 42
0.0000035166
 10
-0.253131
 20
20.750005
 10
2.853131
 20
20.750005
 42
0.0000035166
 10
2.853133
 20
20.749995
  0
LWPOLYLINE
  5
4B
100
AcDbEntity
  8
GENERATED_SILKSCREEN_TOP
100
AcDbPolyline
 90
        5
 70
         0
 43
0.15
 10
2.853133
 20
36.750005
 42
0.0000035166
 10
2.853131
 20
36.749995
 10
-0.253131
 20
36.749995
 42
0.0000035166
 10
-0.253133
 20
36.750005
 10
2.853133
 20
36.750005
  0
LWPOLYLINE
  5
4C
100
AcDbEntity
  8
GENERATED_SILKSCREEN_TOP
100
AcDbPolyline
 90
        5
 70
         0
 43
0.15
 10
2.853133
 20
41.749995
 10
-0.253133
 20
41.749995
 42
0.0000035166
 10
-0.253131
 20
41.750005
 10
2.853131
 20
41.750005
 42
0.0000035166
 10
2.853133
 20
41.749995
  0
LWPOLYLINE
  5
4D
100
AcDbEntity
  8
GENERATED_SILKSCREEN_TOP
100
AcDbPolyline
 90
        5
 70
         0
 43
0.15
 10
2.853133
 20
57.750005
 42
0.0000035166
 10
2.853131
 20
57.749995
 10
-0.253131
 20
57.749995
 42
0.0000035166
 10
-0.253133
 20
57.750005
 10
2.853133
 20
57.750005
  0
LWPOLYLINE
  5
4E
100
AcDbEntity
  8
GENERATED_SILKSCREEN_TOP
100
AcDbPolyline
 90
        5
 70
         0
 43
0.15
 10
2.853133
 20
62.749995
 10
-0.253133
 20
62.749995
 42
0.0000035166
 10
-0.253131
 20
62.750005
 10
2.853131
 20
62.750005
 42
0.0000035166
 10
2.853133
 20
62.749995
  0
LWPOLYLINE
  5
4F
100
AcDbEntity
  8
GENERATED_SILKSCREEN_TOP
100
AcDbPolyline
 90
        5
 70
         0
 43
0.15
 10
2.853133
 20
78.750005
 42
0.0000035166
 10
2.853131
 20
78.749995
 10
-0.253131
 20
78.749995
 42
0.0000035166
 10
-0.253133
 20
78.750005
 10
2.853133
 20
78.750005
  0
LWPOLYLINE
  5
50
100
AcDbEntity
  8
GENERATED_SILKSCREEN_TOP
100
AcDbPolyline
 90
        5
 70
         0
 43
0.15
 10
2.853133
 20
83.749995
 10
-0.253133
 20
83.749995
 42
0.0000035166
 10
-0.253131
 20
83.750005
 10
2.853131
 20
83.750005
 42
0.0000035166
 10
2.853133
 20
83.749995
  0
LWPOLYLINE
  5
51
100
AcDbEntity
  8
GENERATED_SILKSCREEN_TOP
100
AcDbPolyline
 90
       11
 70
         0
 43
0.15
 10
4.450005
 20
15.75
 42
-0.4142135624
 10
4.45
 20
15.749995
 10
4.246869
 20
15.749995
 42
0.0000035166
 10
4.246867
 20
15.750005
 10
4.449995
 20
15.750005
 10
4.449995
 20
20.749995
 10
4.246867
 20
20.749995
 42
0.0000035166
 10
4.246869
 20
20.750005
 10
4.45
 20
20.750005
 42
-0.4142135624
 10
4.450005
 20
20.75
 10
4.450005
 20
15.75
  0
LWPOLYLINE
  5
52
100
AcDbEntity
  8
GENERATED_SILKSCREEN_TOP
100
AcDbPolyline
 90
       11
 70
         0
 43
0.15
 10
4.450005
 20
36.75
 42
-0.4142135624
 10
4.45
 20
36.749995
 10
4.246869
 20
36.749995
 42
0.0000035166
 10
4.246867
 20
36.750005
 10
4.449995
 20
36.750005
 10
4.449995
 20
41.749995
 10
4.246867
 20
41.749995
 42
0.0000035166
 10
4.246869
 20
41.750005
 10
4.45
 20
41.750005
 42
-0.4142135624
 10
4.450005
 20
41.75
 10
4.450005
 20
36.75
  0
LWPOLYLINE
  5
53
100
AcDbEntity
  8
GENERATED_SILKSCREEN_TOP
100
AcDbPolyline
 90
       11
 70
         0
 43
0.15
 10
4.450005
 20
57.75
 42
-0.4142135624
 10
4.45
 20
57.749995
 10
4.246869
 20
57.749995
 42
0.0000035166
 10
4.246867
 20
57.750005
 10
4.449995
 20
57.750005
 10
4.449995
 20
62.749995
 10
4.246867
 20
62.749995
 42
0.0000035166
 10
4.246869
 20
62.750005
 10
4.45
 20
62.750005
 42
-0.4142135624
 10
4.450005
 20
62.75
 10
4.450005
 20
57.75
  0
LWPOLYLINE
  5
54
100
AcDbEntity
  8
GENERATED_SILKSCREEN_TOP
100
AcDbPolyline
 90
       11
 70
         0
 43
0.15
 10
4.450005
 20
78.75
 42
-0.4142135624
 10
4.45
 20
78.749995
 10
4.246869
 20
78.749995
 42
0.0000035166
 10
4.246867
 20
78.750005
 10
4.449995
 20
78.750005
 10
4.449995
 20
83.749995
 10
4.246867
 20
83.749995
 42
0.0000035166
 10
4.246869
 20
83.750005
 10
4.45
 20
83.750005
 42
-0.4142135624
 10
4.450005
 20
83.75
 10
4.450005
 20
78.75
  0
LWPOLYLINE
  5
55
100
AcDbEntity
  8
GENERATED_SILKSCREEN_TOP
100
AcDbPolyline
 90
       11
 70
         0
 43
0.15
 10
176.753133
 20
20.749995
 10
176.550005
 20
20.749995
 10
176.550005
 20
15.750005
 10
176.753133
 20
15.750005
 42
0.0000035166
 10
176.753131
 20
15.749995
 10
176.55
 20
15.749995
 42
-0.4142135624
 10
176.549995
 20
15.75
 10
176.549995
 20
20.75
 42
-0.4142135624
 10
176.55
 20
20.750005
 10
176.753131
 20
20.750005
 42
0.0000035166
 10
176.753133
 20
20.749995
  0
LWPOLYLINE
  5
56
100
AcDbEntity
  8
GENERATED_SILKSCREEN_TOP
100
AcDbPolyline
 90
       11
 70
         0
 43
0.15
 10
176.753133
 20
41.749995
 10
176.550005
 20
41.749995
 10
176.550005
 20
36.750005
 10
176.753133
 20
36.750005
 42
0.0000035166
 10
176.753131
 20
36.749995
 10
176.55
 20
36.749995
 42
-0.4142135624
 10
176.549995
 20
36.75
 10
176.549995
 20
41.75
 42
-0.4142135624
 10
176.55
 20
41.750005
 10
176.753131
 20
41.750005
 42
0.0000035166
 10
176.753133
 20
41.749995
  0
LWPOLYLINE
  5
57
100
AcDbEntity
  8
GENERATED_SILKSCREEN_TOP
100
AcDbPolyline
 90
       11
 70
         0
 43
0.15
 10
176.753133
 20
62.749995
 10
176.550005
 20
62.749995
 10
176.550005
 20
57.750005
 10
176.753133
 20
57.750005
 42
0.0000035166
 10
176.753131
 20
57.749995
 10
176.55
 20
57.749995
 42
-0.4142135624
 10
176.549995
 20
57.75
 10
176.549995
 20
62.75
 42
-0.4142135624
 10
176.55
 20
62.750005
 10
176.753131
 20
62.750005
 42
0.0000035166
 10
176.753133
 20
62.749995
  0
LWPOLYLINE
  5
58
100
AcDbEntity
  8
GENERATED_SILKSCREEN_TOP
100
AcDbPolyline
 90
       11
 70
         0
 43
0.15
 10
176.753133
 20
83.749995
 10
176.550005
 20
83.749995
 10
176.550005
 20
78.750005
 10
176.753133
 20
78.750005
 42
0.0000035166
 10
176.753131
 20
78.749995
 10
176.55
 20
78.749995
 42
-0.4142135624
 10
176.549995
 20
78.75
 10
176.549995
 20
83.75
 42
-0.4142135624
 10
176.55
 20
83.750005
 10
176.753131
 20
83.750005
 42
0.0000035166
 10
176.753133
 20
83.749995
  0
LWPOLYLINE
  5
59
100
AcDbEntity
  8
GENERATED_SILKSCREEN_TOP
100
AcDbPolyline
 90
        5
 70
         0
 43
0.15
 10
181.253133
 20
15.750005
 42
0.0000035166
 10
181.253131
 20
15.749995
 10
178.146869
 20
15.749995
 42
0.0000035166
 10
178.146867
 20
15.750005
 10
181.253133
 20
15.750005
  0
LWPOLYLINE
  5
5A
100
AcDbEntity
  8
GENERATED_SILKSCREEN_TOP
100
AcDbPolyline
 90
        5
 70
         0
 43
0.15
 10
181.253133
 20
20.749995
 10
178.146867
 20
20.749995
 42
0.0000035166
 10
178.146869
 20
20.750005
 10
181.253131
 20
20.750005
 42
0.0000035166
 10
181.253133
 20
20.749995
  0
LWPOLYLINE
  5
5B
100
AcDbEntity
  8
GENERATED_SILKSCREEN_TOP
100
AcDbPolyline
 90
        5
 70
         0
 43
0.15
 10
181.253133
 20
36.750005
 42
0.0000035166
 10
181.253131
 20
36.749995
 10
178.146869
 20
36.749995
 42
0.0000035166
 10
178.146867
 20
36.750005
 10
181.253133
 20
36.750005
  0
LWPOLYLINE
  5
5C
100
AcDbEntity
  8
GENERATED_SILKSCREEN_TOP
100
AcDbPolyline
 90
        5
 70
         0
 43
0.15
 10
181.253133
 20
41.749995
 10
178.146867
 20
41.749995
 42
0.0000035166
 10
178.146869
 20
41.750005
 10
181.253131
 20
41.750005
 42
0.0000035166
 10
181.253133
 20
41.749995
  0
LWPOLYLINE
  5
5D
100
AcDbEntity
  8
GENERATED_SILKSCREEN_TOP
100
AcDbPolyline
 90
        5
 70
         0
 43
0.15
 10
181.253133
 20
57.750005
 42
0.0000035166
 10
181.253131
 20
57.749995
 10
178.146869
 20
57.749995
 42
0.0000035166
 10
178.146867
 20
57.750005
 10
181.253133
 20
57.750005
  0
LWPOLYLINE
  5
5E
100
AcDbEntity
  8
GENERATED_SILKSCREEN_TOP
100
AcDbPolyline
 90
        5
 70
         0
 43
0.15
 10
181.253133
 20
62.749995
 10
178.146867
 20
62.749995
 42
0.0000035166
 10
178.146869
 20
62.750005
 10
181.253131
 20
62.750005
 42
0.0000035166
 10
181.253133
 20
62.749995
  0
LWPOLYLINE
  5
5F
100
AcDbEntity
  8
GENERATED_SILKSCREEN_TOP
100
AcDbPolyline
 90
        5
 70
         0
 43
0.15
 10
181.253133
 20
78.750005
 42
0.0000035166
 10
181.253131
 20
78.749995
 10
178.146869
 20
78.749995
 42
0.0000035166
 10
178.146867
 20
78.750005
 10
181.253133
 20
78.750005
  0
LWPOLYLINE
  5
60
100
AcDbEntity
  8
GENERATED_SILKSCREEN_TOP
100
AcDbPolyline
 90
        5
 70
         0
 43
0.15
 10
181.253133
 20
83.749995
 10
178.146867
 20
83.749995
 42
0.0000035166
 10
178.146869
 20
83.750005
 10
181.253131
 20
83.750005
 42
0.0000035166
 10
181.253133
 20
83.749995
  0
LWPOLYLINE
  5
61
100
AcDbEntity
  8
GENERATED_SILKSCREEN_TOP
100
AcDbPolyline
 90
       11
 70
         0
 43
0.15
 10
182.850005
 20
15.75
 42
-0.4142135624
 10
182.85
 20
15.749995
 10
182.646869
 20
15.749995
 42
0.0000035166
 10
182.646867
 20
15.750005
 10
182.849995
 20
15.750005
 10
182.849995
 20
20.749995
 10
182.646867
 20
20.749995
 42
0.0000035166
 10
182.646869
 20
20.750005
 10
182.85
 20
20.750005
 42
-0.4142135624
 10
182.850005
 20
20.75
 10
182.850005
 20
15.75
  0
LWPOLYLINE
  5
62
100
AcDbEntity
  8
GENERATED_SILKSCREEN_TOP
100
AcDbPolyline
 90
       11
 70
         0
 43
0.15
 10
182.850005
 20
36.75
 42
-0.4142135624
 10
182.85
 20
36.749995
 10
182.646869
 20
36.749995
 42
0.0000035166
 10
182.646867
 20
36.750005
 10
182.849995
 20
36.750005
 10
182.849995
 20
41.749995
 10
182.646867
 20
41.749995
 42
0.0000035166
 10
182.646869
 20
41.750005
 10
182.85
 20
41.750005
 42
-0.4142135624
 10
182.850005
 20
41.75
 10
182.850005
 20
36.75
  0
LWPOLYLINE
  5
63
100
AcDbEntity
  8
GENERATED_SILKSCREEN_TOP
100
AcDbPolyline
 90
       11
 70
         0
 43
0.15
 10
182.850005
 20
57.75
 42
-0.4142135624
 10
182.85
 20
57.749995
 10
182.646869
 20
57.749995
 42
0.0000035166
 10
182.646867
 20
57.750005
 10
182.849995
 20
57.750005
 10
182.849995
 20
62.749995
 10
182.646867
 20
62.749995
 42
0.0000035166
 10
182.646869
 20
62.750005
 10
182.85
 20
62.750005
 42
-0.4142135624
 10
182.850005
 20
62.75
 10
182.850005
 20
57.75
  0
LWPOLYLINE
  5
64
100
AcDbEntity
  8
GENERATED_SILKSCREEN_TOP
100
AcDbPolyline
 90
       11
 70
         0
 43
0.15
 10
182.850005
 20
78.75
 42
-0.4142135624
 10
182.85
 20
78.749995
 10
182.646869
 20
78.749995
 42
0.0000035166
 10
182.646867
 20
78.750005
 10
182.849995
 20
78.750005
 10
182.849995
 20
83.749995
 10
182.646867
 20
83.749995
 42
0.0000035166
 10
182.646869
 20
83.750005
 10
182.85
 20
83.750005
 42
-0.4142135624
 10
182.850005
 20
83.75
 10
182.850005
 20
78.75
  0
LWPOLYLINE
  5
65
100
AcDbEntity
  8
MOUNTING_HOLES_LAYER_TOP
100
AcDbPolyline
 90
        2
 70
         1
 43
1.5
 10
1.25
 20
97.5
 42
-1.0
 10
2.75
 20
97.5
 42
-1.0
  0
LWPOLYLINE
  5
66
100
AcDbEntity
  8
MOUNTING_HOLES_LAYER_TOP
100
AcDbPolyline
 90
        2
 70
         1
 43
1.5
 10
178.25
 20
97.5
 42
-1.0
 10
179.75
 20
97.5
 42
-1.0
  0
LWPOLYLINE
  5
67
100
AcDbEntity
  8
MOUNTING_HOLES_LAYER_TOP
100
AcDbPolyline
 90
        2
 70
         1
 43
1.5
 10
177.25
 20
28.75
 42
-1.0
 10
178.75
 20
28.75
 42
-1.0
  0
LWPOLYLINE
  5
68
100
AcDbEntity
  8
MOUNTING_HOLES_LAYER_TOP
100
AcDbPolyline
 90
        2
 70
         1
 43
1.5
 10
177.25
 20
49.75
 42
-1.0
 10
178.75
 20
49.75
 42
-1.0
  0
LWPOLYLINE
  5
69
100
AcDbEntity
  8
MOUNTING_HOLES_LAYER_TOP
100
AcDbPolyline
 90
        2
 70
         1
 43
1.5
 10
177.25
 20
70.75
 42
-1.0
 10
178.75
 20
70.75
 42
-1.0
  0
LWPOLYLINE
  5
6A
100
AcDbEntity
  8
MOUNTING_HOLES_LAYER_TOP
100
AcDbPolyline
 90
        2
 70
         1
 43
1.5
 10
2.25
 20
28.75
 42
-1.0
 10
3.75
 20
28.75
 42
-1.0
  0
LWPOLYLINE
  5
6B
100
AcDbEntity
  8
MOUNTING_HOLES_LAYER_TOP
100
AcDbPolyline
 90
        2
 70
         1
 43
1.5
 10
2.25
 20
70.75
 42
-1.0
 10
3.75
 20
70.75
 42
-1.0
  0
LWPOLYLINE
  5
6C
100
AcDbEntity
  8
MOUNTING_HOLES_LAYER_TOP
100
AcDbPolyline
 90
        2
 70
         1
 43
1.5
 10
2.25
 20
49.75
 42
-1.0
 10
3.75
 20
49.75
 42
-1.0
  0
LWPOLYLINE
  5
6D
100
AcDbEntity
  8
MOUNTING_HOLES_LAYER_TOP
100
AcDbPolyline
 90
        2
 70
         1
 43
1.5
 10
1.25
 20
0.0
 42
-1.0
 10
2.75
 20
0.0
 42
-1.0
  0
LWPOLYLINE
  5
6E
100
AcDbEntity
  8
MOUNTING_HOLES_LAYER_TOP
100
AcDbPolyline
 90
        2
 70
         1
 43
1.5
 10
178.25
 20
0.0
 42
-1.0
 10
179.75
 20
0.0
 42
-1.0
  0
LWPOLYLINE
  5
6F
100
AcDbEntity
  8
PART_HOLES_LAYER_TOP
100
AcDbPolyline
 90
        2
 70
         1
 43
0.45
 10
66.575
 20
99.6
 42
-1.0
 10
67.025
 20
99.6
 42
-1.0
  0
LWPOLYLINE
  5
70
100
AcDbEntity
  8
PART_HOLES_LAYER_TOP
100
AcDbPolyline
 90
        2
 70
         1
 43
0.45
 10
71.655
 20
99.6
 42
-1.0
 10
72.105
 20
99.6
 42
-1.0
  0
LWPOLYLINE
  5
71
100
AcDbEntity
  8
PART_HOLES_LAYER_TOP
100
AcDbPolyline
 90
        2
 70
         1
 43
0.45
 10
69.115
 20
99.6
 42
-1.0
 10
69.565
 20
99.6
 42
-1.0
  0
LWPOLYLINE
  5
72
100
AcDbEntity
  8
PART_HOLES_LAYER_TOP
100
AcDbPolyline
 90
        2
 70
         1
 43
0.45
 10
55.079012
 20
96.598253
 42
-1.0
 10
55.529012
 20
96.598253
 42
-1.0
  0
LWPOLYLINE
  5
73
100
AcDbEntity
  8
PART_HOLES_LAYER_TOP
100
AcDbPolyline
 90
        2
 70
         1
 43
0.45
 10
11.899012
 20
99.138253
 42
-1.0
 10
12.349012
 20
99.138253
 42
-1.0
  0
LWPOLYLINE
  5
74
100
AcDbEntity
  8
PART_HOLES_LAYER_TOP
100
AcDbPolyline
 90
        2
 70
         1
 43
0.45
 10
57.619012
 20
96.598253
 42
-1.0
 10
58.069012
 20
96.598253
 42
-1.0
  0
LWPOLYLINE
  5
75
100
AcDbEntity
  8
PART_HOLES_LAYER_TOP
100
AcDbPolyline
 90
        2
 70
         1
 43
0.45
 10
14.439012
 20
96.598253
 42
-1.0
 10
14.889012
 20
96.598253
 42
-1.0
  0
LWPOLYLINE
  5
76
100
AcDbEntity
  8
PART_HOLES_LAYER_TOP
100
AcDbPolyline
 90
        2
 70
         1
 43
0.45
 10
39.839012
 20
96.598253
 42
-1.0
 10
40.289012
 20
96.598253
 42
-1.0
  0
LWPOLYLINE
  5
77
100
AcDbEntity
  8
PART_HOLES_LAYER_TOP
100
AcDbPolyline
 90
        2
 70
         1
 43
0.45
 10
39.839012
 20
99.138253
 42
-1.0
 10
40.289012
 20
99.138253
 42
-1.0
  0
LWPOLYLINE
  5
78
100
AcDbEntity
  8
PART_HOLES_LAYER_TOP
100
AcDbPolyline
 90
        2
 70
         1
 43
0.45
 10
19.519012
 20
96.598253
 42
-1.0
 10
19.969012
 20
96.598253
 42
-1.0
  0
LWPOLYLINE
  5
79
100
AcDbEntity
  8
PART_HOLES_LAYER_TOP
100
AcDbPolyline
 90
        2
 70
         1
 43
0.45
 10
19.519012
 20
99.138253
 42
-1.0
 10
19.969012
 20
99.138253
 42
-1.0
  0
LWPOLYLINE
  5
7A
100
AcDbEntity
  8
PART_HOLES_LAYER_TOP
100
AcDbPolyline
 90
        2
 70
         1
 43
0.45
 10
24.599012
 20
99.138253
 42
-1.0
 10
25.049012
 20
99.138253
 42
-1.0
  0
LWPOLYLINE
  5
7B
100
AcDbEntity
  8
PART_HOLES_LAYER_TOP
100
AcDbPolyline
 90
        2
 70
         1
 43
0.45
 10
24.599012
 20
96.598253
 42
-1.0
 10
25.049012
 20
96.598253
 42
-1.0
  0
LWPOLYLINE
  5
7C
100
AcDbEntity
  8
PART_HOLES_LAYER_TOP
100
AcDbPolyline
 90
        2
 70
         1
 43
0.45
 10
22.059012
 20
99.138253
 42
-1.0
 10
22.509012
 20
99.138253
 42
-1.0
  0
LWPOLYLINE
  5
7D
100
AcDbEntity
  8
PART_HOLES_LAYER_TOP
100
AcDbPolyline
 90
        2
 70
         1
 43
0.45
 10
22.059012
 20
96.598253
 42
-1.0
 10
22.509012
 20
96.598253
 42
-1.0
  0
LWPOLYLINE
  5
7E
100
AcDbEntity
  8
PART_HOLES_LAYER_TOP
100
AcDbPolyline
 90
        2
 70
         1
 43
0.45
 10
37.299012
 20
96.598253
 42
-1.0
 10
37.749012
 20
96.598253
 42
-1.0
  0
LWPOLYLINE
  5
7F
100
AcDbEntity
  8
PART_HOLES_LAYER_TOP
100
AcDbPolyline
 90
        2
 70
         1
 43
0.45
 10
37.299012
 20
99.138253
 42
-1.0
 10
37.749012
 20
99.138253
 42
-1.0
  0
LWPOLYLINE
  5
80
100
AcDbEntity
  8
PART_HOLES_LAYER_TOP
100
AcDbPolyline
 90
        2
 70
         1
 43
0.45
 10
32.219012
 20
96.598253
 42
-1.0
 10
32.669012
 20
96.598253
 42
-1.0
  0
LWPOLYLINE
  5
81
100
AcDbEntity
  8
PART_HOLES_LAYER_TOP
100
AcDbPolyline
 90
        2
 70
         1
 43
0.45
 10
32.219012
 20
99.138253
 42
-1.0
 10
32.669012
 20
99.138253
 42
-1.0
  0
LWPOLYLINE
  5
82
100
AcDbEntity
  8
PART_HOLES_LAYER_TOP
100
AcDbPolyline
 90
        2
 70
         1
 43
0.45
 10
29.679012
 20
99.138253
 42
-1.0
 10
30.129012
 20
99.138253
 42
-1.0
  0
LWPOLYLINE
  5
83
100
AcDbEntity
  8
PART_HOLES_LAYER_TOP
100
AcDbPolyline
 90
        2
 70
         1
 43
0.45
 10
29.679012
 20
96.598253
 42
-1.0
 10
30.129012
 20
96.598253
 42
-1.0
  0
LWPOLYLINE
  5
84
100
AcDbEntity
  8
PART_HOLES_LAYER_TOP
100
AcDbPolyline
 90
        2
 70
         1
 43
0.45
 10
27.139012
 20
99.138253
 42
-1.0
 10
27.589012
 20
99.138253
 42
-1.0
  0
LWPOLYLINE
  5
85
100
AcDbEntity
  8
PART_HOLES_LAYER_TOP
100
AcDbPolyline
 90
        2
 70
         1
 43
0.45
 10
27.139012
 20
96.598253
 42
-1.0
 10
27.589012
 20
96.598253
 42
-1.0
  0
LWPOLYLINE
  5
86
100
AcDbEntity
  8
PART_HOLES_LAYER_TOP
100
AcDbPolyline
 90
        2
 70
         1
 43
0.45
 10
34.759012
 20
96.598253
 42
-1.0
 10
35.209012
 20
96.598253
 42
-1.0
  0
LWPOLYLINE
  5
87
100
AcDbEntity
  8
PART_HOLES_LAYER_TOP
100
AcDbPolyline
 90
        2
 70
         1
 43
0.45
 10
34.759012
 20
99.138253
 42
-1.0
 10
35.209012
 20
99.138253
 42
-1.0
  0
LWPOLYLINE
  5
88
100
AcDbEntity
  8
PART_HOLES_LAYER_TOP
100
AcDbPolyline
 90
        2
 70
         1
 43
0.45
 10
52.539012
 20
96.598253
 42
-1.0
 10
52.989012
 20
96.598253
 42
-1.0
  0
LWPOLYLINE
  5
89
100
AcDbEntity
  8
PART_HOLES_LAYER_TOP
100
AcDbPolyline
 90
        2
 70
         1
 43
0.45
 10
52.539012
 20
99.138253
 42
-1.0
 10
52.989012
 20
99.138253
 42
-1.0
  0
LWPOLYLINE
  5
8A
100
AcDbEntity
  8
PART_HOLES_LAYER_TOP
100
AcDbPolyline
 90
        2
 70
         1
 43
0.45
 10
49.999012
 20
96.598253
 42
-1.0
 10
50.449012
 20
96.598253
 42
-1.0
  0
LWPOLYLINE
  5
8B
100
AcDbEntity
  8
PART_HOLES_LAYER_TOP
100
AcDbPolyline
 90
        2
 70
         1
 43
0.45
 10
49.999012
 20
99.138253
 42
-1.0
 10
50.449012
 20
99.138253
 42
-1.0
  0
LWPOLYLINE
  5
8C
100
AcDbEntity
  8
PART_HOLES_LAYER_TOP
100
AcDbPolyline
 90
        2
 70
         1
 43
0.45
 10
14.439012
 20
99.138253
 42
-1.0
 10
14.889012
 20
99.138253
 42
-1.0
  0
LWPOLYLINE
  5
8D
100
AcDbEntity
  8
PART_HOLES_LAYER_TOP
100
AcDbPolyline
 90
        2
 70
         1
 43
0.45
 10
16.979012
 20
96.598253
 42
-1.0
 10
17.429012
 20
96.598253
 42
-1.0
  0
LWPOLYLINE
  5
8E
100
AcDbEntity
  8
PART_HOLES_LAYER_TOP
100
AcDbPolyline
 90
        2
 70
         1
 43
0.45
 10
44.919012
 20
96.598253
 42
-1.0
 10
45.369012
 20
96.598253
 42
-1.0
  0
LWPOLYLINE
  5
8F
100
AcDbEntity
  8
PART_HOLES_LAYER_TOP
100
AcDbPolyline
 90
        2
 70
         1
 43
0.45
 10
47.459012
 20
96.598253
 42
-1.0
 10
47.909012
 20
96.598253
 42
-1.0
  0
LWPOLYLINE
  5
90
100
AcDbEntity
  8
PART_HOLES_LAYER_TOP
100
AcDbPolyline
 90
        2
 70
         1
 43
0.45
 10
47.459012
 20
99.138253
 42
-1.0
 10
47.909012
 20
99.138253
 42
-1.0
  0
LWPOLYLINE
  5
91
100
AcDbEntity
  8
PART_HOLES_LAYER_TOP
100
AcDbPolyline
 90
        2
 70
         1
 43
0.45
 10
44.919012
 20
99.138253
 42
-1.0
 10
45.369012
 20
99.138253
 42
-1.0
  0
LWPOLYLINE
  5
92
100
AcDbEntity
  8
PART_HOLES_LAYER_TOP
100
AcDbPolyline
 90
        2
 70
         1
 43
0.45
 10
16.979012
 20
99.138253
 42
-1.0
 10
17.429012
 20
99.138253
 42
-1.0
  0
LWPOLYLINE
  5
93
100
AcDbEntity
  8
PART_HOLES_LAYER_TOP
100
AcDbPolyline
 90
        2
 70
         1
 43
0.45
 10
11.899012
 20
96.598253
 42
-1.0
 10
12.349012
 20
96.598253
 42
-1.0
  0
LWPOLYLINE
  5
94
100
AcDbEntity
  8
PART_HOLES_LAYER_TOP
100
AcDbPolyline
 90
        2
 70
         1
 43
0.45
 10
60.159012
 20
96.598253
 42
-1.0
 10
60.609012
 20
96.598253
 42
-1.0
  0
LWPOLYLINE
  5
95
100
AcDbEntity
  8
PART_HOLES_LAYER_TOP
100
AcDbPolyline
 90
        2
 70
         1
 43
0.45
 10
57.619012
 20
99.138253
 42
-1.0
 10
58.069012
 20
99.138253
 42
-1.0
  0
LWPOLYLINE
  5
96
100
AcDbEntity
  8
PART_HOLES_LAYER_TOP
100
AcDbPolyline
 90
        2
 70
         1
 43
0.45
 10
60.159012
 20
99.138253
 42
-1.0
 10
60.609012
 20
99.138253
 42
-1.0
  0
LWPOLYLINE
  5
97
100
AcDbEntity
  8
PART_HOLES_LAYER_TOP
100
AcDbPolyline
 90
        2
 70
         1
 43
0.45
 10
55.079012
 20
99.138253
 42
-1.0
 10
55.529012
 20
99.138253
 42
-1.0
  0
LWPOLYLINE
  5
98
100
AcDbEntity
  8
PART_HOLES_LAYER_TOP
100
AcDbPolyline
 90
        2
 70
         1
 43
0.45
 10
42.379012
 20
99.138253
 42
-1.0
 10
42.829012
 20
99.138253
 42
-1.0
  0
LWPOLYLINE
  5
99
100
AcDbEntity
  8
PART_HOLES_LAYER_TOP
100
AcDbPolyline
 90
        2
 70
         1
 43
0.45
 10
42.379012
 20
96.598253
 42
-1.0
 10
42.829012
 20
96.598253
 42
-1.0
  0
LWPOLYLINE
  5
9A
100
AcDbEntity
  8
PART_HOLES_LAYER_TOP
100
AcDbPolyline
 90
        2
 70
         1
 43
0.45
 10
103.775
 20
95.8
 42
-1.0
 10
104.225
 20
95.8
 42
-1.0
  0
LWPOLYLINE
  5
9B
100
AcDbEntity
  8
PART_HOLES_LAYER_TOP
100
AcDbPolyline
 90
        2
 70
         1
 43
0.45
 10
101.235
 20
95.8
 42
-1.0
 10
101.685
 20
95.8
 42
-1.0
  0
LWPOLYLINE
  5
9C
100
AcDbEntity
  8
PART_HOLES_LAYER_TOP
100
AcDbPolyline
 90
        2
 70
         1
 43
0.45
 10
167.235
 20
96.61
 42
-1.0
 10
167.685
 20
96.61
 42
-1.0
  0
LWPOLYLINE
  5
9D
100
AcDbEntity
  8
PART_HOLES_LAYER_TOP
100
AcDbPolyline
 90
        2
 70
         1
 43
0.45
 10
154.535
 20
96.61
 42
-1.0
 10
154.985
 20
96.61
 42
-1.0
  0
LWPOLYLINE
  5
9E
100
AcDbEntity
  8
PART_HOLES_LAYER_TOP
100
AcDbPolyline
 90
        2
 70
         1
 43
0.45
 10
157.075
 20
96.61
 42
-1.0
 10
157.525
 20
96.61
 42
-1.0
  0
LWPOLYLINE
  5
9F
100
AcDbEntity
  8
PART_HOLES_LAYER_TOP
100
AcDbPolyline
 90
        2
 70
         1
 43
0.45
 10
164.695
 20
96.61
 42
-1.0
 10
165.145
 20
96.61
 42
-1.0
  0
LWPOLYLINE
  5
A0
100
AcDbEntity
  8
PART_HOLES_LAYER_TOP
100
AcDbPolyline
 90
        2
 70
         1
 43
0.45
 10
164.695
 20
99.15
 42
-1.0
 10
165.145
 20
99.15
 42
-1.0
  0
LWPOLYLINE
  5
A1
100
AcDbEntity
  8
PART_HOLES_LAYER_TOP
100
AcDbPolyline
 90
        2
 70
         1
 43
0.45
 10
167.235
 20
99.15
 42
-1.0
 10
167.685
 20
99.15
 42
-1.0
  0
LWPOLYLINE
  5
A2
100
AcDbEntity
  8
PART_HOLES_LAYER_TOP
100
AcDbPolyline
 90
        2
 70
         1
 43
0.45
 10
162.155
 20
96.61
 42
-1.0
 10
162.605
 20
96.61
 42
-1.0
  0
LWPOLYLINE
  5
A3
100
AcDbEntity
  8
PART_HOLES_LAYER_TOP
100
AcDbPolyline
 90
        2
 70
         1
 43
0.45
 10
159.615
 20
96.61
 42
-1.0
 10
160.065
 20
96.61
 42
-1.0
  0
LWPOLYLINE
  5
A4
100
AcDbEntity
  8
PART_HOLES_LAYER_TOP
100
AcDbPolyline
 90
        2
 70
         1
 43
0.45
 10
144.375
 20
99.15
 42
-1.0
 10
144.825
 20
99.15
 42
-1.0
  0
LWPOLYLINE
  5
A5
100
AcDbEntity
  8
PART_HOLES_LAYER_TOP
100
AcDbPolyline
 90
        2
 70
         1
 43
0.45
 10
144.375
 20
96.61
 42
-1.0
 10
144.825
 20
96.61
 42
-1.0
  0
LWPOLYLINE
  5
A6
100
AcDbEntity
  8
PART_HOLES_LAYER_TOP
100
AcDbPolyline
 90
        2
 70
         1
 43
0.45
 10
146.915
 20
99.15
 42
-1.0
 10
147.365
 20
99.15
 42
-1.0
  0
LWPOLYLINE
  5
A7
100
AcDbEntity
  8
PART_HOLES_LAYER_TOP
100
AcDbPolyline
 90
        2
 70
         1
 43
0.45
 10
146.915
 20
96.61
 42
-1.0
 10
147.365
 20
96.61
 42
-1.0
  0
LWPOLYLINE
  5
A8
100
AcDbEntity
  8
PART_HOLES_LAYER_TOP
100
AcDbPolyline
 90
        2
 70
         1
 43
0.45
 10
149.455
 20
99.15
 42
-1.0
 10
149.905
 20
99.15
 42
-1.0
  0
LWPOLYLINE
  5
A9
100
AcDbEntity
  8
PART_HOLES_LAYER_TOP
100
AcDbPolyline
 90
        2
 70
         1
 43
0.45
 10
149.455
 20
96.61
 42
-1.0
 10
149.905
 20
96.61
 42
-1.0
  0
LWPOLYLINE
  5
AA
100
AcDbEntity
  8
PART_HOLES_LAYER_TOP
100
AcDbPolyline
 90
        2
 70
         1
 43
0.45
 10
162.155
 20
99.15
 42
-1.0
 10
162.605
 20
99.15
 42
-1.0
  0
LWPOLYLINE
  5
AB
100
AcDbEntity
  8
PART_HOLES_LAYER_TOP
100
AcDbPolyline
 90
        2
 70
         1
 43
0.45
 10
159.615
 20
99.15
 42
-1.0
 10
160.065
 20
99.15
 42
-1.0
  0
LWPOLYLINE
  5
AC
100
AcDbEntity
  8
PART_HOLES_LAYER_TOP
100
AcDbPolyline
 90
        2
 70
         1
 43
0.45
 10
157.075
 20
99.15
 42
-1.0
 10
157.525
 20
99.15
 42
-1.0
  0
LWPOLYLINE
  5
AD
100
AcDbEntity
  8
PART_HOLES_LAYER_TOP
100
AcDbPolyline
 90
        2
 70
         1
 43
0.45
 10
154.535
 20
99.15
 42
-1.0
 10
154.985
 20
99.15
 42
-1.0
  0
LWPOLYLINE
  5
AE
100
AcDbEntity
  8
PART_HOLES_LAYER_TOP
100
AcDbPolyline
 90
        2
 70
         1
 43
0.45
 10
151.995
 20
99.15
 42
-1.0
 10
152.445
 20
99.15
 42
-1.0
  0
LWPOLYLINE
  5
AF
100
AcDbEntity
  8
PART_HOLES_LAYER_TOP
100
AcDbPolyline
 90
        2
 70
         1
 43
0.45
 10
151.995
 20
96.61
 42
-1.0
 10
152.445
 20
96.61
 42
-1.0
  0
LWPOLYLINE
  5
B0
100
AcDbEntity
  8
PART_HOLES_LAYER_TOP
100
AcDbPolyline
 90
        2
 70
         1
 43
0.45
 10
110.875
 20
99.14
 42
-1.0
 10
111.325
 20
99.14
 42
-1.0
  0
LWPOLYLINE
  5
B1
100
AcDbEntity
  8
PART_HOLES_LAYER_TOP
100
AcDbPolyline
 90
        2
 70
         1
 43
0.45
 10
133.735
 20
96.6
 42
-1.0
 10
134.185
 20
96.6
 42
-1.0
  0
LWPOLYLINE
  5
B2
100
AcDbEntity
  8
PART_HOLES_LAYER_TOP
100
AcDbPolyline
 90
        2
 70
         1
 43
0.45
 10
126.115
 20
99.14
 42
-1.0
 10
126.565
 20
99.14
 42
-1.0
  0
LWPOLYLINE
  5
B3
100
AcDbEntity
  8
PART_HOLES_LAYER_TOP
100
AcDbPolyline
 90
        2
 70
         1
 43
0.45
 10
110.875
 20
96.6
 42
-1.0
 10
111.325
 20
96.6
 42
-1.0
  0
LWPOLYLINE
  5
B4
100
AcDbEntity
  8
PART_HOLES_LAYER_TOP
100
AcDbPolyline
 90
        2
 70
         1
 43
0.45
 10
128.655
 20
96.6
 42
-1.0
 10
129.105
 20
96.6
 42
-1.0
  0
LWPOLYLINE
  5
B5
100
AcDbEntity
  8
PART_HOLES_LAYER_TOP
100
AcDbPolyline
 90
        2
 70
         1
 43
0.45
 10
131.195
 20
96.6
 42
-1.0
 10
131.645
 20
96.6
 42
-1.0
  0
LWPOLYLINE
  5
B6
100
AcDbEntity
  8
PART_HOLES_LAYER_TOP
100
AcDbPolyline
 90
        2
 70
         1
 43
0.45
 10
133.735
 20
99.14
 42
-1.0
 10
134.185
 20
99.14
 42
-1.0
  0
LWPOLYLINE
  5
B7
100
AcDbEntity
  8
PART_HOLES_LAYER_TOP
100
AcDbPolyline
 90
        2
 70
         1
 43
0.45
 10
126.115
 20
96.6
 42
-1.0
 10
126.565
 20
96.6
 42
-1.0
  0
LWPOLYLINE
  5
B8
100
AcDbEntity
  8
PART_HOLES_LAYER_TOP
100
AcDbPolyline
 90
        2
 70
         1
 43
0.45
 10
131.195
 20
99.14
 42
-1.0
 10
131.645
 20
99.14
 42
-1.0
  0
LWPOLYLINE
  5
B9
100
AcDbEntity
  8
PART_HOLES_LAYER_TOP
100
AcDbPolyline
 90
        2
 70
         1
 43
0.45
 10
128.655
 20
99.14
 42
-1.0
 10
129.105
 20
99.14
 42
-1.0
  0
LWPOLYLINE
  5
BA
100
AcDbEntity
  8
PART_HOLES_LAYER_TOP
100
AcDbPolyline
 90
        2
 70
         1
 43
0.45
 10
121.035
 20
99.14
 42
-1.0
 10
121.485
 20
99.14
 42
-1.0
  0
LWPOLYLINE
  5
BB
100
AcDbEntity
  8
PART_HOLES_LAYER_TOP
100
AcDbPolyline
 90
        2
 70
         1
 43
0.45
 10
121.035
 20
96.6
 42
-1.0
 10
121.485
 20
96.6
 42
-1.0
  0
LWPOLYLINE
  5
BC
100
AcDbEntity
  8
PART_HOLES_LAYER_TOP
100
AcDbPolyline
 90
        2
 70
         1
 43
0.45
 10
113.415
 20
99.14
 42
-1.0
 10
113.865
 20
99.14
 42
-1.0
  0
LWPOLYLINE
  5
BD
100
AcDbEntity
  8
PART_HOLES_LAYER_TOP
100
AcDbPolyline
 90
        2
 70
         1
 43
0.45
 10
113.415
 20
96.6
 42
-1.0
 10
113.865
 20
96.6
 42
-1.0
  0
LWPOLYLINE
  5
BE
100
AcDbEntity
  8
PART_HOLES_LAYER_TOP
100
AcDbPolyline
 90
        2
 70
         1
 43
0.45
 10
115.955
 20
99.14
 42
-1.0
 10
116.405
 20
99.14
 42
-1.0
  0
LWPOLYLINE
  5
BF
100
AcDbEntity
  8
PART_HOLES_LAYER_TOP
100
AcDbPolyline
 90
        2
 70
         1
 43
0.45
 10
115.955
 20
96.6
 42
-1.0
 10
116.405
 20
96.6
 42
-1.0
  0
LWPOLYLINE
  5
C0
100
AcDbEntity
  8
PART_HOLES_LAYER_TOP
100
AcDbPolyline
 90
        2
 70
         1
 43
0.45
 10
118.495
 20
99.14
 42
-1.0
 10
118.945
 20
99.14
 42
-1.0
  0
LWPOLYLINE
  5
C1
100
AcDbEntity
  8
PART_HOLES_LAYER_TOP
100
AcDbPolyline
 90
        2
 70
         1
 43
0.45
 10
118.495
 20
96.6
 42
-1.0
 10
118.945
 20
96.6
 42
-1.0
  0
LWPOLYLINE
  5
C2
100
AcDbEntity
  8
PART_HOLES_LAYER_TOP
100
AcDbPolyline
 90
        2
 70
         1
 43
0.45
 10
123.575
 20
99.14
 42
-1.0
 10
124.025
 20
99.14
 42
-1.0
  0
LWPOLYLINE
  5
C3
100
AcDbEntity
  8
PART_HOLES_LAYER_TOP
100
AcDbPolyline
 90
        2
 70
         1
 43
0.45
 10
123.575
 20
96.6
 42
-1.0
 10
124.025
 20
96.6
 42
-1.0
  0
LWPOLYLINE
  5
C4
100
AcDbEntity
  8
PART_HOLES_LAYER_TOP
100
AcDbPolyline
 90
        2
 70
         1
 43
0.45
 10
86.875
 20
96.9
 42
-1.0
 10
87.325
 20
96.9
 42
-1.0
  0
LWPOLYLINE
  5
C5
100
AcDbEntity
  8
PART_HOLES_LAYER_TOP
100
AcDbPolyline
 90
        2
 70
         1
 43
0.45
 10
84.335
 20
96.9
 42
-1.0
 10
84.785
 20
96.9
 42
-1.0
  0
LWPOLYLINE
  5
C6
100
AcDbEntity
  8
PART_HOLES_LAYER_TOP
100
AcDbPolyline
 90
        2
 70
         1
 43
0.45
 10
92.375
 20
96.9
 42
-1.0
 10
92.825
 20
96.9
 42
-1.0
  0
LWPOLYLINE
  5
C7
100
AcDbEntity
  8
PART_HOLES_LAYER_TOP
100
AcDbPolyline
 90
        2
 70
         1
 43
0.45
 10
89.835
 20
96.9
 42
-1.0
 10
90.285
 20
96.9
 42
-1.0
  0
LWPOLYLINE
  5
C8
100
AcDbEntity
  8
PART_HOLES_LAYER_TOP
100
AcDbPolyline
 90
        2
 70
         1
 43
0.45
 10
92.375
 20
99.6
 42
-1.0
 10
92.825
 20
99.6
 42
-1.0
  0
LWPOLYLINE
  5
C9
100
AcDbEntity
  8
PART_HOLES_LAYER_TOP
100
AcDbPolyline
 90
        2
 70
         1
 43
0.45
 10
89.835
 20
99.6
 42
-1.0
 10
90.285
 20
99.6
 42
-1.0
  0
LWPOLYLINE
  5
CA
100
AcDbEntity
  8
PART_HOLES_LAYER_TOP
100
AcDbPolyline
 90
        2
 70
         1
 43
0.45
 10
99.775
 20
98.8
 42
-1.0
 10
100.225
 20
98.8
 42
-1.0
  0
LWPOLYLINE
  5
CB
100
AcDbEntity
  8
PART_HOLES_LAYER_TOP
100
AcDbPolyline
 90
        2
 70
         1
 43
0.45
 10
102.315
 20
98.8
 42
-1.0
 10
102.765
 20
98.8
 42
-1.0
  0
LWPOLYLINE
  5
CC
100
AcDbEntity
  8
PART_HOLES_LAYER_TOP
100
AcDbPolyline
 90
        2
 70
         1
 43
0.45
 10
86.875
 20
99.6
 42
-1.0
 10
87.325
 20
99.6
 42
-1.0
  0
LWPOLYLINE
  5
CD
100
AcDbEntity
  8
PART_HOLES_LAYER_TOP
100
AcDbPolyline
 90
        2
 70
         1
 43
0.45
 10
84.335
 20
99.6
 42
-1.0
 10
84.785
 20
99.6
 42
-1.0
  0
LWPOLYLINE
  5
CE
100
AcDbEntity
  8
PART_HOLES_LAYER_TOP
100
AcDbPolyline
 90
        2
 70
         1
 43
0.45
 10
75.675
 20
99.6
 42
-1.0
 10
76.125
 20
99.6
 42
-1.0
  0
LWPOLYLINE
  5
CF
100
AcDbEntity
  8
PART_HOLES_LAYER_TOP
100
AcDbPolyline
 90
        2
 70
         1
 43
0.45
 10
80.755
 20
99.6
 42
-1.0
 10
81.205
 20
99.6
 42
-1.0
  0
LWPOLYLINE
  5
D0
100
AcDbEntity
  8
PART_HOLES_LAYER_TOP
100
AcDbPolyline
 90
        2
 70
         1
 43
0.45
 10
78.215
 20
99.6
 42
-1.0
 10
78.665
 20
99.6
 42
-1.0
  0
LWPOLYLINE
  5
D1
100
AcDbEntity
  8
PART_HOLES_LAYER_TOP
100
AcDbPolyline
 90
        2
 70
         1
 43
0.45
 10
75.675
 20
96.9
 42
-1.0
 10
76.125
 20
96.9
 42
-1.0
  0
LWPOLYLINE
  5
D2
100
AcDbEntity
  8
PART_HOLES_LAYER_TOP
100
AcDbPolyline
 90
        2
 70
         1
 43
0.45
 10
80.755
 20
96.9
 42
-1.0
 10
81.205
 20
96.9
 42
-1.0
  0
LWPOLYLINE
  5
D3
100
AcDbEntity
  8
PART_HOLES_LAYER_TOP
100
AcDbPolyline
 90
        2
 70
         1
 43
0.45
 10
78.215
 20
96.9
 42
-1.0
 10
78.665
 20
96.9
 42
-1.0
  0
LWPOLYLINE
  5
D4
100
AcDbEntity
  8
PART_HOLES_LAYER_TOP
100
AcDbPolyline
 90
        2
 70
         1
 43
0.45
 10
66.575
 20
96.9
 42
-1.0
 10
67.025
 20
96.9
 42
-1.0
  0
LWPOLYLINE
  5
D5
100
AcDbEntity
  8
PART_HOLES_LAYER_TOP
100
AcDbPolyline
 90
        2
 70
         1
 43
0.45
 10
71.655
 20
96.9
 42
-1.0
 10
72.105
 20
96.9
 42
-1.0
  0
LWPOLYLINE
  5
D6
100
AcDbEntity
  8
PART_HOLES_LAYER_TOP
100
AcDbPolyline
 90
        2
 70
         1
 43
0.45
 10
69.115
 20
96.9
 42
-1.0
 10
69.565
 20
96.9
 42
-1.0
  0
LWPOLYLINE
  5
D7
100
AcDbEntity
  8
SOLDERMASK_PADS_TOP
100
AcDbPolyline
 90
        4
 70
         1
 10
66.1
 20
98.9
 10
66.1
 20
100.3
 10
67.5
 20
100.3
 10
67.5
 20
98.9
  0
CIRCLE
  5
D8
100
AcDbEntity
  8
SOLDERMASK_PADS_TOP
100
AcDbCircle
 10
71.88
 20
99.6
 30
0.0
 40
0.7
  0
CIRCLE
  5
D9
100
AcDbEntity
  8
SOLDERMASK_PADS_TOP
100
AcDbCircle
 10
69.34
 20
99.6
 30
0.0
 40
0.7
  0
CIRCLE
  5
DA
100
AcDbEntity
  8
SOLDERMASK_PADS_TOP
100
AcDbCircle
 10
55.304012
 20
96.598253
 30
0.0
 40
0.75
  0
LWPOLYLINE
  5
DB
100
AcDbEntity
  8
SOLDERMASK_PADS_TOP
100
AcDbPolyline
 90
        4
 70
         1
 10
11.324012
 20
98.338253
 10
11.324012
 20
99.938253
 10
12.924012
 20
99.938253
 10
12.924012
 20
98.338253
  0
CIRCLE
  5
DC
100
AcDbEntity
  8
SOLDERMASK_PADS_TOP
100
AcDbCircle
 10
57.844012
 20
96.598253
 30
0.0
 40
0.75
  0
CIRCLE
  5
DD
100
AcDbEntity
  8
SOLDERMASK_PADS_TOP
100
AcDbCircle
 10
14.664012
 20
96.598253
 30
0.0
 40
0.75
  0
CIRCLE
  5
DE
100
AcDbEntity
  8
SOLDERMASK_PADS_TOP
100
AcDbCircle
 10
40.064012
 20
96.598253
 30
0.0
 40
0.75
  0
CIRCLE
  5
DF
100
AcDbEntity
  8
SOLDERMASK_PADS_TOP
100
AcDbCircle
 10
40.064012
 20
99.138253
 30
0.0
 40
0.75
  0
CIRCLE
  5
E0
100
AcDbEntity
  8
SOLDERMASK_PADS_TOP
100
AcDbCircle
 10
19.744012
 20
96.598253
 30
0.0
 40
0.75
  0
CIRCLE
  5
E1
100
AcDbEntity
  8
SOLDERMASK_PADS_TOP
100
AcDbCircle
 10
19.744012
 20
99.138253
 30
0.0
 40
0.75
  0
CIRCLE
  5
E2
100
AcDbEntity
  8
SOLDERMASK_PADS_TOP
100
AcDbCircle
 10
24.824012
 20
99.138253
 30
0.0
 40
0.75
  0
CIRCLE
  5
E3
100
AcDbEntity
  8
SOLDERMASK_PADS_TOP
100
AcDbCircle
 10
24.824012
 20
96.598253
 30
0.0
 40
0.75
  0
CIRCLE
  5
E4
100
AcDbEntity
  8
SOLDERMASK_PADS_TOP
100
AcDbCircle
 10
22.284012
 20
99.138253
 30
0.0
 40
0.75
  0
CIRCLE
  5
E5
100
AcDbEntity
  8
SOLDERMASK_PADS_TOP
100
AcDbCircle
 10
22.284012
 20
96.598253
 30
0.0
 40
0.75
  0
CIRCLE
  5
E6
100
AcDbEntity
  8
SOLDERMASK_PADS_TOP
100
AcDbCircle
 10
37.524012
 20
96.598253
 30
0.0
 40
0.75
  0
CIRCLE
  5
E7
100
AcDbEntity
  8
SOLDERMASK_PADS_TOP
100
AcDbCircle
 10
37.524012
 20
99.138253
 30
0.0
 40
0.75
  0
CIRCLE
  5
E8
100
AcDbEntity
  8
SOLDERMASK_PADS_TOP
100
AcDbCircle
 10
32.444012
 20
96.598253
 30
0.0
 40
0.75
  0
CIRCLE
  5
E9
100
AcDbEntity
  8
SOLDERMASK_PADS_TOP
100
AcDbCircle
 10
32.444012
 20
99.138253
 30
0.0
 40
0.75
  0
CIRCLE
  5
EA
100
AcDbEntity
  8
SOLDERMASK_PADS_TOP
100
AcDbCircle
 10
29.904012
 20
99.138253
 30
0.0
 40
0.75
  0
CIRCLE
  5
EB
100
AcDbEntity
  8
SOLDERMASK_PADS_TOP
100
AcDbCircle
 10
29.904012
 20
96.598253
 30
0.0
 40
0.75
  0
CIRCLE
  5
EC
100
AcDbEntity
  8
SOLDERMASK_PADS_TOP
100
AcDbCircle
 10
27.364012
 20
99.138253
 30
0.0
 40
0.75
  0
CIRCLE
  5
ED
100
AcDbEntity
  8
SOLDERMASK_PADS_TOP
100
AcDbCircle
 10
27.364012
 20
96.598253
 30
0.0
 40
0.75
  0
CIRCLE
  5
EE
100
AcDbEntity
  8
SOLDERMASK_PADS_TOP
100
AcDbCircle
 10
34.984012
 20
96.598253
 30
0.0
 40
0.75
  0
CIRCLE
  5
EF
100
AcDbEntity
  8
SOLDERMASK_PADS_TOP
100
AcDbCircle
 10
34.984012
 20
99.138253
 30
0.0
 40
0.75
  0
CIRCLE
  5
F0
100
AcDbEntity
  8
SOLDERMASK_PADS_TOP
100
AcDbCircle
 10
52.764012
 20
96.598253
 30
0.0
 40
0.75
  0
CIRCLE
  5
F1
100
AcDbEntity
  8
SOLDERMASK_PADS_TOP
100
AcDbCircle
 10
52.764012
 20
99.138253
 30
0.0
 40
0.75
  0
CIRCLE
  5
F2
100
AcDbEntity
  8
SOLDERMASK_PADS_TOP
100
AcDbCircle
 10
50.224012
 20
96.598253
 30
0.0
 40
0.75
  0
CIRCLE
  5
F3
100
AcDbEntity
  8
SOLDERMASK_PADS_TOP
100
AcDbCircle
 10
50.224012
 20
99.138253
 30
0.0
 40
0.75
  0
CIRCLE
  5
F4
100
AcDbEntity
  8
SOLDERMASK_PADS_TOP
100
AcDbCircle
 10
14.664012
 20
99.138253
 30
0.0
 40
0.75
  0
CIRCLE
  5
F5
100
AcDbEntity
  8
SOLDERMASK_PADS_TOP
100
AcDbCircle
 10
17.204012
 20
96.598253
 30
0.0
 40
0.75
  0
CIRCLE
  5
F6
100
AcDbEntity
  8
SOLDERMASK_PADS_TOP
100
AcDbCircle
 10
45.144012
 20
96.598253
 30
0.0
 40
0.75
  0
CIRCLE
  5
F7
100
AcDbEntity
  8
SOLDERMASK_PADS_TOP
100
AcDbCircle
 10
47.684012
 20
96.598253
 30
0.0
 40
0.75
  0
CIRCLE
  5
F8
100
AcDbEntity
  8
SOLDERMASK_PADS_TOP
100
AcDbCircle
 10
47.684012
 20
99.138253
 30
0.0
 40
0.75
  0
CIRCLE
  5
F9
100
AcDbEntity
  8
SOLDERMASK_PADS_TOP
100
AcDbCircle
 10
45.144012
 20
99.138253
 30
0.0
 40
0.75
  0
CIRCLE
  5
FA
100
AcDbEntity
  8
SOLDERMASK_PADS_TOP
100
AcDbCircle
 10
17.204012
 20
99.138253
 30
0.0
 40
0.75
  0
CIRCLE
  5
FB
100
AcDbEntity
  8
SOLDERMASK_PADS_TOP
100
AcDbCircle
 10
12.124012
 20
96.598253
 30
0.0
 40
0.75
  0
CIRCLE
  5
FC
100
AcDbEntity
  8
SOLDERMASK_PADS_TOP
100
AcDbCircle
 10
60.384012
 20
96.598253
 30
0.0
 40
0.75
  0
CIRCLE
  5
FD
100
AcDbEntity
  8
SOLDERMASK_PADS_TOP
100
AcDbCircle
 10
57.844012
 20
99.138253
 30
0.0
 40
0.75
  0
CIRCLE
  5
FE
100
AcDbEntity
  8
SOLDERMASK_PADS_TOP
100
AcDbCircle
 10
60.384012
 20
99.138253
 30
0.0
 40
0.75
  0
CIRCLE
  5
FF
100
AcDbEntity
  8
SOLDERMASK_PADS_TOP
100
AcDbCircle
 10
55.304012
 20
99.138253
 30
0.0
 40
0.75
  0
CIRCLE
  5
100
100
AcDbEntity
  8
SOLDERMASK_PADS_TOP
100
AcDbCircle
 10
42.604012
 20
99.138253
 30
0.0
 40
0.75
  0
CIRCLE
  5
101
100
AcDbEntity
  8
SOLDERMASK_PADS_TOP
100
AcDbCircle
 10
42.604012
 20
96.598253
 30
0.0
 40
0.75
  0
LWPOLYLINE
  5
102
100
AcDbEntity
  8
SOLDERMASK_PADS_TOP
100
AcDbPolyline
 90
        4
 70
         1
 10
4.05
 20
55.55
 42
-1.0
 10
3.05
 20
55.55
 10
3.05
 20
57.55
 42
-1.0
 10
4.05
 20
57.55
  0
LWPOLYLINE
  5
103
100
AcDbEntity
  8
SOLDERMASK_PADS_TOP
100
AcDbPolyline
 90
        4
 70
         1
 10
4.05
 20
62.95
 42
-1.0
 10
3.05
 20
62.95
 10
3.05
 20
64.95
 42
-1.0
 10
4.05
 20
64.95
  0
LWPOLYLINE
  5
104
100
AcDbEntity
  8
SOLDERMASK_PADS_TOP
100
AcDbPolyline
 90
        4
 70
         1
 10
-0.45
 20
55.55
 42
-1.0
 10
-1.45
 20
55.55
 10
-1.45
 20
57.55
 42
-1.0
 10
-0.45
 20
57.55
  0
LWPOLYLINE
  5
105
100
AcDbEntity
  8
SOLDERMASK_PADS_TOP
100
AcDbPolyline
 90
        4
 70
         1
 10
-0.45
 20
62.95
 42
-1.0
 10
-1.45
 20
62.95
 10
-1.45
 20
64.95
 42
-1.0
 10
-0.45
 20
64.95
  0
LWPOLYLINE
  5
106
100
AcDbEntity
  8
SOLDERMASK_PADS_TOP
100
AcDbPolyline
 90
        4
 70
         1
 10
103.3
 20
95.1
 10
103.3
 20
96.5
 10
104.7
 20
96.5
 10
104.7
 20
95.1
  0
CIRCLE
  5
107
100
AcDbEntity
  8
SOLDERMASK_PADS_TOP
100
AcDbCircle
 10
101.46
 20
95.8
 30
0.0
 40
0.7
  0
LWPOLYLINE
  5
108
100
AcDbEntity
  8
SOLDERMASK_PADS_TOP
100
AcDbPolyline
 90
        4
 70
         1
 10
176.95
 20
85.95
 42
-1.0
 10
177.95
 20
85.95
 10
177.95
 20
83.95
 42
-1.0
 10
176.95
 20
83.95
  0
LWPOLYLINE
  5
109
100
AcDbEntity
  8
SOLDERMASK_PADS_TOP
100
AcDbPolyline
 90
        4
 70
         1
 10
176.95
 20
78.55
 42
-1.0
 10
177.95
 20
78.55
 10
177.95
 20
76.55
 42
-1.0
 10
176.95
 20
76.55
  0
LWPOLYLINE
  5
10A
100
AcDbEntity
  8
SOLDERMASK_PADS_TOP
100
AcDbPolyline
 90
        4
 70
         1
 10
181.45
 20
78.55
 42
-1.0
 10
182.45
 20
78.55
 10
182.45
 20
76.55
 42
-1.0
 10
181.45
 20
76.55
  0
LWPOLYLINE
  5
10B
100
AcDbEntity
  8
SOLDERMASK_PADS_TOP
100
AcDbPolyline
 90
        4
 70
         1
 10
181.45
 20
85.95
 42
-1.0
 10
182.45
 20
85.95
 10
182.45
 20
83.95
 42
-1.0
 10
181.45
 20
83.95
  0
LWPOLYLINE
  5
10C
100
AcDbEntity
  8
SOLDERMASK_PADS_TOP
100
AcDbPolyline
 90
        4
 70
         1
 10
4.05
 20
13.55
 42
-1.0
 10
3.05
 20
13.55
 10
3.05
 20
15.55
 42
-1.0
 10
4.05
 20
15.55
  0
LWPOLYLINE
  5
10D
100
AcDbEntity
  8
SOLDERMASK_PADS_TOP
100
AcDbPolyline
 90
        4
 70
         1
 10
4.05
 20
20.95
 42
-1.0
 10
3.05
 20
20.95
 10
3.05
 20
22.95
 42
-1.0
 10
4.05
 20
22.95
  0
LWPOLYLINE
  5
10E
100
AcDbEntity
  8
SOLDERMASK_PADS_TOP
100
AcDbPolyline
 90
        4
 70
         1
 10
-0.45
 20
13.55
 42
-1.0
 10
-1.45
 20
13.55
 10
-1.45
 20
15.55
 42
-1.0
 10
-0.45
 20
15.55
  0
LWPOLYLINE
  5
10F
100
AcDbEntity
  8
SOLDERMASK_PADS_TOP
100
AcDbPolyline
 90
        4
 70
         1
 10
-0.45
 20
20.95
 42
-1.0
 10
-1.45
 20
20.95
 10
-1.45
 20
22.95
 42
-1.0
 10
-0.45
 20
22.95
  0
CIRCLE
  5
110
100
AcDbEntity
  8
SOLDERMASK_PADS_TOP
100
AcDbCircle
 10
167.46
 20
96.61
 30
0.0
 40
0.75
  0
CIRCLE
  5
111
100
AcDbEntity
  8
SOLDERMASK_PADS_TOP
100
AcDbCircle
 10
154.76
 20
96.61
 30
0.0
 40
0.75
  0
CIRCLE
  5
112
100
AcDbEntity
  8
SOLDERMASK_PADS_TOP
100
AcDbCircle
 10
157.3
 20
96.61
 30
0.0
 40
0.75
  0
CIRCLE
  5
113
100
AcDbEntity
  8
SOLDERMASK_PADS_TOP
100
AcDbCircle
 10
164.92
 20
96.61
 30
0.0
 40
0.75
  0
CIRCLE
  5
114
100
AcDbEntity
  8
SOLDERMASK_PADS_TOP
100
AcDbCircle
 10
164.92
 20
99.15
 30
0.0
 40
0.75
  0
CIRCLE
  5
115
100
AcDbEntity
  8
SOLDERMASK_PADS_TOP
100
AcDbCircle
 10
167.46
 20
99.15
 30
0.0
 40
0.75
  0
CIRCLE
  5
116
100
AcDbEntity
  8
SOLDERMASK_PADS_TOP
100
AcDbCircle
 10
162.38
 20
96.61
 30
0.0
 40
0.75
  0
CIRCLE
  5
117
100
AcDbEntity
  8
SOLDERMASK_PADS_TOP
100
AcDbCircle
 10
159.84
 20
96.61
 30
0.0
 40
0.75
  0
LWPOLYLINE
  5
118
100
AcDbEntity
  8
SOLDERMASK_PADS_TOP
100
AcDbPolyline
 90
        4
 70
         1
 10
143.8
 20
98.35
 10
143.8
 20
99.95
 10
145.4
 20
99.95
 10
145.4
 20
98.35
  0
CIRCLE
  5
119
100
AcDbEntity
  8
SOLDERMASK_PADS_TOP
100
AcDbCircle
 10
144.6
 20
96.61
 30
0.0
 40
0.75
  0
CIRCLE
  5
11A
100
AcDbEntity
  8
SOLDERMASK_PADS_TOP
100
AcDbCircle
 10
147.14
 20
99.15
 30
0.0
 40
0.75
  0
CIRCLE
  5
11B
100
AcDbEntity
  8
SOLDERMASK_PADS_TOP
100
AcDbCircle
 10
147.14
 20
96.61
 30
0.0
 40
0.75
  0
CIRCLE
  5
11C
100
AcDbEntity
  8
SOLDERMASK_PADS_TOP
100
AcDbCircle
 10
149.68
 20
99.15
 30
0.0
 40
0.75
  0
CIRCLE
  5
11D
100
AcDbEntity
  8
SOLDERMASK_PADS_TOP
100
AcDbCircle
 10
149.68
 20
96.61
 30
0.0
 40
0.75
  0
CIRCLE
  5
11E
100
AcDbEntity
  8
SOLDERMASK_PADS_TOP
100
AcDbCircle
 10
162.38
 20
99.15
 30
0.0
 40
0.75
  0
CIRCLE
  5
11F
100
AcDbEntity
  8
SOLDERMASK_PADS_TOP
100
AcDbCircle
 10
159.84
 20
99.15
 30
0.0
 40
0.75
  0
CIRCLE
  5
120
100
AcDbEntity
  8
SOLDERMASK_PADS_TOP
100
AcDbCircle
 10
157.3
 20
99.15
 30
0.0
 40
0.75
  0
CIRCLE
  5
121
100
AcDbEntity
  8
SOLDERMASK_PADS_TOP
100
AcDbCircle
 10
154.76
 20
99.15
 30
0.0
 40
0.75
  0
CIRCLE
  5
122
100
AcDbEntity
  8
SOLDERMASK_PADS_TOP
100
AcDbCircle
 10
152.22
 20
99.15
 30
0.0
 40
0.75
  0
CIRCLE
  5
123
100
AcDbEntity
  8
SOLDERMASK_PADS_TOP
100
AcDbCircle
 10
152.22
 20
96.61
 30
0.0
 40
0.75
  0
LWPOLYLINE
  5
124
100
AcDbEntity
  8
SOLDERMASK_PADS_TOP
100
AcDbPolyline
 90
        4
 70
         1
 10
4.05
 20
76.55
 42
-1.0
 10
3.05
 20
76.55
 10
3.05
 20
78.55
 42
-1.0
 10
4.05
 20
78.55
  0
LWPOLYLINE
  5
125
100
AcDbEntity
  8
SOLDERMASK_PADS_TOP
100
AcDbPolyline
 90
        4
 70
         1
 10
4.05
 20
83.95
 42
-1.0
 10
3.05
 20
83.95
 10
3.05
 20
85.95
 42
-1.0
 10
4.05
 20
85.95
  0
LWPOLYLINE
  5
126
100
AcDbEntity
  8
SOLDERMASK_PADS_TOP
100
AcDbPolyline
 90
        4
 70
         1
 10
-0.45
 20
76.55
 42
-1.0
 10
-1.45
 20
76.55
 10
-1.45
 20
78.55
 42
-1.0
 10
-0.45
 20
78.55
  0
LWPOLYLINE
  5
127
100
AcDbEntity
  8
SOLDERMASK_PADS_TOP
100
AcDbPolyline
 90
        4
 70
         1
 10
-0.45
 20
83.95
 42
-1.0
 10
-1.45
 20
83.95
 10
-1.45
 20
85.95
 42
-1.0
 10
-0.45
 20
85.95
  0
LWPOLYLINE
  5
128
100
AcDbEntity
  8
SOLDERMASK_PADS_TOP
100
AcDbPolyline
 90
        4
 70
         1
 10
110.3
 20
98.34
 10
110.3
 20
99.94
 10
111.9
 20
99.94
 10
111.9
 20
98.34
  0
CIRCLE
  5
129
100
AcDbEntity
  8
SOLDERMASK_PADS_TOP
100
AcDbCircle
 10
133.96
 20
96.6
 30
0.0
 40
0.75
  0
CIRCLE
  5
12A
100
AcDbEntity
  8
SOLDERMASK_PADS_TOP
100
AcDbCircle
 10
126.34
 20
99.14
 30
0.0
 40
0.75
  0
CIRCLE
  5
12B
100
AcDbEntity
  8
SOLDERMASK_PADS_TOP
100
AcDbCircle
 10
111.1
 20
96.6
 30
0.0
 40
0.75
  0
CIRCLE
  5
12C
100
AcDbEntity
  8
SOLDERMASK_PADS_TOP
100
AcDbCircle
 10
128.88
 20
96.6
 30
0.0
 40
0.75
  0
CIRCLE
  5
12D
100
AcDbEntity
  8
SOLDERMASK_PADS_TOP
100
AcDbCircle
 10
131.42
 20
96.6
 30
0.0
 40
0.75
  0
CIRCLE
  5
12E
100
AcDbEntity
  8
SOLDERMASK_PADS_TOP
100
AcDbCircle
 10
133.96
 20
99.14
 30
0.0
 40
0.75
  0
CIRCLE
  5
12F
100
AcDbEntity
  8
SOLDERMASK_PADS_TOP
100
AcDbCircle
 10
126.34
 20
96.6
 30
0.0
 40
0.75
  0
CIRCLE
  5
130
100
AcDbEntity
  8
SOLDERMASK_PADS_TOP
100
AcDbCircle
 10
131.42
 20
99.14
 30
0.0
 40
0.75
  0
CIRCLE
  5
131
100
AcDbEntity
  8
SOLDERMASK_PADS_TOP
100
AcDbCircle
 10
128.88
 20
99.14
 30
0.0
 40
0.75
  0
CIRCLE
  5
132
100
AcDbEntity
  8
SOLDERMASK_PADS_TOP
100
AcDbCircle
 10
121.26
 20
99.14
 30
0.0
 40
0.75
  0
CIRCLE
  5
133
100
AcDbEntity
  8
SOLDERMASK_PADS_TOP
100
AcDbCircle
 10
121.26
 20
96.6
 30
0.0
 40
0.75
  0
CIRCLE
  5
134
100
AcDbEntity
  8
SOLDERMASK_PADS_TOP
100
AcDbCircle
 10
113.64
 20
99.14
 30
0.0
 40
0.75
  0
CIRCLE
  5
135
100
AcDbEntity
  8
SOLDERMASK_PADS_TOP
100
AcDbCircle
 10
113.64
 20
96.6
 30
0.0
 40
0.75
  0
CIRCLE
  5
136
100
AcDbEntity
  8
SOLDERMASK_PADS_TOP
100
AcDbCircle
 10
116.18
 20
99.14
 30
0.0
 40
0.75
  0
CIRCLE
  5
137
100
AcDbEntity
  8
SOLDERMASK_PADS_TOP
100
AcDbCircle
 10
116.18
 20
96.6
 30
0.0
 40
0.75
  0
CIRCLE
  5
138
100
AcDbEntity
  8
SOLDERMASK_PADS_TOP
100
AcDbCircle
 10
118.72
 20
99.14
 30
0.0
 40
0.75
  0
CIRCLE
  5
139
100
AcDbEntity
  8
SOLDERMASK_PADS_TOP
100
AcDbCircle
 10
118.72
 20
96.6
 30
0.0
 40
0.75
  0
CIRCLE
  5
13A
100
AcDbEntity
  8
SOLDERMASK_PADS_TOP
100
AcDbCircle
 10
123.8
 20
99.14
 30
0.0
 40
0.75
  0
CIRCLE
  5
13B
100
AcDbEntity
  8
SOLDERMASK_PADS_TOP
100
AcDbCircle
 10
123.8
 20
96.6
 30
0.0
 40
0.75
  0
LWPOLYLINE
  5
13C
100
AcDbEntity
  8
SOLDERMASK_PADS_TOP
100
AcDbPolyline
 90
        4
 70
         1
 10
176.95
 20
64.95
 42
-1.0
 10
177.95
 20
64.95
 10
177.95
 20
62.95
 42
-1.0
 10
176.95
 20
62.95
  0
LWPOLYLINE
  5
13D
100
AcDbEntity
  8
SOLDERMASK_PADS_TOP
100
AcDbPolyline
 90
        4
 70
         1
 10
176.95
 20
57.55
 42
-1.0
 10
177.95
 20
57.55
 10
177.95
 20
55.55
 42
-1.0
 10
176.95
 20
55.55
  0
LWPOLYLINE
  5
13E
100
AcDbEntity
  8
SOLDERMASK_PADS_TOP
100
AcDbPolyline
 90
        4
 70
         1
 10
181.45
 20
64.95
 42
-1.0
 10
182.45
 20
64.95
 10
182.45
 20
62.95
 42
-1.0
 10
181.45
 20
62.95
  0
LWPOLYLINE
  5
13F
100
AcDbEntity
  8
SOLDERMASK_PADS_TOP
100
AcDbPolyline
 90
        4
 70
         1
 10
181.45
 20
57.55
 42
-1.0
 10
182.45
 20
57.55
 10
182.45
 20
55.55
 42
-1.0
 10
181.45
 20
55.55
  0
LWPOLYLINE
  5
140
100
AcDbEntity
  8
SOLDERMASK_PADS_TOP
100
AcDbPolyline
 90
        4
 70
         1
 10
176.95
 20
43.95
 42
-1.0
 10
177.95
 20
43.95
 10
177.95
 20
41.95
 42
-1.0
 10
176.95
 20
41.95
  0
LWPOLYLINE
  5
141
100
AcDbEntity
  8
SOLDERMASK_PADS_TOP
100
AcDbPolyline
 90
        4
 70
         1
 10
176.95
 20
36.55
 42
-1.0
 10
177.95
 20
36.55
 10
177.95
 20
34.55
 42
-1.0
 10
176.95
 20
34.55
  0
LWPOLYLINE
  5
142
100
AcDbEntity
  8
SOLDERMASK_PADS_TOP
100
AcDbPolyline
 90
        4
 70
         1
 10
181.45
 20
43.95
 42
-1.0
 10
182.45
 20
43.95
 10
182.45
 20
41.95
 42
-1.0
 10
181.45
 20
41.95
  0
LWPOLYLINE
  5
143
100
AcDbEntity
  8
SOLDERMASK_PADS_TOP
100
AcDbPolyline
 90
        4
 70
         1
 10
181.45
 20
36.55
 42
-1.0
 10
182.45
 20
36.55
 10
182.45
 20
34.55
 42
-1.0
 10
181.45
 20
34.55
  0
LWPOLYLINE
  5
144
100
AcDbEntity
  8
SOLDERMASK_PADS_TOP
100
AcDbPolyline
 90
        4
 70
         1
 10
176.95
 20
22.95
 42
-1.0
 10
177.95
 20
22.95
 10
177.95
 20
20.95
 42
-1.0
 10
176.95
 20
20.95
  0
LWPOLYLINE
  5
145
100
AcDbEntity
  8
SOLDERMASK_PADS_TOP
100
AcDbPolyline
 90
        4
 70
         1
 10
176.95
 20
15.55
 42
-1.0
 10
177.95
 20
15.55
 10
177.95
 20
13.55
 42
-1.0
 10
176.95
 20
13.55
  0
LWPOLYLINE
  5
146
100
AcDbEntity
  8
SOLDERMASK_PADS_TOP
100
AcDbPolyline
 90
        4
 70
         1
 10
181.45
 20
22.95
 42
-1.0
 10
182.45
 20
22.95
 10
182.45
 20
20.95
 42
-1.0
 10
181.45
 20
20.95
  0
LWPOLYLINE
  5
147
100
AcDbEntity
  8
SOLDERMASK_PADS_TOP
100
AcDbPolyline
 90
        4
 70
         1
 10
181.45
 20
15.55
 42
-1.0
 10
182.45
 20
15.55
 10
182.45
 20
13.55
 42
-1.0
 10
181.45
 20
13.55
  0
LWPOLYLINE
  5
148
100
AcDbEntity
  8
SOLDERMASK_PADS_TOP
100
AcDbPolyline
 90
        4
 70
         1
 10
4.05
 20
34.55
 42
-1.0
 10
3.05
 20
34.55
 10
3.05
 20
36.55
 42
-1.0
 10
4.05
 20
36.55
  0
LWPOLYLINE
  5
149
100
AcDbEntity
  8
SOLDERMASK_PADS_TOP
100
AcDbPolyline
 90
        4
 70
         1
 10
4.05
 20
41.95
 42
-1.0
 10
3.05
 20
41.95
 10
3.05
 20
43.95
 42
-1.0
 10
4.05
 20
43.95
  0
LWPOLYLINE
  5
14A
100
AcDbEntity
  8
SOLDERMASK_PADS_TOP
100
AcDbPolyline
 90
        4
 70
         1
 10
-0.45
 20
34.55
 42
-1.0
 10
-1.45
 20
34.55
 10
-1.45
 20
36.55
 42
-1.0
 10
-0.45
 20
36.55
  0
LWPOLYLINE
  5
14B
100
AcDbEntity
  8
SOLDERMASK_PADS_TOP
100
AcDbPolyline
 90
        4
 70
         1
 10
-0.45
 20
41.95
 42
-1.0
 10
-1.45
 20
41.95
 10
-1.45
 20
43.95
 42
-1.0
 10
-0.45
 20
43.95
  0
LWPOLYLINE
  5
14C
100
AcDbEntity
  8
SOLDERMASK_PADS_TOP
100
AcDbPolyline
 90
        4
 70
         1
 10
86.4
 20
96.2
 10
86.4
 20
97.6
 10
87.8
 20
97.6
 10
87.8
 20
96.2
  0
CIRCLE
  5
14D
100
AcDbEntity
  8
SOLDERMASK_PADS_TOP
100
AcDbCircle
 10
84.56
 20
96.9
 30
0.0
 40
0.7
  0
LWPOLYLINE
  5
14E
100
AcDbEntity
  8
SOLDERMASK_PADS_TOP
100
AcDbPolyline
 90
        4
 70
         1
 10
91.9
 20
96.2
 10
91.9
 20
97.6
 10
93.3
 20
97.6
 10
93.3
 20
96.2
  0
CIRCLE
  5
14F
100
AcDbEntity
  8
SOLDERMASK_PADS_TOP
100
AcDbCircle
 10
90.06
 20
96.9
 30
0.0
 40
0.7
  0
LWPOLYLINE
  5
150
100
AcDbEntity
  8
SOLDERMASK_PADS_TOP
100
AcDbPolyline
 90
        4
 70
         1
 10
91.9
 20
98.9
 10
91.9
 20
100.3
 10
93.3
 20
100.3
 10
93.3
 20
98.9
  0
CIRCLE
  5
151
100
AcDbEntity
  8
SOLDERMASK_PADS_TOP
100
AcDbCircle
 10
90.06
 20
99.6
 30
0.0
 40
0.7
  0
LWPOLYLINE
  5
152
100
AcDbEntity
  8
SOLDERMASK_PADS_TOP
100
AcDbPolyline
 90
        4
 70
         1
 10
99.3
 20
98.1
 10
99.3
 20
99.5
 10
100.7
 20
99.5
 10
100.7
 20
98.1
  0
CIRCLE
  5
153
100
AcDbEntity
  8
SOLDERMASK_PADS_TOP
100
AcDbCircle
 10
102.54
 20
98.8
 30
0.0
 40
0.7
  0
LWPOLYLINE
  5
154
100
AcDbEntity
  8
SOLDERMASK_PADS_TOP
100
AcDbPolyline
 90
        4
 70
         1
 10
86.4
 20
98.9
 10
86.4
 20
100.3
 10
87.8
 20
100.3
 10
87.8
 20
98.9
  0
CIRCLE
  5
155
100
AcDbEntity
  8
SOLDERMASK_PADS_TOP
100
AcDbCircle
 10
84.56
 20
99.6
 30
0.0
 40
0.7
  0
LWPOLYLINE
  5
156
100
AcDbEntity
  8
SOLDERMASK_PADS_TOP
100
AcDbPolyline
 90
        4
 70
         1
 10
75.2
 20
98.9
 10
75.2
 20
100.3
 10
76.6
 20
100.3
 10
76.6
 20
98.9
  0
CIRCLE
  5
157
100
AcDbEntity
  8
SOLDERMASK_PADS_TOP
100
AcDbCircle
 10
80.98
 20
99.6
 30
0.0
 40
0.7
  0
CIRCLE
  5
158
100
AcDbEntity
  8
SOLDERMASK_PADS_TOP
100
AcDbCircle
 10
78.44
 20
99.6
 30
0.0
 40
0.7
  0
LWPOLYLINE
  5
159
100
AcDbEntity
  8
SOLDERMASK_PADS_TOP
100
AcDbPolyline
 90
        4
 70
         1
 10
75.2
 20
96.2
 10
75.2
 20
97.6
 10
76.6
 20
97.6
 10
76.6
 20
96.2
  0
CIRCLE
  5
15A
100
AcDbEntity
  8
SOLDERMASK_PADS_TOP
100
AcDbCircle
 10
80.98
 20
96.9
 30
0.0
 40
0.7
  0
CIRCLE
  5
15B
100
AcDbEntity
  8
SOLDERMASK_PADS_TOP
100
AcDbCircle
 10
78.44
 20
96.9
 30
0.0
 40
0.7
  0
LWPOLYLINE
  5
15C
100
AcDbEntity
  8
SOLDERMASK_PADS_TOP
100
AcDbPolyline
 90
        4
 70
         1
 10
66.1
 20
96.2
 10
66.1
 20
97.6
 10
67.5
 20
97.6
 10
67.5
 20
96.2
  0
CIRCLE
  5
15D
100
AcDbEntity
  8
SOLDERMASK_PADS_TOP
100
AcDbCircle
 10
71.88
 20
96.9
 30
0.0
 40
0.7
  0
CIRCLE
  5
15E
100
AcDbEntity
  8
SOLDERMASK_PADS_TOP
100
AcDbCircle
 10
69.34
 20
96.9
 30
0.0
 40
0.7
  0
ENDSEC
  0
SECTION
  2
OBJECTS
  0
DICTIONARY
  5
19
100
AcDbDictionary
  3
ACAD_GROUP
350
1A
  3
ACAD_MLINESTYLE
350
1B
  0
DICTIONARY
  5
1A
102
{ACAD_REACTORS
330
19
102
}
100
AcDbDictionary
  0
DICTIONARY
  5
1B
102
{ACAD_REACTORS
330
19
102
}
100
AcDbDictionary
  3
STANDARD
350
1C
  0
MLINESTYLE
  5
1C
102
{ACAD_REACTORS
330
1B
102
}
100
AcDbMlineStyle
  2
STANDARD
 70
         0
  3

 62
         0
 51
90.0
 52
90.0
 71
         2
 49
0.5
 62
       256
  6
BYLAYER
 49
-0.5
 62
       256
  6
BYLAYER
  0
DICTIONARY
  5
22
102
{ACAD_REACTORS
330
19
102
}
100
AcDbDictionary
  0
ENDSEC
  0
EOF
