  0
SECTION
  2
HEADER
  9
$ACADVER
  1
AC1014
  9
$ACADMAINTVER
 70
         0
  9
$DWGCODEPAGE
  3
ANSI_1252
  9
$INSBASE
 10
0.0
 20
0.0
 30
0.0
  9
$EXTMIN
 10
0.0
 20
-27.0
 30
0.0
  9
$EXTMAX
 10
91.6096
 20
68.281324
 30
0.0
  9
$LIMMIN
 10
0.0
 20
0.0
  9
$LIMMAX
 10
0.0
 20
0.0
  9
$ORTHOMODE
 70
         0
  9
$REGENMODE
 70
         1
  9
$FILLMODE
 70
         1
  9
$QTEXTMODE
 70
         0
  9
$MIRRTEXT
 70
         1
  9
$DRAGMODE
 70
         2
  9
$LTSCALE
 40
1.0
  9
$OSMODE
 70
         0
  9
$ATTMODE
 70
         1
  9
$TEXTSIZE
 40
0.2
  9
$TRACEWID
 40
0.05
  9
$TEXTSTYLE
  7
STANDARD
  9
$CLAYER
  8
0
  9
$CELTYPE
  6
CONTINUOUS
  9
$CECOLOR
 62
       256
  9
$CELTSCALE
 40
1.0
  9
$DELOBJ
 70
         1
  9
$DISPSILH
 70
         0
  9
$DIMSCALE
 40
1.0
  9
$DIMASZ
 40
0.18
  9
$DIMEXO
 40
0.0625
  9
$DIMDLI
 40
0.38
  9
$DIMRND
 40
0.0
  9
$DIMDLE
 40
0.0
  9
$DIMEXE
 40
0.18
  9
$DIMTP
 40
0.0
  9
$DIMTM
 40
0.0
  9
$DIMTXT
 40
0.18
  9
$DIMCEN
 40
0.09
  9
$DIMTSZ
 40
0.0
  9
$DIMTOL
 70
         0
  9
$DIMLIM
 70
         0
  9
$DIMTIH
 70
         1
  9
$DIMTOH
 70
         1
  9
$DIMSE1
 70
         0
  9
$DIMSE2
 70
         0
  9
$DIMTAD
 70
         0
  9
$DIMZIN
 70
         0
  9
$DIMBLK
  1

  9
$DIMASO
 70
         1
  9
$DIMSHO
 70
         1
  9
$DIMPOST
  1

  9
$DIMAPOST
  1

  9
$DIMALT
 70
         0
  9
$DIMALTD
 70
         2
  9
$DIMALTF
 40
25.4
  9
$DIMLFAC
 40
1.0
  9
$DIMTOFL
 70
         0
  9
$DIMTVP
 40
0.0
  9
$DIMTIX
 70
         0
  9
$DIMSOXD
 70
         0
  9
$DIMSAH
 70
         0
  9
$DIMBLK1
  1

  9
$DIMBLK2
  1

  9
$DIMSTYLE
  2
STANDARD
  9
$DIMCLRD
 70
         0
  9
$DIMCLRE
 70
         0
  9
$DIMCLRT
 70
         0
  9
$DIMTFAC
 40
1.0
  9
$DIMGAP
 40
0.09
  9
$DIMJUST
 70
         0
  9
$DIMSD1
 70
         0
  9
$DIMSD2
 70
         0
  9
$DIMTOLJ
 70
         1
  9
$DIMTZIN
 70
         0
  9
$DIMALTZ
 70
         0
  9
$DIMALTTZ
 70
         0
  9
$DIMFIT
 70
         3
  9
$DIMUPT
 70
         0
  9
$DIMUNIT
 70
         2
  9
$DIMDEC
 70
         4
  9
$DIMTDEC
 70
         4
  9
$DIMALTU
 70
         2
  9
$DIMALTTD
 70
         2
  9
$DIMTXSTY
  7
STANDARD
  9
$DIMAUNIT
 70
         0
  9
$LUNITS
 70
         2
  9
$LUPREC
 70
         4
  9
$SKETCHINC
 40
0.1
  9
$FILLETRAD
 40
0.0
  9
$AUNITS
 70
         0
  9
$AUPREC
 70
         0
  9
$MENU
  1
acad
  9
$ELEVATION
 40
0.0
  9
$PELEVATION
 40
0.0
  9
$THICKNESS
 40
0.0
  9
$LIMCHECK
 70
         0
  9
$BLIPMODE
 70
         1
  9
$CHAMFERA
 40
0.0
  9
$CHAMFERB
 40
0.0
  9
$CHAMFERC
 40
0.0
  9
$CHAMFERD
 40
0.0
  9
$SKPOLY
 70
         0
  9
$TDCREATE
 40
2456872.497881944
  9
$TDUPDATE
 40
0.000000000
  9
$TDINDWG
 40
0.0000000000
  9
$TDUSRTIMER
 40
0.0000000000
  9
$USRTIMER
 70
         1
  9
$ANGBASE
 50
0.0
  9
$ANGDIR
 70
         0
  9
$PDMODE
 70
         0
  9
$PDSIZE
 40
0.0
  9
$PLINEWID
 40
0.0
  9
$COORDS
 70
         0
  9
$SPLFRAME
 70
         0
  9
$SPLINETYPE
 70
         6
  9
$SPLINESEGS
 70
         8
  9
$ATTDIA
 70
         0
  9
$ATTREQ
 70
         1
  9
$HANDLING
 70
         1
  9
$HANDSEED
  5
1B9
  9
$SURFTAB1
 70
         6
  9
$SURFTAB2
 70
         6
  9
$SURFTYPE
 70
         6
  9
$SURFU
 70
         6
  9
$SURFV
 70
         6
  9
$UCSNAME
  2

  9
$UCSORG
 10
0.0
 20
0.0
 30
0.0
  9
$UCSXDIR
 10
1.0
 20
0.0
 30
0.0
  9
$UCSYDIR
 10
0.0
 20
1.0
 30
0.0
  9
$PUCSNAME
  2

  9
$PUCSORG
 10
0.0
 20
0.0
 30
0.0
  9
$PUCSXDIR
 10
1.0
 20
0.0
 30
0.0
  9
$PUCSYDIR
 10
0.0
 20
1.0
 30
0.0
  9
$USERI1
 70
        -3
  9
$USERI2
 70
         0
  9
$USERI3
 70
         0
  9
$USERI4
 70
         0
  9
$USERI5
 70
         0
  9
$USERR1
 40
0.0
  9
$USERR2
 40
0.0
  9
$USERR3
 40
0.0
  9
$USERR4
 40
0.0
  9
$USERR5
 40
0.0
  9
$WORLDVIEW
 70
         1
  9
$SHADEDGE
 70
         3
  9
$SHADEDIF
 70
        70
  9
$TILEMODE
 70
         1
  9
$MAXACTVP
 70
        16
  9
$PINSBASE
 10
0.0
 20
0.0
 30
0.0
  9
$PLIMCHECK
 70
         0
  9
$PEXTMIN
 10
1.0000000000E+20
 20
1.0000000000E+20
 30
1.0000000000E+20
  9
$PEXTMAX
 10
-1.0000000000E+20
 20
-1.0000000000E+20
 30
-1.0000000000E+20
  9
$PLIMMIN
 10
0.0
 20
0.0
  9
$PLIMMAX
 10
12.0
 20
9.0
  9
$UNITMODE
 70
         0
  9
$VISRETAIN
 70
         0
  9
$PLINEGEN
 70
         1
  9
$PSLTSCALE
 70
         0
  9
$TREEDEPTH
 70
      3020
  9
$PICKSTYLE
 70
         1
  9
$CMLSTYLE
  2
STANDARD
  9
$CMLJUST
 70
         0
  9
$CMLSCALE
 40
1.0
  9
$PROXYGRAPHICS
 70
         0
  9
$MEASUREMENT
 70
         0
  0
ENDSEC
  0
SECTION
  2
CLASSES
  0
CLASS
  1
LWPOLYLINE
  2
AcDbPolyline
  3
"AutoCAD"
 90
        0
280
         0
281
         1
  0
CLASS
  1
IMAGE
  2
AcDbRasterImage
  3
ISM
 90
      127
280
         0
281
         1
  0
CLASS
  1
OLE2FRAME
  2
AcDbOle2Frame
  3
""
 90
        0
280
         0
281
         1
  0
CLASS
  1
HATCH
  2
AcDbHatch
  3
"ACAD_SEDONA"
 90
        0
280
         0
281
         1
  0
CLASS
  1
DICTIONARYVAR
  2
AcDbDictionaryVar
  3
"AutoCAD"
 90
        0
280
         0
281
         0
  0
CLASS
  1
RASTERVARIABLES
  2
AcDbRasterVariables
  3
ISM
 90
        0
280
         0
281
         0
  0
CLASS
  1
IMAGEDEF
  2
AcDbRasterImageDef
  3
ISM
 90
        0
280
         0
281
         0
  0
CLASS
  1
IMAGEDEF_REACTOR
  2
AcDbRasterImageDefReactor
  3
ISM
 90
        1
280
         0
281
         0
  0
CLASS
  1
IDBUFFER
  2
AcDbIdBuffer
  3
"Acad"
 90
        0
280
         0
281
         0
  0
CLASS
  1
SPATIAL_FILTER
  2
AcDbSpatialFilter
  3
"Acad"
 90
        0
280
         0
281
         0
  0
CLASS
  1
XRECORD
  2
AcDbXrecord
  3
"<Built In>"
 90
        0
280
         0
281
         0
  0
CLASS
  1
SORTENTSTABLE
  2
AcDbSortentsTable
  3
"AutoCAD"
 90
        0
280
         0
281
         0
  0
CLASS
  1
LAYER_INDEX
  2
AcDbLayerIndex
  3
"Acad"
 90
        0
280
         0
281
         0
  0
CLASS
  1
SPATIAL_INDEX
  2
AcDbSpatialIndex
  3
"Acad"
 90
        0
280
         0
281
         0
  0
CLASS
  1
OBJECT_PTR
  2
CAseDLPNTableRecord
  3
"ASE-LPNTableRecord"
 90
        1
280
         0
281
         0
  0
CLASS
  1
LAYOUT
  2
AcDbLayout
  3
"AutoCAD 2000"
 90
        0
280
         0
281
         0
  0
CLASS
  1
PLOTSETTINGS
  2
AcDbPlotSettings
  3
"AutoCAD 2000"
 90
        0
280
         0
281
         0
  0
CLASS
  1
ACDBDICTIONARYWDFLT
  2
AcDbDictionaryWithDefault
  3
"AutoCAD 2000"
 90
        0
280
         0
281
         0
  0
CLASS
  1
ACDBPLACEHOLDER
  2
AcDbPlaceHolder
  3
"AutoCAD 2000"
 90
        0
280
         0
281
         0
  0
CLASS
  1
VBA_PROJECT
  2
AcDbVbaProject
  3
"acadvba"
 90
        0
280
         0
281
         0
  0
CLASS
  1
WIPEOUT
  2
AcDbWipeout
  3
WipeOut|AutoCAD Express Tool|expresstools@autodesk.com
 90
      127
280
         0
281
         1
  0
CLASS
  1
WIPEOUTVARIABLES
  2
AcDbWipeoutVariables
  3
WipeOut|AutoCAD Express Tool|expresstools@autodesk.com
 90
        0
280
         0
281
         0
  0
CLASS
  1
RTEXT
  2
RText
  3
RText|AutoCAD Express Tool|expresstools@autodesk.com
 90
        0
280
         0
281
         1
  0
CLASS
  1
ARCALIGNEDTEXT
  2
AcDbArcAlignedText
  3
ATEXT|AutoCAD Express Tool|expresstools@autodesk.com
 90
        0
280
         0
281
         1
  0
ENDSEC
  0
SECTION
  2
TABLES
  0
TABLE
  2
VPORT
  5
7
100
AcDbSymbolTable
 70
         1
  0
VPORT
  5
15
100
AcDbSymbolTableRecord
100
AcDbViewportTableRecord
  2
*ACTIVE
 70
         0
 10
0.0
 20
0.0
 11
1.0
 21
1.0
 12
6.591288
 22
4.579184
 13
0.0
 23
0.0
 14
1.0
 24
1.0
 15
0.0
 25
0.0
 16
0.0
 26
0.0
 36
1.0
 17
0.0
 27
0.0
 37
0.0
 40
9.158369
 41
0.688564
 42
50.0
 43
0.0
 44
0.0
 50
0.0
 51
0.0
 71
         0
 72
       100
 73
         1
 74
         1
 75
         0
 76
         0
 77
         0
 78
         0
  0
ENDTAB
  0
TABLE
  2
LTYPE
  5
4
100
AcDbSymbolTable
 70
         3
  0
LTYPE
  5
11
100
AcDbSymbolTableRecord
100
AcDbLinetypeTableRecord
  2
BYBLOCK
 70
        64
  3

 72
        65
 73
         0
 40
0.0
  0
LTYPE
  5
12
100
AcDbSymbolTableRecord
100
AcDbLinetypeTableRecord
  2
BYLAYER
 70
        64
  3

 72
        65
 73
         0
 40
0.0
  0
LTYPE
  5
13
100
AcDbSymbolTableRecord
100
AcDbLinetypeTableRecord
  2
CONTINUOUS
 70
        64
  3
Solid line
 72
        65
 73
         0
 40
0.0
  0
ENDTAB
  0
TABLE
  2
LAYER
  5
2
100
AcDbSymbolTable
 70
         6
  0
LAYER
  5
14
100
AcDbSymbolTableRecord
100
AcDbLayerTableRecord
  2
0
 70
         0
 62
         7
  6
CONTINUOUS
  0
LAYER
  5
24
100
AcDbSymbolTableRecord
100
AcDbLayerTableRecord
  2
ASSEMBLY_OUTLINES_TOP
 70
         0
 62
       102
  6
CONTINUOUS
  0
LAYER
  5
25
100
AcDbSymbolTableRecord
100
AcDbLayerTableRecord
  2
ASSEMBLY_REF_DES_TOP
 70
         0
 62
       102
  6
CONTINUOUS
  0
LAYER
  5
26
100
AcDbSymbolTableRecord
100
AcDbLayerTableRecord
  2
BOARD_OUTLINE
 70
         0
 62
        10
  6
CONTINUOUS
  0
LAYER
  5
27
100
AcDbSymbolTableRecord
100
AcDbLayerTableRecord
  2
MOUNTING_HOLES_LAYER_TOP
 70
         0
 62
        42
  6
CONTINUOUS
  0
LAYER
  5
28
100
AcDbSymbolTableRecord
100
AcDbLayerTableRecord
  2
PART_HOLES_LAYER_TOP
 70
         0
 62
        30
  6
CONTINUOUS
  0
ENDTAB
  0
TABLE
  2
STYLE
  5
3
100
AcDbSymbolTable
 70
         5
  0
STYLE
  5
17
100
AcDbSymbolTableRecord
100
AcDbTextStyleTableRecord
  2
STANDARD
 70
         0
 40
0.0
 41
1.0
 50
0.0
 71
         0
 42
0.0
  3
txt
  4

  0
STYLE
  5
49
100
AcDbSymbolTableRecord
100
AcDbTextStyleTableRecord
  2
VERIBEST_GERBER_1
 70
         0
 40
0.0
 41
1.0
 50
0.0
 71
         0
 42
0.0
  3

  4

  0
STYLE
  5
AD
100
AcDbSymbolTableRecord
100
AcDbTextStyleTableRecord
  2
GOST_TYPE_B
 70
         0
 40
0.0
 41
1.0
 50
0.0
 71
         0
 42
0.0
  3
gost_0.ttf
  4

  0
STYLE
  5
BA
100
AcDbSymbolTableRecord
100
AcDbTextStyleTableRecord
  2
VERIBEST_GERBER_0
 70
         0
 40
0.0
 41
1.0
 50
0.0
 71
         0
 42
0.0
  3
gost_0.ttf
  4

  0
STYLE
  5
E8
100
AcDbSymbolTableRecord
100
AcDbTextStyleTableRecord
  2
GOST_D
 70
         0
 40
0.0
 41
1.0
 50
0.0
 71
         0
 42
0.0
  3
GOST.TTF
  4

  0
ENDTAB
  0
TABLE
  2
VIEW
  5
5
100
AcDbSymbolTable
 70
         0
  0
ENDTAB
  0
TABLE
  2
UCS
  5
6
100
AcDbSymbolTable
 70
         0
  0
ENDTAB
  0
TABLE
  2
APPID
  5
8
100
AcDbSymbolTable
 70
         1
  0
APPID
  5
16
100
AcDbSymbolTableRecord
100
AcDbRegAppTableRecord
  2
ACAD
 70
         0
  0
ENDTAB
  0
TABLE
  2
DIMSTYLE
  5
9
100
AcDbSymbolTable
 70
         1
  0
DIMSTYLE
105
18
100
AcDbSymbolTableRecord
100
AcDbDimStyleTableRecord
  2
STANDARD
 70
         0
  3

  4

  5

  6

  7

 40
1.0
 41
0.18
 42
0.0625
 43
0.38
 44
0.18
 45
0.0
 46
0.0
 47
0.0
 48
0.0
 71
         0
 72
         0
 73
         1
 74
         1
 75
         0
 76
         0
 77
         0
 78
         0
140
0.18
141
0.09
142
0.0
143
25.4
144
1.0
145
0.0
146
1.0
147
0.09
170
         0
171
         2
172
         0
173
         0
174
         0
175
         0
176
         0
177
         0
178
         0
270
         2
271
         4
272
         4
273
         2
274
         2
275
         0
280
         0
281
         0
282
         0
283
         1
284
         0
285
         0
286
         0
287
         3
288
         0
340
17
  0
ENDTAB
  0
TABLE
  2
BLOCK_RECORD
  5
1
100
AcDbSymbolTable
 70
         0
  0
BLOCK_RECORD
  5
A
100
AcDbSymbolTableRecord
100
AcDbBlockTableRecord
  2
*MODEL_SPACE
  0
BLOCK_RECORD
  5
B
100
AcDbSymbolTableRecord
100
AcDbBlockTableRecord
  2
*PAPER_SPACE
  0
ENDTAB
  0
ENDSEC
  0
SECTION
  2
BLOCKS
  0
BLOCK
  5
D
100
AcDbEntity
  8
0
100
AcDbBlockBegin
  2
*MODEL_SPACE
 70
         0
 10
0.0
 20
0.0
 30
0.0
  3
*MODEL_SPACE
  1

  0
ENDBLK
  5
E
100
AcDbEntity
  8
0
100
AcDbBlockEnd
  0
BLOCK
  5
F
100
AcDbEntity
 67
         1
  8
0
100
AcDbBlockBegin
  2
*PAPER_SPACE
 70
         0
 10
0.0
 20
0.0
 30
0.0
  3
*PAPER_SPACE
  1

  0
ENDBLK
  5
10
100
AcDbEntity
 67
         1
  8
0
100
AcDbBlockEnd
  0
ENDSEC
  0
SECTION
  2
ENTITIES
  0
LWPOLYLINE
  5
29
100
AcDbEntity
  8
ASSEMBLY_OUTLINES_TOP
100
AcDbPolyline
 90
        3
 70
         1
 10
21.385241
 20
60.5
 10
21.95674
 20
59.357
 10
20.813741
 20
59.357001
  0
HATCH
  5
2A
100
AcDbEntity
  8
ASSEMBLY_OUTLINES_TOP
100
AcDbHatch
 10
0.0
 20
0.0
 30
0.0
210
0.0
220
0.0
230
1.0
  2
SOLID
 70
         1
 71
         1
 91
        1
 92
        2
 72
         0
 73
         1
 93
        3
 10
21.385241000000001
 20
60.5
 10
21.95674
 20
59.356999999999999
 10
20.813741
 20
59.357000999999997
 97
        1
330
29
 75
         0
 76
         1
 98
        1
 10
0.0
 20
0.0
  0
LWPOLYLINE
  5
2B
100
AcDbEntity
  8
ASSEMBLY_OUTLINES_TOP
100
AcDbPolyline
 90
        3
 70
         1
 10
21.385241
 20
63.0
 10
20.813741
 20
64.143
 10
21.956741
 20
64.143
  0
HATCH
  5
2C
100
AcDbEntity
  8
ASSEMBLY_OUTLINES_TOP
100
AcDbHatch
 10
0.0
 20
0.0
 30
0.0
210
0.0
220
0.0
230
1.0
  2
SOLID
 70
         1
 71
         1
 91
        1
 92
        2
 72
         0
 73
         1
 93
        3
 10
21.385241000000001
 20
63.0
 10
20.813741
 20
64.143000000000001
 10
21.956741000000001
 20
64.143000000000001
 97
        1
330
2B
 75
         0
 76
         1
 98
        1
 10
0.0
 20
0.0
  0
LWPOLYLINE
  5
2D
100
AcDbEntity
  8
ASSEMBLY_OUTLINES_TOP
100
AcDbPolyline
 90
        2
 70
         0
 43
0.2032
 10
21.385241
 20
59.9285
 10
21.385241
 20
57.6425
  0
LWPOLYLINE
  5
2E
100
AcDbEntity
  8
ASSEMBLY_OUTLINES_TOP
100
AcDbPolyline
 90
        2
 70
         0
 43
0.2032
 10
21.385241
 20
63.5715
 10
21.385241
 20
65.8575
  0
LWPOLYLINE
  5
2F
100
AcDbEntity
  8
ASSEMBLY_OUTLINES_TOP
100
AcDbPolyline
 90
        2
 70
         0
 43
0.2032
 10
24.992
 20
60.5
 10
20.877241
 20
60.5
  0
LWPOLYLINE
  5
30
100
AcDbEntity
  8
ASSEMBLY_OUTLINES_TOP
100
AcDbPolyline
 90
        2
 70
         0
 43
0.2032
 10
22.492
 20
63.0
 10
20.877241
 20
63.0
  0
LWPOLYLINE
  5
31
100
AcDbEntity
  8
ASSEMBLY_OUTLINES_TOP
100
AcDbPolyline
 90
        3
 70
         1
 10
25.5
 20
65.837574
 10
26.643
 20
66.409074
 10
26.643
 20
65.266074
  0
HATCH
  5
32
100
AcDbEntity
  8
ASSEMBLY_OUTLINES_TOP
100
AcDbHatch
 10
0.0
 20
0.0
 30
0.0
210
0.0
220
0.0
230
1.0
  2
SOLID
 70
         1
 71
         1
 91
        1
 92
        2
 72
         0
 73
         1
 93
        3
 10
25.5
 20
65.837574000000004
 10
26.643000000000001
 20
66.409074000000004
 10
26.643000000000001
 20
65.266074000000003
 97
        1
330
31
 75
         0
 76
         1
 98
        1
 10
0.0
 20
0.0
  0
LWPOLYLINE
  5
33
100
AcDbEntity
  8
ASSEMBLY_OUTLINES_TOP
100
AcDbPolyline
 90
        3
 70
         1
 10
23.0
 20
65.837574
 10
21.857
 20
65.266075
 10
21.857
 20
66.409074
  0
HATCH
  5
34
100
AcDbEntity
  8
ASSEMBLY_OUTLINES_TOP
100
AcDbHatch
 10
0.0
 20
0.0
 30
0.0
210
0.0
220
0.0
230
1.0
  2
SOLID
 70
         1
 71
         1
 91
        1
 92
        2
 72
         0
 73
         1
 93
        3
 10
23.0
 20
65.837574000000004
 10
21.856999999999999
 20
65.266075000000001
 10
21.856999999999999
 20
66.409074000000004
 97
        1
330
33
 75
         0
 76
         1
 98
        1
 10
0.0
 20
0.0
  0
LWPOLYLINE
  5
35
100
AcDbEntity
  8
ASSEMBLY_OUTLINES_TOP
100
AcDbPolyline
 90
        2
 70
         0
 43
0.2032
 10
26.0715
 20
65.837574
 10
28.3575
 20
65.837574
  0
LWPOLYLINE
  5
36
100
AcDbEntity
  8
ASSEMBLY_OUTLINES_TOP
100
AcDbPolyline
 90
        2
 70
         0
 43
0.2032
 10
22.4285
 20
65.837574
 10
20.1425
 20
65.837574
  0
LWPOLYLINE
  5
37
100
AcDbEntity
  8
ASSEMBLY_OUTLINES_TOP
100
AcDbPolyline
 90
        2
 70
         0
 43
0.2032
 10
25.5
 20
61.008
 10
25.5
 20
66.345574
  0
LWPOLYLINE
  5
38
100
AcDbEntity
  8
ASSEMBLY_OUTLINES_TOP
100
AcDbPolyline
 90
        2
 70
         0
 43
0.2032
 10
23.0
 20
63.508
 10
23.0
 20
66.345574
  0
LWPOLYLINE
  5
39
100
AcDbEntity
  8
ASSEMBLY_OUTLINES_TOP
100
AcDbPolyline
 90
        3
 70
         1
 10
83.0
 20
67.671724
 10
81.857
 20
67.100225
 10
81.857
 20
68.243224
  0
HATCH
  5
3A
100
AcDbEntity
  8
ASSEMBLY_OUTLINES_TOP
100
AcDbHatch
 10
0.0
 20
0.0
 30
0.0
210
0.0
220
0.0
230
1.0
  2
SOLID
 70
         1
 71
         1
 91
        1
 92
        2
 72
         0
 73
         1
 93
        3
 10
83.0
 20
67.671723999999998
 10
81.856999999999999
 20
67.100224999999995
 10
81.856999999999999
 20
68.243223999999998
 97
        1
330
39
 75
         0
 76
         1
 98
        1
 10
0.0
 20
0.0
  0
LWPOLYLINE
  5
3B
100
AcDbEntity
  8
ASSEMBLY_OUTLINES_TOP
100
AcDbPolyline
 90
        3
 70
         1
 10
23.0
 20
67.671724
 10
24.143
 20
68.243224
 10
24.143
 20
67.100224
  0
HATCH
  5
3C
100
AcDbEntity
  8
ASSEMBLY_OUTLINES_TOP
100
AcDbHatch
 10
0.0
 20
0.0
 30
0.0
210
0.0
220
0.0
230
1.0
  2
SOLID
 70
         1
 71
         1
 91
        1
 92
        2
 72
         0
 73
         1
 93
        3
 10
23.0
 20
67.671723999999998
 10
24.143000000000001
 20
68.243223999999998
 10
24.143000000000001
 20
67.100223999999997
 97
        1
330
3B
 75
         0
 76
         1
 98
        1
 10
0.0
 20
0.0
  0
LWPOLYLINE
  5
3D
100
AcDbEntity
  8
ASSEMBLY_OUTLINES_TOP
100
AcDbPolyline
 90
        2
 70
         0
 43
0.2032
 10
55.752598
 20
67.671724
 10
82.4285
 20
67.671724
  0
LWPOLYLINE
  5
3E
100
AcDbEntity
  8
ASSEMBLY_OUTLINES_TOP
100
AcDbPolyline
 90
        2
 70
         0
 43
0.2032
 10
23.5715
 20
67.671724
 10
50.247402
 20
67.671724
  0
LWPOLYLINE
  5
3F
100
AcDbEntity
  8
ASSEMBLY_OUTLINES_TOP
100
AcDbPolyline
 90
        2
 70
         0
 43
0.2032
 10
83.0
 20
63.508
 10
83.0
 20
68.179724
  0
LWPOLYLINE
  5
40
100
AcDbEntity
  8
ASSEMBLY_OUTLINES_TOP
100
AcDbPolyline
 90
        2
 70
         0
 43
0.2032
 10
23.0
 20
63.508
 10
23.0
 20
68.179724
  0
LWPOLYLINE
  5
41
100
AcDbEntity
  8
ASSEMBLY_OUTLINES_TOP
100
AcDbPolyline
 90
        2
 70
         0
 43
0.2032
 10
83.508
 20
63.0
 10
91.508
 20
63.0
  0
LWPOLYLINE
  5
42
100
AcDbEntity
  8
ASSEMBLY_OUTLINES_TOP
100
AcDbPolyline
 90
        2
 70
         0
 43
0.2032
 10
83.508
 20
-19.5
 10
91.508
 20
-19.5
  0
LWPOLYLINE
  5
43
100
AcDbEntity
  8
ASSEMBLY_OUTLINES_TOP
100
AcDbPolyline
 90
        2
 70
         0
 43
0.2032
 10
91.0
 20
62.4285
 10
91.0
 20
25.609402
  0
LWPOLYLINE
  5
44
100
AcDbEntity
  8
ASSEMBLY_OUTLINES_TOP
100
AcDbPolyline
 90
        2
 70
         0
 43
0.2032
 10
91.0
 20
17.890597
 10
91.0
 20
-18.9285
  0
LWPOLYLINE
  5
45
100
AcDbEntity
  8
ASSEMBLY_OUTLINES_TOP
100
AcDbPolyline
 90
        3
 70
         1
 10
91.0
 20
63.0
 10
91.571499
 20
61.857
 10
90.4285
 20
61.857001
  0
HATCH
  5
46
100
AcDbEntity
  8
ASSEMBLY_OUTLINES_TOP
100
AcDbHatch
 10
0.0
 20
0.0
 30
0.0
210
0.0
220
0.0
230
1.0
  2
SOLID
 70
         1
 71
         1
 91
        1
 92
        2
 72
         0
 73
         1
 93
        3
 10
91.0
 20
63.0
 10
91.571499000000003
 20
61.856999999999999
 10
90.4285
 20
61.857000999999997
 97
        1
330
45
 75
         0
 76
         1
 98
        1
 10
0.0
 20
0.0
  0
LWPOLYLINE
  5
47
100
AcDbEntity
  8
ASSEMBLY_OUTLINES_TOP
100
AcDbPolyline
 90
        3
 70
         1
 10
91.0
 20
-19.5
 10
90.4285
 20
-18.357
 10
91.5715
 20
-18.357
  0
HATCH
  5
48
100
AcDbEntity
  8
ASSEMBLY_OUTLINES_TOP
100
AcDbHatch
 10
0.0
 20
0.0
 30
0.0
210
0.0
220
0.0
230
1.0
  2
SOLID
 70
         1
 71
         1
 91
        1
 92
        2
 72
         0
 73
         1
 93
        3
 10
91.0
 20
-19.5
 10
90.4285
 20
-18.356999999999999
 10
91.5715
 20
-18.356999999999999
 97
        1
330
47
 75
         0
 76
         1
 98
        1
 10
0.0
 20
0.0
  0
TEXT
  5
4A
100
AcDbEntity
  8
ASSEMBLY_OUTLINES_TOP
100
AcDbText
 10
22.020241
 20
66.133439
 30
0.0
 40
1.27
  1
2.5mm
 50
90.0
  7
VERIBEST_GERBER_1
 72
         1
 11
21.385241
 21
68.985224
 31
0.0
100
AcDbText
 73
         2
  0
TEXT
  5
4B
100
AcDbEntity
  8
ASSEMBLY_OUTLINES_TOP
100
AcDbText
 10
14.162991
 20
65.202574
 30
0.0
 40
1.27
  1
2.5mm
  7
VERIBEST_GERBER_1
 72
         1
 11
17.014776
 21
65.837574
 31
0.0
100
AcDbText
 73
         2
  0
TEXT
  5
4C
100
AcDbEntity
  8
ASSEMBLY_OUTLINES_TOP
100
AcDbText
 10
50.60224
 20
67.036724
 30
0.0
 40
1.27
  1
60mm
  7
VERIBEST_GERBER_1
 72
         1
 11
53.0
 21
67.671724
 31
0.0
100
AcDbText
 73
         2
  0
TEXT
  5
4D
100
AcDbEntity
  8
ASSEMBLY_OUTLINES_TOP
100
AcDbText
 10
91.635
 20
18.298141
 30
0.0
 40
1.27
  1
82.5mm
 50
90.0
  7
VERIBEST_GERBER_1
 72
         1
 11
91.0
 21
21.750001
 31
0.0
100
AcDbText
 73
         2
  0
LWPOLYLINE
  5
4E
100
AcDbEntity
  8
ASSEMBLY_OUTLINES_TOP
100
AcDbPolyline
 90
        4
 70
         1
 10
21.67
 20
52.46
 10
21.67
 20
57.54
 10
27.67
 20
57.54
 10
27.67
 20
52.46
  0
LWPOLYLINE
  5
4F
100
AcDbEntity
  8
ASSEMBLY_OUTLINES_TOP
100
AcDbPolyline
 90
        4
 70
         1
 10
23.03
 20
49.63
 10
23.03
 20
52.17
 10
28.11
 20
52.17
 10
28.11
 20
49.63
  0
LWPOLYLINE
  5
50
100
AcDbEntity
  8
ASSEMBLY_OUTLINES_TOP
100
AcDbPolyline
 90
        4
 70
         1
 43
0.1
 10
23.45
 20
47.55
 10
23.45
 20
48.85
 10
26.35
 20
48.85
 10
26.35
 20
47.55
  0
LWPOLYLINE
  5
51
100
AcDbEntity
  8
ASSEMBLY_OUTLINES_TOP
100
AcDbPolyline
 90
        4
 70
         1
 43
0.1
 10
26.85
 20
47.45
 10
26.85
 20
48.75
 10
29.75
 20
48.75
 10
29.75
 20
47.45
  0
LWPOLYLINE
  5
52
100
AcDbEntity
  8
ASSEMBLY_OUTLINES_TOP
100
AcDbPolyline
 90
        4
 70
         1
 43
0.1
 10
23.3
 20
41.0
 10
23.3
 20
45.0
 10
28.3
 20
45.0
 10
28.3
 20
41.0
  0
LWPOLYLINE
  5
53
100
AcDbEntity
  8
ASSEMBLY_OUTLINES_TOP
100
AcDbPolyline
 90
        2
 70
         1
 43
0.1
 10
23.8
 20
42.0
 42
-1.0
 10
24.8
 20
42.0
 42
-1.0
  0
LWPOLYLINE
  5
54
100
AcDbEntity
  8
ASSEMBLY_OUTLINES_TOP
100
AcDbPolyline
 90
        4
 70
         1
 43
0.1
 10
24.5
 20
37.75
 10
24.5
 20
39.05
 10
27.3
 20
39.05
 10
27.3
 20
37.75
  0
LWPOLYLINE
  5
55
100
AcDbEntity
  8
ASSEMBLY_OUTLINES_TOP
100
AcDbPolyline
 90
        4
 70
         1
 43
0.1
 10
32.95
 20
-7.45
 10
32.95
 20
-6.15
 10
35.85
 20
-6.15
 10
35.85
 20
-7.45
  0
LWPOLYLINE
  5
56
100
AcDbEntity
  8
ASSEMBLY_OUTLINES_TOP
100
AcDbPolyline
 90
        4
 70
         1
 43
0.1
 10
80.15
 20
37.55
 10
80.15
 20
40.45
 10
81.45
 20
40.45
 10
81.45
 20
37.55
  0
LWPOLYLINE
  5
57
100
AcDbEntity
  8
ASSEMBLY_OUTLINES_TOP
100
AcDbPolyline
 90
        4
 70
         1
 43
0.1
 10
78.25
 20
37.55
 10
78.25
 20
40.45
 10
79.55
 20
40.45
 10
79.55
 20
37.55
  0
LWPOLYLINE
  5
58
100
AcDbEntity
  8
ASSEMBLY_OUTLINES_TOP
100
AcDbPolyline
 90
        4
 70
         1
 43
0.1
 10
76.35
 20
37.55
 10
76.35
 20
40.45
 10
77.65
 20
40.45
 10
77.65
 20
37.55
  0
LWPOLYLINE
  5
59
100
AcDbEntity
  8
ASSEMBLY_OUTLINES_TOP
100
AcDbPolyline
 90
        4
 70
         1
 43
0.1
 10
72.35
 20
37.55
 10
72.35
 20
40.45
 10
73.65
 20
40.45
 10
73.65
 20
37.55
  0
LWPOLYLINE
  5
5A
100
AcDbEntity
  8
ASSEMBLY_OUTLINES_TOP
100
AcDbPolyline
 90
        4
 70
         1
 43
0.1
 10
74.35
 20
37.55
 10
74.35
 20
40.45
 10
75.65
 20
40.45
 10
75.65
 20
37.55
  0
LWPOLYLINE
  5
5B
100
AcDbEntity
  8
ASSEMBLY_OUTLINES_TOP
100
AcDbPolyline
 90
        4
 70
         1
 10
23.15
 20
11.5
 10
23.15
 20
37.0
 10
28.15
 20
37.0
 10
28.15
 20
11.5
  0
LWPOLYLINE
  5
5C
100
AcDbEntity
  8
ASSEMBLY_OUTLINES_TOP
100
AcDbPolyline
 90
        4
 70
         1
 43
0.1
 10
68.65
 20
14.1
 10
68.65
 20
16.9
 10
69.95
 20
16.9
 10
69.95
 20
14.1
  0
LWPOLYLINE
  5
5D
100
AcDbEntity
  8
ASSEMBLY_OUTLINES_TOP
100
AcDbPolyline
 90
        4
 70
         1
 43
0.1
 10
32.05
 20
-0.85
 10
32.05
 20
2.05
 10
33.35
 20
2.05
 10
33.35
 20
-0.85
  0
LWPOLYLINE
  5
5E
100
AcDbEntity
  8
ASSEMBLY_OUTLINES_TOP
100
AcDbPolyline
 90
        4
 70
         1
 43
0.1
 10
60.45
 20
41.75
 10
60.45
 20
43.05
 10
63.35
 20
43.05
 10
63.35
 20
41.75
  0
LWPOLYLINE
  5
5F
100
AcDbEntity
  8
ASSEMBLY_OUTLINES_TOP
100
AcDbPolyline
 90
        4
 70
         1
 43
0.1
 10
60.75
 20
43.55
 10
60.75
 20
44.85
 10
63.65
 20
44.85
 10
63.65
 20
43.55
  0
LWPOLYLINE
  5
60
100
AcDbEntity
  8
ASSEMBLY_OUTLINES_TOP
100
AcDbPolyline
 90
        4
 70
         1
 43
0.1
 10
60.45
 20
40.25
 10
60.45
 20
41.55
 10
63.35
 20
41.55
 10
63.35
 20
40.25
  0
LWPOLYLINE
  5
61
100
AcDbEntity
  8
ASSEMBLY_OUTLINES_TOP
100
AcDbPolyline
 90
        4
 70
         1
 43
0.1
 10
60.85
 20
-5.25
 10
60.85
 20
-2.35
 10
62.15
 20
-2.35
 10
62.15
 20
-5.25
  0
LWPOLYLINE
  5
62
100
AcDbEntity
  8
ASSEMBLY_OUTLINES_TOP
100
AcDbPolyline
 90
        4
 70
         1
 43
0.1
 10
60.75
 20
3.85
 10
60.75
 20
6.75
 10
62.05
 20
6.75
 10
62.05
 20
3.85
  0
LWPOLYLINE
  5
63
100
AcDbEntity
  8
ASSEMBLY_OUTLINES_TOP
100
AcDbPolyline
 90
        4
 70
         1
 43
0.1
 10
68.55
 20
24.15
 10
68.55
 20
27.05
 10
69.85
 20
27.05
 10
69.85
 20
24.15
  0
LWPOLYLINE
  5
64
100
AcDbEntity
  8
ASSEMBLY_OUTLINES_TOP
100
AcDbPolyline
 90
        4
 70
         1
 43
0.1
 10
68.55
 20
28.15
 10
68.55
 20
31.05
 10
69.85
 20
31.05
 10
69.85
 20
28.15
  0
LWPOLYLINE
  5
65
100
AcDbEntity
  8
ASSEMBLY_OUTLINES_TOP
100
AcDbPolyline
 90
        4
 70
         1
 43
0.1
 10
68.55
 20
32.55
 10
68.55
 20
35.45
 10
69.85
 20
35.45
 10
69.85
 20
32.55
  0
LWPOLYLINE
  5
66
100
AcDbEntity
  8
ASSEMBLY_OUTLINES_TOP
100
AcDbPolyline
 90
        4
 70
         1
 43
0.1
 10
68.55
 20
36.05
 10
68.55
 20
38.95
 10
69.85
 20
38.95
 10
69.85
 20
36.05
  0
LWPOLYLINE
  5
67
100
AcDbEntity
  8
ASSEMBLY_OUTLINES_TOP
100
AcDbPolyline
 90
        4
 70
         1
 43
0.1
 10
68.65
 20
6.0
 10
68.65
 20
8.8
 10
69.95
 20
8.8
 10
69.95
 20
6.0
  0
LWPOLYLINE
  5
68
100
AcDbEntity
  8
ASSEMBLY_OUTLINES_TOP
100
AcDbPolyline
 90
        4
 70
         1
 43
0.1
 10
37.45
 20
4.3
 10
37.45
 20
6.1
 10
40.75
 20
6.1
 10
40.75
 20
4.3
  0
LWPOLYLINE
  5
69
100
AcDbEntity
  8
ASSEMBLY_OUTLINES_TOP
100
AcDbPolyline
 90
        4
 70
         1
 43
0.1
 10
35.85
 20
1.95
 10
35.85
 20
4.85
 10
37.15
 20
4.85
 10
37.15
 20
1.95
  0
LWPOLYLINE
  5
6A
100
AcDbEntity
  8
ASSEMBLY_OUTLINES_TOP
100
AcDbPolyline
 90
        4
 70
         1
 43
0.1
 10
39.4
 20
-1.6
 10
39.4
 20
2.4
 10
49.4
 20
2.4
 10
49.4
 20
-1.6
  0
LWPOLYLINE
  5
6B
100
AcDbEntity
  8
ASSEMBLY_OUTLINES_TOP
100
AcDbPolyline
 90
        2
 70
         1
 43
0.1
 10
39.9
 20
-0.6
 42
-1.0
 10
40.9
 20
-0.6
 42
-1.0
  0
LWPOLYLINE
  5
6C
100
AcDbEntity
  8
ASSEMBLY_OUTLINES_TOP
100
AcDbPolyline
 90
        4
 70
         1
 43
0.1
 10
37.45
 20
1.2
 10
37.45
 20
4.0
 10
38.75
 20
4.0
 10
38.75
 20
1.2
  0
LWPOLYLINE
  5
6D
100
AcDbEntity
  8
ASSEMBLY_OUTLINES_TOP
100
AcDbPolyline
 90
        4
 70
         1
 43
0.1
 10
37.45
 20
-2.3
 10
37.45
 20
0.5
 10
38.75
 20
0.5
 10
38.75
 20
-2.3
  0
LWPOLYLINE
  5
6E
100
AcDbEntity
  8
ASSEMBLY_OUTLINES_TOP
100
AcDbPolyline
 90
        4
 70
         1
 43
0.1
 10
41.4
 20
-4.75
 10
41.4
 20
-3.45
 10
44.2
 20
-3.45
 10
44.2
 20
-4.75
  0
LWPOLYLINE
  5
6F
100
AcDbEntity
  8
ASSEMBLY_OUTLINES_TOP
100
AcDbPolyline
 90
        4
 70
         1
 43
0.1
 10
44.7
 20
-4.75
 10
44.7
 20
-3.45
 10
47.5
 20
-3.45
 10
47.5
 20
-4.75
  0
LWPOLYLINE
  5
70
100
AcDbEntity
  8
ASSEMBLY_OUTLINES_TOP
100
AcDbPolyline
 90
        4
 70
         1
 43
0.1
 10
38.0
 20
-4.75
 10
38.0
 20
-3.45
 10
40.8
 20
-3.45
 10
40.8
 20
-4.75
  0
LWPOLYLINE
  5
71
100
AcDbEntity
  8
ASSEMBLY_OUTLINES_TOP
100
AcDbPolyline
 90
        4
 70
         1
 43
0.1
 10
43.9
 20
4.75
 10
43.9
 20
6.05
 10
46.7
 20
6.05
 10
46.7
 20
4.75
  0
LWPOLYLINE
  5
72
100
AcDbEntity
  8
ASSEMBLY_OUTLINES_TOP
100
AcDbPolyline
 90
        4
 70
         1
 43
0.1
 10
36.3
 20
-20.0
 10
36.3
 20
-6.0
 10
49.5
 20
-6.0
 10
49.5
 20
-20.0
  0
LWPOLYLINE
  5
73
100
AcDbEntity
  8
ASSEMBLY_OUTLINES_TOP
100
AcDbPolyline
 90
        4
 70
         1
 43
0.1
 10
34.65
 20
-2.05
 10
34.65
 20
0.85
 10
35.95
 20
0.85
 10
35.95
 20
-2.05
  0
LWPOLYLINE
  5
74
100
AcDbEntity
  8
ASSEMBLY_OUTLINES_TOP
100
AcDbPolyline
 90
        4
 70
         1
 43
0.1
 10
34.35
 20
-5.45
 10
34.35
 20
-2.35
 10
36.05
 20
-2.35
 10
36.05
 20
-5.45
  0
LWPOLYLINE
  5
75
100
AcDbEntity
  8
ASSEMBLY_OUTLINES_TOP
100
AcDbPolyline
 90
        2
 70
         0
 43
0.1
 10
36.05
 20
-5.35
 10
34.35
 20
-5.35
  0
LWPOLYLINE
  5
76
100
AcDbEntity
  8
ASSEMBLY_OUTLINES_TOP
100
AcDbPolyline
 90
        2
 70
         0
 43
0.1
 10
36.05
 20
-5.25
 10
34.35
 20
-5.25
  0
LWPOLYLINE
  5
77
100
AcDbEntity
  8
ASSEMBLY_OUTLINES_TOP
100
AcDbPolyline
 90
        2
 70
         0
 43
0.1
 10
36.05
 20
-5.15
 10
34.35
 20
-5.15
  0
LWPOLYLINE
  5
78
100
AcDbEntity
  8
ASSEMBLY_OUTLINES_TOP
100
AcDbPolyline
 90
        2
 70
         0
 43
0.1
 10
36.05
 20
-5.05
 10
34.35
 20
-5.05
  0
LWPOLYLINE
  5
79
100
AcDbEntity
  8
ASSEMBLY_OUTLINES_TOP
100
AcDbPolyline
 90
        2
 70
         0
 43
0.1
 10
36.05
 20
-4.95
 10
34.35
 20
-4.95
  0
LWPOLYLINE
  5
7A
100
AcDbEntity
  8
ASSEMBLY_OUTLINES_TOP
100
AcDbPolyline
 90
        2
 70
         0
 43
0.1
 10
36.05
 20
-4.85
 10
34.35
 20
-4.85
  0
LWPOLYLINE
  5
7B
100
AcDbEntity
  8
ASSEMBLY_OUTLINES_TOP
100
AcDbPolyline
 90
        4
 70
         1
 43
0.1
 10
50.95
 20
-5.75
 10
50.95
 20
-2.85
 10
52.25
 20
-2.85
 10
52.25
 20
-5.75
  0
LWPOLYLINE
  5
7C
100
AcDbEntity
  8
ASSEMBLY_OUTLINES_TOP
100
AcDbPolyline
 90
        4
 70
         1
 43
0.1
 10
54.449567
 20
3.96967
 10
52.469668
 20
5.949569
 10
51.550429
 20
5.03033
 10
53.530328
 20
3.050431
  0
LWPOLYLINE
  5
7D
100
AcDbEntity
  8
ASSEMBLY_OUTLINES_TOP
100
AcDbPolyline
 90
        4
 70
         1
 43
0.1
 10
80.65
 20
43.75
 10
80.65
 20
46.65
 10
81.95
 20
46.65
 10
81.95
 20
43.75
  0
LWPOLYLINE
  5
7E
100
AcDbEntity
  8
ASSEMBLY_OUTLINES_TOP
100
AcDbPolyline
 90
        4
 70
         1
 43
0.1
 10
73.5
 20
41.7
 10
73.5
 20
45.5
 10
79.1
 20
45.5
 10
79.1
 20
41.7
  0
LWPOLYLINE
  5
7F
100
AcDbEntity
  8
ASSEMBLY_OUTLINES_TOP
100
AcDbPolyline
 90
        2
 70
         0
 43
0.1
 10
73.6
 20
41.7
 10
73.6
 20
45.5
  0
LWPOLYLINE
  5
80
100
AcDbEntity
  8
ASSEMBLY_OUTLINES_TOP
100
AcDbPolyline
 90
        2
 70
         0
 43
0.1
 10
73.7
 20
41.7
 10
73.7
 20
45.5
  0
LWPOLYLINE
  5
81
100
AcDbEntity
  8
ASSEMBLY_OUTLINES_TOP
100
AcDbPolyline
 90
        2
 70
         0
 43
0.1
 10
73.8
 20
41.7
 10
73.8
 20
45.5
  0
LWPOLYLINE
  5
82
100
AcDbEntity
  8
ASSEMBLY_OUTLINES_TOP
100
AcDbPolyline
 90
        2
 70
         0
 43
0.1
 10
73.9
 20
41.7
 10
73.9
 20
45.5
  0
LWPOLYLINE
  5
83
100
AcDbEntity
  8
ASSEMBLY_OUTLINES_TOP
100
AcDbPolyline
 90
        2
 70
         0
 43
0.1
 10
74.0
 20
41.7
 10
74.0
 20
45.5
  0
LWPOLYLINE
  5
84
100
AcDbEntity
  8
ASSEMBLY_OUTLINES_TOP
100
AcDbPolyline
 90
        2
 70
         0
 43
0.1
 10
74.1
 20
41.7
 10
74.1
 20
45.5
  0
LWPOLYLINE
  5
85
100
AcDbEntity
  8
ASSEMBLY_OUTLINES_TOP
100
AcDbPolyline
 90
        2
 70
         0
 43
0.1
 10
74.2
 20
41.7
 10
74.2
 20
45.5
  0
LWPOLYLINE
  5
86
100
AcDbEntity
  8
ASSEMBLY_OUTLINES_TOP
100
AcDbPolyline
 90
        2
 70
         0
 43
0.1
 10
74.3
 20
41.7
 10
74.3
 20
45.5
  0
LWPOLYLINE
  5
87
100
AcDbEntity
  8
ASSEMBLY_OUTLINES_TOP
100
AcDbPolyline
 90
        4
 70
         1
 10
82.91
 20
13.65
 10
82.91
 20
29.65
 10
88.81
 20
29.65
 10
88.81
 20
13.65
  0
LWPOLYLINE
  5
88
100
AcDbEntity
  8
ASSEMBLY_OUTLINES_TOP
100
AcDbPolyline
 90
        4
 70
         1
 10
70.51
 20
6.25
 10
70.51
 20
37.05
 10
82.91
 20
37.05
 10
82.91
 20
6.25
  0
LWPOLYLINE
  5
89
100
AcDbEntity
  8
ASSEMBLY_OUTLINES_TOP
100
AcDbPolyline
 90
        4
 70
         1
 43
0.1
 10
68.65
 20
10.15
 10
68.65
 20
13.05
 10
69.95
 20
13.05
 10
69.95
 20
10.15
  0
LWPOLYLINE
  5
8A
100
AcDbEntity
  8
ASSEMBLY_OUTLINES_TOP
100
AcDbPolyline
 90
        4
 70
         1
 43
0.1
 10
68.65
 20
19.85
 10
68.65
 20
22.75
 10
69.95
 20
22.75
 10
69.95
 20
19.85
  0
LWPOLYLINE
  5
8B
100
AcDbEntity
  8
ASSEMBLY_OUTLINES_TOP
100
AcDbPolyline
 90
        4
 70
         1
 10
59.42
 20
7.07
 10
59.42
 20
40.07
 10
68.12
 20
40.07
 10
68.12
 20
7.07
  0
LWPOLYLINE
  5
8C
100
AcDbEntity
  8
ASSEMBLY_OUTLINES_TOP
100
AcDbPolyline
 90
        4
 70
         1
 10
59.42
 20
20.5
 10
59.42
 20
27.0
 10
60.0
 20
27.0
 10
60.0
 20
20.5
  0
LWPOLYLINE
  5
8D
100
AcDbEntity
  8
ASSEMBLY_OUTLINES_TOP
100
AcDbPolyline
 90
        4
 70
         1
 43
0.1
 10
31.35
 20
-10.35
 10
31.35
 20
-9.05
 10
34.25
 20
-9.05
 10
34.25
 20
-10.35
  0
LWPOLYLINE
  5
8E
100
AcDbEntity
  8
ASSEMBLY_OUTLINES_TOP
100
AcDbPolyline
 90
        4
 70
         1
 43
0.1
 10
54.25
 20
-3.15
 10
54.25
 20
-1.85
 10
57.15
 20
-1.85
 10
57.15
 20
-3.15
  0
LWPOLYLINE
  5
8F
100
AcDbEntity
  8
ASSEMBLY_OUTLINES_TOP
100
AcDbPolyline
 90
        4
 70
         1
 43
0.1
 10
54.3
 20
-5.35
 10
54.3
 20
-4.05
 10
57.1
 20
-4.05
 10
57.1
 20
-5.35
  0
LWPOLYLINE
  5
90
100
AcDbEntity
  8
ASSEMBLY_OUTLINES_TOP
100
AcDbPolyline
 90
        4
 70
         1
 10
65.3
 20
-20.0
 10
65.3
 20
5.4
 10
81.3
 20
5.4
 10
81.3
 20
-20.0
  0
LWPOLYLINE
  5
91
100
AcDbEntity
  8
ASSEMBLY_OUTLINES_TOP
100
AcDbPolyline
 90
        4
 70
         1
 10
51.1
 20
-20.0
 10
51.1
 20
-7.9
 10
64.5
 20
-7.9
 10
64.5
 20
-20.0
  0
LWPOLYLINE
  5
92
100
AcDbEntity
  8
ASSEMBLY_OUTLINES_TOP
100
AcDbPolyline
 90
        4
 70
         1
 10
51.8
 20
-27.0
 10
51.8
 20
-20.0
 10
62.8
 20
-20.0
 10
62.8
 20
-27.0
  0
LWPOLYLINE
  5
93
100
AcDbEntity
  8
ASSEMBLY_OUTLINES_TOP
100
AcDbPolyline
 90
        4
 70
         1
 10
58.15
 20
-1.6
 10
58.15
 20
3.4
 10
64.45
 20
3.4
 10
64.45
 20
-1.6
  0
LWPOLYLINE
  5
94
100
AcDbEntity
  8
ASSEMBLY_OUTLINES_TOP
100
AcDbPolyline
 90
        4
 70
         1
 43
0.1
 10
73.9
 20
48.5
 10
73.9
 20
63.0
 10
82.9
 20
63.0
 10
82.9
 20
48.5
  0
LWPOLYLINE
  5
95
100
AcDbEntity
  8
ASSEMBLY_OUTLINES_TOP
100
AcDbPolyline
 90
        4
 70
         1
 10
23.63
 20
-10.47
 10
23.63
 20
-7.93
 10
28.71
 20
-7.93
 10
28.71
 20
-10.47
  0
LWPOLYLINE
  5
96
100
AcDbEntity
  8
ASSEMBLY_OUTLINES_TOP
100
AcDbPolyline
 90
        4
 70
         1
 10
18.15
 20
-6.15
 10
18.15
 20
2.25
 10
25.15
 20
2.25
 10
25.15
 20
-6.15
  0
LWPOLYLINE
  5
97
100
AcDbEntity
  8
ASSEMBLY_OUTLINES_TOP
100
AcDbPolyline
 90
        4
 70
         1
 10
25.15
 20
-7.75
 10
25.15
 20
3.75
 10
31.65
 20
3.75
 10
31.65
 20
-7.75
  0
LWPOLYLINE
  5
98
100
AcDbEntity
  8
ASSEMBLY_OUTLINES_TOP
100
AcDbPolyline
 90
        4
 70
         1
 43
0.1
 10
24.0
 20
5.0
 10
24.0
 20
10.6
 10
27.8
 20
10.6
 10
27.8
 20
5.0
  0
LWPOLYLINE
  5
99
100
AcDbEntity
  8
ASSEMBLY_OUTLINES_TOP
100
AcDbPolyline
 90
        2
 70
         0
 43
0.1
 10
24.0
 20
10.5
 10
27.8
 20
10.5
  0
LWPOLYLINE
  5
9A
100
AcDbEntity
  8
ASSEMBLY_OUTLINES_TOP
100
AcDbPolyline
 90
        2
 70
         0
 43
0.1
 10
24.0
 20
10.4
 10
27.8
 20
10.4
  0
LWPOLYLINE
  5
9B
100
AcDbEntity
  8
ASSEMBLY_OUTLINES_TOP
100
AcDbPolyline
 90
        2
 70
         0
 43
0.1
 10
24.0
 20
10.3
 10
27.8
 20
10.3
  0
LWPOLYLINE
  5
9C
100
AcDbEntity
  8
ASSEMBLY_OUTLINES_TOP
100
AcDbPolyline
 90
        2
 70
         0
 43
0.1
 10
24.0
 20
10.2
 10
27.8
 20
10.2
  0
LWPOLYLINE
  5
9D
100
AcDbEntity
  8
ASSEMBLY_OUTLINES_TOP
100
AcDbPolyline
 90
        2
 70
         0
 43
0.1
 10
24.0
 20
10.1
 10
27.8
 20
10.1
  0
LWPOLYLINE
  5
9E
100
AcDbEntity
  8
ASSEMBLY_OUTLINES_TOP
100
AcDbPolyline
 90
        2
 70
         0
 43
0.1
 10
24.0
 20
10.0
 10
27.8
 20
10.0
  0
LWPOLYLINE
  5
9F
100
AcDbEntity
  8
ASSEMBLY_OUTLINES_TOP
100
AcDbPolyline
 90
        2
 70
         0
 43
0.1
 10
24.0
 20
9.9
 10
27.8
 20
9.9
  0
LWPOLYLINE
  5
A0
100
AcDbEntity
  8
ASSEMBLY_OUTLINES_TOP
100
AcDbPolyline
 90
        2
 70
         0
 43
0.1
 10
24.0
 20
9.8
 10
27.8
 20
9.8
  0
LWPOLYLINE
  5
A1
100
AcDbEntity
  8
ASSEMBLY_OUTLINES_TOP
100
AcDbPolyline
 90
        8
 70
         0
 10
61.0
 20
47.2
 42
-2.549150321
 10
71.2
 20
47.2
 10
73.1
 20
47.2
 10
73.1
 20
45.2
 10
59.1
 20
45.2
 10
59.1
 20
47.2
 10
61.0
 20
47.2
 10
60.9
 20
47.2
  0
LWPOLYLINE
  5
A2
100
AcDbEntity
  8
ASSEMBLY_OUTLINES_TOP
100
AcDbPolyline
 90
        4
 70
         1
 43
0.1
 10
28.45
 20
6.45
 10
28.45
 20
15.95
 10
58.45
 20
15.95
 10
58.45
 20
6.45
  0
LWPOLYLINE
  5
A3
100
AcDbEntity
  8
ASSEMBLY_OUTLINES_TOP
100
AcDbPolyline
 90
        4
 70
         1
 43
0.1
 10
28.45
 20
11.5
 10
28.45
 20
62.5
 10
58.45
 20
62.5
 10
58.45
 20
11.5
  0
CIRCLE
  5
A4
100
AcDbEntity
  8
ASSEMBLY_OUTLINES_TOP
100
AcDbCircle
 10
31.35
 20
59.55
 30
0.0
 40
1.5
  0
HATCH
  5
A5
100
AcDbEntity
  8
ASSEMBLY_OUTLINES_TOP
100
AcDbHatch
 10
0.0
 20
0.0
 30
0.0
210
0.0
220
0.0
230
1.0
  2
SOLID
 70
         1
 71
         1
 91
        1
 92
        1
 93
        1
 72
         2
 10
31.350000000000001
 20
59.549999999999997
 40
1.5
 50
0.0
 51
360.0
 73
         1
 97
        1
330
A4
 75
         0
 76
         1
 98
        1
 10
0.0
 20
0.0
  0
CIRCLE
  5
A6
100
AcDbEntity
  8
ASSEMBLY_OUTLINES_TOP
100
AcDbCircle
 10
55.55
 20
59.55
 30
0.0
 40
1.5
  0
HATCH
  5
A7
100
AcDbEntity
  8
ASSEMBLY_OUTLINES_TOP
100
AcDbHatch
 10
0.0
 20
0.0
 30
0.0
210
0.0
220
0.0
230
1.0
  2
SOLID
 70
         1
 71
         1
 91
        1
 92
        1
 93
        1
 72
         2
 10
55.549999999999997
 20
59.549999999999997
 40
1.5
 50
0.0
 51
360.0
 73
         1
 97
        1
330
A6
 75
         0
 76
         1
 98
        1
 10
0.0
 20
0.0
  0
CIRCLE
  5
A8
100
AcDbEntity
  8
ASSEMBLY_OUTLINES_TOP
100
AcDbCircle
 10
31.35
 20
35.4
 30
0.0
 40
1.5
  0
HATCH
  5
A9
100
AcDbEntity
  8
ASSEMBLY_OUTLINES_TOP
100
AcDbHatch
 10
0.0
 20
0.0
 30
0.0
210
0.0
220
0.0
230
1.0
  2
SOLID
 70
         1
 71
         1
 91
        1
 92
        1
 93
        1
 72
         2
 10
31.350000000000001
 20
35.399999999999999
 40
1.5
 50
0.0
 51
360.0
 73
         1
 97
        1
330
A8
 75
         0
 76
         1
 98
        1
 10
0.0
 20
0.0
  0
CIRCLE
  5
AA
100
AcDbEntity
  8
ASSEMBLY_OUTLINES_TOP
100
AcDbCircle
 10
55.55
 20
35.4
 30
0.0
 40
1.5
  0
HATCH
  5
AB
100
AcDbEntity
  8
ASSEMBLY_OUTLINES_TOP
100
AcDbHatch
 10
0.0
 20
0.0
 30
0.0
210
0.0
220
0.0
230
1.0
  2
SOLID
 70
         1
 71
         1
 91
        1
 92
        1
 93
        1
 72
         2
 10
55.549999999999997
 20
35.399999999999999
 40
1.5
 50
0.0
 51
360.0
 73
         1
 97
        1
330
AA
 75
         0
 76
         1
 98
        1
 10
0.0
 20
0.0
  0
LWPOLYLINE
  5
AC
100
AcDbEntity
  8
ASSEMBLY_OUTLINES_TOP
100
AcDbPolyline
 90
        8
 70
         1
 10
25.15
 20
-19.95
 10
25.15
 20
-18.95
 10
23.55
 20
-18.95
 10
23.55
 20
-10.95
 10
34.45
 20
-10.95
 10
34.45
 20
-18.95
 10
32.9
 20
-18.95
 10
32.9
 20
-19.95
  0
TEXT
  5
AE
100
AcDbEntity
  8
ASSEMBLY_REF_DES_TOP
100
AcDbText
 10
23.994725
 20
54.468275
 30
0.0
 40
1.0
  1
X1
  7
GOST_TYPE_B
 72
         1
 11
24.678225
 21
54.961775
 31
0.0
100
AcDbText
 73
         2
  0
TEXT
  5
AF
100
AcDbEntity
  8
ASSEMBLY_REF_DES_TOP
100
AcDbText
 10
25.013
 20
50.3565
 30
0.0
 40
1.0
  1
J1
  7
GOST_TYPE_B
 72
         1
 11
25.55
 21
50.85
 31
0.0
100
AcDbText
 73
         2
  0
TEXT
  5
B0
100
AcDbEntity
  8
ASSEMBLY_REF_DES_TOP
100
AcDbText
 10
24.50585
 20
47.90455
 30
0.0
 40
0.7
  1
R1
  7
GOST_TYPE_B
 72
         1
 11
24.95
 21
48.25
 31
0.0
100
AcDbText
 73
         2
  0
TEXT
  5
B1
100
AcDbEntity
  8
ASSEMBLY_REF_DES_TOP
100
AcDbText
 10
27.83725
 20
47.80455
 30
0.0
 40
0.7
  1
R2
  7
GOST_TYPE_B
 72
         1
 11
28.35
 21
48.15
 31
0.0
100
AcDbText
 73
         2
  0
TEXT
  5
B2
100
AcDbEntity
  8
ASSEMBLY_REF_DES_TOP
100
AcDbText
 10
25.418825
 20
42.163675
 30
0.0
 40
1.0
  1
DA1
  7
GOST_TYPE_B
 72
         1
 11
26.492825
 21
42.657175
 31
0.0
100
AcDbText
 73
         2
  0
TEXT
  5
B3
100
AcDbEntity
  8
ASSEMBLY_REF_DES_TOP
100
AcDbText
 10
25.4898
 20
38.05455
 30
0.0
 40
0.7
  1
C1
  7
GOST_TYPE_B
 72
         1
 11
25.9
 21
38.4
 31
0.0
100
AcDbText
 73
         2
  0
TEXT
  5
B4
100
AcDbEntity
  8
ASSEMBLY_REF_DES_TOP
100
AcDbText
 10
33.69785
 20
-7.09545
 30
0.0
 40
0.7
  1
R25
  7
GOST_TYPE_B
 72
         1
 11
34.45
 21
-6.75
 31
0.0
100
AcDbText
 73
         2
  0
TEXT
  5
B5
100
AcDbEntity
  8
ASSEMBLY_REF_DES_TOP
100
AcDbText
 10
80.50455
 20
39.5653
 30
0.0
 40
0.7
  1
R11
 50
270.0
  7
GOST_TYPE_B
 72
         1
 11
80.85
 21
38.95
 31
0.0
100
AcDbText
 73
         2
  0
TEXT
  5
B6
100
AcDbEntity
  8
ASSEMBLY_REF_DES_TOP
100
AcDbText
 10
78.50455
 20
39.7339
 30
0.0
 40
0.7
  1
R10
 50
270.0
  7
GOST_TYPE_B
 72
         1
 11
78.85
 21
39.05
 31
0.0
100
AcDbText
 73
         2
  0
TEXT
  5
B7
100
AcDbEntity
  8
ASSEMBLY_REF_DES_TOP
100
AcDbText
 10
76.60455
 20
39.5631
 30
0.0
 40
0.7
  1
R9
 50
270.0
  7
GOST_TYPE_B
 72
         1
 11
76.95
 21
39.05
 31
0.0
100
AcDbText
 73
         2
  0
TEXT
  5
B8
100
AcDbEntity
  8
ASSEMBLY_REF_DES_TOP
100
AcDbText
 10
72.60455
 20
39.5631
 30
0.0
 40
0.7
  1
R7
 50
270.0
  7
GOST_TYPE_B
 72
         1
 11
72.95
 21
39.05
 31
0.0
100
AcDbText
 73
         2
  0
TEXT
  5
B9
100
AcDbEntity
  8
ASSEMBLY_REF_DES_TOP
100
AcDbText
 10
74.70455
 20
39.4974
 30
0.0
 40
0.7
  1
R8
 50
270.0
  7
GOST_TYPE_B
 72
         1
 11
75.05
 21
38.95
 31
0.0
100
AcDbText
 73
         2
  0
TEXT
  5
BB
100
AcDbEntity
  8
ASSEMBLY_REF_DES_TOP
100
AcDbText
 10
24.474781
 20
23.99022
 30
0.0
 40
1.0
  1
X3
  7
VERIBEST_GERBER_0
 72
         1
 11
25.419781
 21
24.49022
 31
0.0
100
AcDbText
 73
         2
  0
TEXT
  5
BC
100
AcDbEntity
  8
ASSEMBLY_REF_DES_TOP
100
AcDbText
 10
68.95455
 20
15.9788
 30
0.0
 40
0.7
  1
C2
 50
270.0
  7
GOST_TYPE_B
 72
         1
 11
69.3
 21
15.5
 31
0.0
100
AcDbText
 73
         2
  0
TEXT
  5
BD
100
AcDbEntity
  8
ASSEMBLY_REF_DES_TOP
100
AcDbText
 10
32.40455
 20
1.3025
 30
0.0
 40
0.7
  1
R20
 50
270.0
  7
GOST_TYPE_B
 72
         1
 11
32.75
 21
0.55
 31
0.0
100
AcDbText
 73
         2
  0
TEXT
  5
BE
100
AcDbEntity
  8
ASSEMBLY_REF_DES_TOP
100
AcDbText
 10
61.43725
 20
42.10455
 30
0.0
 40
0.7
  1
R5
  7
GOST_TYPE_B
 72
         1
 11
61.95
 21
42.45
 31
0.0
100
AcDbText
 73
         2
  0
TEXT
  5
BF
100
AcDbEntity
  8
ASSEMBLY_REF_DES_TOP
100
AcDbText
 10
61.7033
 20
43.90455
 30
0.0
 40
0.7
  1
R4
  7
GOST_TYPE_B
 72
         1
 11
62.25
 21
44.25
 31
0.0
100
AcDbText
 73
         2
  0
TEXT
  5
C0
100
AcDbEntity
  8
ASSEMBLY_REF_DES_TOP
100
AcDbText
 10
61.43725
 20
40.60455
 30
0.0
 40
0.7
  1
R6
  7
GOST_TYPE_B
 72
         1
 11
61.95
 21
40.95
 31
0.0
100
AcDbText
 73
         2
  0
TEXT
  5
C1
100
AcDbEntity
  8
ASSEMBLY_REF_DES_TOP
100
AcDbText
 10
61.20455
 20
-3.0632
 30
0.0
 40
0.7
  1
R24
 50
270.0
  7
GOST_TYPE_B
 72
         1
 11
61.55
 21
-3.85
 31
0.0
100
AcDbText
 73
         2
  0
TEXT
  5
C2
100
AcDbEntity
  8
ASSEMBLY_REF_DES_TOP
100
AcDbText
 10
61.10455
 20
5.9682
 30
0.0
 40
0.7
  1
R18
 50
270.0
  7
GOST_TYPE_B
 72
         1
 11
61.45
 21
5.25
 31
0.0
100
AcDbText
 73
         2
  0
TEXT
  5
C3
100
AcDbEntity
  8
ASSEMBLY_REF_DES_TOP
100
AcDbText
 10
68.80455
 20
26.3339
 30
0.0
 40
0.7
  1
R15
 50
270.0
  7
GOST_TYPE_B
 72
         1
 11
69.15
 21
25.65
 31
0.0
100
AcDbText
 73
         2
  0
TEXT
  5
C4
100
AcDbEntity
  8
ASSEMBLY_REF_DES_TOP
100
AcDbText
 10
68.80455
 20
30.3682
 30
0.0
 40
0.7
  1
R14
 50
270.0
  7
GOST_TYPE_B
 72
         1
 11
69.15
 21
29.65
 31
0.0
100
AcDbText
 73
         2
  0
TEXT
  5
C5
100
AcDbEntity
  8
ASSEMBLY_REF_DES_TOP
100
AcDbText
 10
68.80455
 20
34.7339
 30
0.0
 40
0.7
  1
R13
 50
270.0
  7
GOST_TYPE_B
 72
         1
 11
69.15
 21
34.05
 31
0.0
100
AcDbText
 73
         2
  0
TEXT
  5
C6
100
AcDbEntity
  8
ASSEMBLY_REF_DES_TOP
100
AcDbText
 10
68.80455
 20
38.2339
 30
0.0
 40
0.7
  1
R12
 50
270.0
  7
GOST_TYPE_B
 72
         1
 11
69.15
 21
37.55
 31
0.0
100
AcDbText
 73
         2
  0
TEXT
  5
C7
100
AcDbEntity
  8
ASSEMBLY_REF_DES_TOP
100
AcDbText
 10
68.8065
 20
8.084
 30
0.0
 40
1.0
  1
C3
 50
270.0
  7
GOST_TYPE_B
 72
         1
 11
69.3
 21
7.4
 31
0.0
100
AcDbText
 73
         2
  0
TEXT
  5
C8
100
AcDbEntity
  8
ASSEMBLY_REF_DES_TOP
100
AcDbText
 10
38.73375
 20
4.95325
 30
0.0
 40
0.5
  1
C4
  7
GOST_TYPE_B
 72
         1
 11
39.1
 21
5.2
 31
0.0
100
AcDbText
 73
         2
  0
TEXT
  5
C9
100
AcDbEntity
  8
ASSEMBLY_REF_DES_TOP
100
AcDbText
 10
36.20455
 20
4.0339
 30
0.0
 40
0.7
  1
R19
 50
270.0
  7
GOST_TYPE_B
 72
         1
 11
36.55
 21
3.35
 31
0.0
100
AcDbText
 73
         2
  0
TEXT
  5
CA
100
AcDbEntity
  8
ASSEMBLY_REF_DES_TOP
100
AcDbText
 10
43.228
 20
-0.0935
 30
0.0
 40
1.0
  1
DA2
  7
GOST_TYPE_B
 72
         1
 11
44.4
 21
0.4
 31
0.0
100
AcDbText
 73
         2
  0
TEXT
  5
CB
100
AcDbEntity
  8
ASSEMBLY_REF_DES_TOP
100
AcDbText
 10
37.664725
 20
3.225775
 30
0.0
 40
1.0
  1
C6
 50
270.0
  7
GOST_TYPE_B
 72
         1
 11
38.158225
 21
2.541775
 31
0.0
100
AcDbText
 73
         2
  0
TEXT
  5
CC
100
AcDbEntity
  8
ASSEMBLY_REF_DES_TOP
100
AcDbText
 10
37.548275
 20
-0.108775
 30
0.0
 40
1.0
  1
C8
 50
270.0
  7
GOST_TYPE_B
 72
         1
 11
38.041775
 21
-0.841775
 31
0.0
100
AcDbText
 73
         2
  0
TEXT
  5
CD
100
AcDbEntity
  8
ASSEMBLY_REF_DES_TOP
100
AcDbText
 10
41.872
 20
-4.5935
 30
0.0
 40
1.0
  1
C10
  7
GOST_TYPE_B
 72
         1
 11
42.8
 21
-4.1
 31
0.0
100
AcDbText
 73
         2
  0
TEXT
  5
CE
100
AcDbEntity
  8
ASSEMBLY_REF_DES_TOP
100
AcDbText
 10
45.27
 20
-4.5935
 30
0.0
 40
1.0
  1
C11
  7
GOST_TYPE_B
 72
         1
 11
46.1
 21
-4.1
 31
0.0
100
AcDbText
 73
         2
  0
TEXT
  5
CF
100
AcDbEntity
  8
ASSEMBLY_REF_DES_TOP
100
AcDbText
 10
38.716
 20
-4.5935
 30
0.0
 40
1.0
  1
C9
  7
GOST_TYPE_B
 72
         1
 11
39.4
 21
-4.1
 31
0.0
100
AcDbText
 73
         2
  0
TEXT
  5
D0
100
AcDbEntity
  8
ASSEMBLY_REF_DES_TOP
100
AcDbText
 10
44.8212
 20
5.05455
 30
0.0
 40
0.7
  1
C5
  7
GOST_TYPE_B
 72
         1
 11
45.3
 21
5.4
 31
0.0
100
AcDbText
 73
         2
  0
TEXT
  5
D1
100
AcDbEntity
  8
ASSEMBLY_REF_DES_TOP
100
AcDbText
 10
42.29
 20
-13.6
 30
0.0
 40
1.0
  1
X8
  7
GOST_TYPE_B
 72
         2
 11
43.95
 21
-13.6
 31
0.0
100
AcDbText
 73
         1
  0
TEXT
  5
D2
100
AcDbEntity
  8
ASSEMBLY_REF_DES_TOP
100
AcDbText
 10
35.00455
 20
0.0339
 30
0.0
 40
0.7
  1
R21
 50
270.0
  7
GOST_TYPE_B
 72
         1
 11
35.35
 21
-0.65
 31
0.0
100
AcDbText
 73
         2
  0
TEXT
  5
D3
100
AcDbEntity
  8
ASSEMBLY_REF_DES_TOP
100
AcDbText
 10
31.9235
 20
-4.2935
 30
0.0
 40
1.0
  1
HL1
  7
GOST_TYPE_B
 72
         1
 11
32.9
 21
-3.8
 31
0.0
100
AcDbText
 73
         2
  0
TEXT
  5
D4
100
AcDbEntity
  8
ASSEMBLY_REF_DES_TOP
100
AcDbText
 10
51.20455
 20
-3.4975
 30
0.0
 40
0.7
  1
R23
 50
270.0
  7
GOST_TYPE_B
 72
         1
 11
51.55
 21
-4.25
 31
0.0
100
AcDbText
 73
         2
  0
TEXT
  5
D5
100
AcDbEntity
  8
ASSEMBLY_REF_DES_TOP
100
AcDbText
 10
52.417165
 20
4.594292
 30
0.0
 40
0.7
  1
C7
 50
315.0
  7
GOST_TYPE_B
 72
         1
 11
52.999998
 21
4.5
 31
0.0
100
AcDbText
 73
         2
  0
TEXT
  5
D6
100
AcDbEntity
  8
ASSEMBLY_REF_DES_TOP
100
AcDbText
 10
80.5675
 20
44.7065
 30
0.0
 40
1.0
  1
R3
  7
GOST_TYPE_B
 72
         1
 11
81.3
 21
45.2
 31
0.0
100
AcDbText
 73
         2
  0
TEXT
  5
D7
100
AcDbEntity
  8
ASSEMBLY_REF_DES_TOP
100
AcDbText
 10
75.284225
 20
43.048275
 30
0.0
 40
1.0
  1
VD1
  7
GOST_TYPE_B
 72
         1
 11
76.358225
 21
43.541775
 31
0.0
100
AcDbText
 73
         2
  0
TEXT
  5
D8
100
AcDbEntity
  8
ASSEMBLY_REF_DES_TOP
100
AcDbText
 10
78.482425
 20
21.217575
 30
0.0
 40
1.0
  1
X5
  7
VERIBEST_GERBER_0
 72
         2
 11
80.372425
 21
21.217575
 31
0.0
100
AcDbText
 73
         1
  0
TEXT
  5
D9
100
AcDbEntity
  8
ASSEMBLY_REF_DES_TOP
100
AcDbText
 10
68.90455
 20
12.3339
 30
0.0
 40
0.7
  1
R17
 50
270.0
  7
GOST_TYPE_B
 72
         1
 11
69.25
 21
11.65
 31
0.0
100
AcDbText
 73
         2
  0
TEXT
  5
DA
100
AcDbEntity
  8
ASSEMBLY_REF_DES_TOP
100
AcDbText
 10
68.90455
 20
22.0339
 30
0.0
 40
0.7
  1
R16
 50
270.0
  7
GOST_TYPE_B
 72
         1
 11
69.25
 21
21.35
 31
0.0
100
AcDbText
 73
         2
  0
TEXT
  5
DB
100
AcDbEntity
  8
ASSEMBLY_REF_DES_TOP
100
AcDbText
 10
62.722425
 20
22.827575
 30
0.0
 40
1.0
  1
X4
  7
VERIBEST_GERBER_0
 72
         2
 11
64.612425
 21
22.827575
 31
0.0
100
AcDbText
 73
         1
  0
TEXT
  5
DC
100
AcDbEntity
  8
ASSEMBLY_REF_DES_TOP
100
AcDbText
 10
32.09785
 20
-9.99545
 30
0.0
 40
0.7
  1
R26
  7
GOST_TYPE_B
 72
         1
 11
32.85
 21
-9.65
 31
0.0
100
AcDbText
 73
         2
  0
TEXT
  5
DD
100
AcDbEntity
  8
ASSEMBLY_REF_DES_TOP
100
AcDbText
 10
54.89785
 20
-2.89545
 30
0.0
 40
0.7
  1
R22
  7
GOST_TYPE_B
 72
         1
 11
55.65
 21
-2.55
 31
0.0
100
AcDbText
 73
         2
  0
TEXT
  5
DE
100
AcDbEntity
  8
ASSEMBLY_REF_DES_TOP
100
AcDbText
 10
55.0504
 20
-5.04545
 30
0.0
 40
0.7
  1
C12
  7
GOST_TYPE_B
 72
         1
 11
55.7
 21
-4.7
 31
0.0
100
AcDbText
 73
         2
  0
TEXT
  5
DF
100
AcDbEntity
  8
ASSEMBLY_REF_DES_TOP
100
AcDbText
 10
72.573725
 20
-8.001725
 30
0.0
 40
1.0
  1
T1
  7
GOST_TYPE_B
 72
         1
 11
73.208225
 21
-7.508225
 31
0.0
100
AcDbText
 73
         2
  0
TEXT
  5
E0
100
AcDbEntity
  8
ASSEMBLY_REF_DES_TOP
100
AcDbText
 10
57.0185
 20
-13.2435
 30
0.0
 40
1.0
  1
X9
  7
GOST_TYPE_B
 72
         1
 11
57.8
 21
-12.75
 31
0.0
100
AcDbText
 73
         2
  0
TEXT
  5
E1
100
AcDbEntity
  8
ASSEMBLY_REF_DES_TOP
100
AcDbText
 10
60.056
 20
0.6
 30
0.0
 40
1.0
  1
SW1
  7
GOST_TYPE_B
 72
         2
 11
62.4
 21
0.6
 31
0.0
100
AcDbText
 73
         1
  0
TEXT
  5
E2
100
AcDbEntity
  8
ASSEMBLY_REF_DES_TOP
100
AcDbText
 10
77.820225
 20
60.329775
 30
0.0
 40
1.0
  1
X2
  7
GOST_TYPE_B
 72
         2
 11
79.383225
 21
60.329775
 31
0.0
100
AcDbText
 73
         1
  0
TEXT
  5
E3
100
AcDbEntity
  8
ASSEMBLY_REF_DES_TOP
100
AcDbText
 10
28.916725
 20
-9.716725
 30
0.0
 40
1.0
  1
J2
  7
GOST_TYPE_B
 72
         2
 11
30.186725
 21
-9.716725
 31
0.0
100
AcDbText
 73
         1
  0
TEXT
  5
E4
100
AcDbEntity
  8
ASSEMBLY_REF_DES_TOP
100
AcDbText
 10
25.637
 20
2.0
 30
0.0
 40
1.0
  1
X7
  7
GOST_TYPE_B
 72
         2
 11
27.2
 21
2.0
 31
0.0
100
AcDbText
 73
         1
  0
TEXT
  5
E5
100
AcDbEntity
  8
ASSEMBLY_REF_DES_TOP
100
AcDbText
 10
24.786225
 20
7.248275
 30
0.0
 40
1.0
  1
VD2
  7
GOST_TYPE_B
 72
         1
 11
25.958225
 21
7.741775
 31
0.0
100
AcDbText
 73
         2
  0
TEXT
  5
E6
100
AcDbEntity
  8
ASSEMBLY_REF_DES_TOP
100
AcDbText
 10
64.8305
 20
52.2065
 30
0.0
 40
1.0
  1
Bat1
  7
GOST_TYPE_B
 72
         1
 11
66.1
 21
52.7
 31
0.0
100
AcDbText
 73
         2
  0
TEXT
  5
E7
100
AcDbEntity
  8
ASSEMBLY_REF_DES_TOP
100
AcDbText
 10
42.7185
 20
9.5565
 30
0.0
 40
1.0
  1
X6
  7
GOST_TYPE_B
 72
         1
 11
43.5
 21
10.05
 31
0.0
100
AcDbText
 73
         2
  0
TEXT
  5
E9
100
AcDbEntity
  8
ASSEMBLY_REF_DES_TOP
100
AcDbText
 10
28.075672
 20
-16.035472
 30
0.0
 40
0.7
  1
X10
  7
GOST_D
 72
         1
 11
28.793522
 21
-15.693522
 31
0.0
100
AcDbText
 73
         2
  0
LWPOLYLINE
  5
EA
100
AcDbEntity
  8
BOARD_OUTLINE
100
AcDbPolyline
 90
        4
 70
         1
 43
0.25
 10
23.0
 20
-19.5
 10
23.0
 20
63.0
 10
83.0
 20
63.0
 10
83.0
 20
-19.5
  0
CIRCLE
  5
EB
100
AcDbEntity
  8
MOUNTING_HOLES_LAYER_TOP
100
AcDbCircle
 10
70.2
 20
42.1
 30
0.0
 40
1.75
  0
HATCH
  5
EC
100
AcDbEntity
  8
MOUNTING_HOLES_LAYER_TOP
100
AcDbHatch
 10
0.0
 20
0.0
 30
0.0
210
0.0
220
0.0
230
1.0
  2
SOLID
 70
         1
 71
         1
 91
        1
 92
        1
 93
        1
 72
         2
 10
70.200000000000003
 20
42.100000000000001
 40
1.75
 50
0.0
 51
360.0
 73
         1
 97
        1
330
EB
 75
         0
 76
         1
 98
        1
 10
0.0
 20
0.0
  0
CIRCLE
  5
ED
100
AcDbEntity
  8
MOUNTING_HOLES_LAYER_TOP
100
AcDbCircle
 10
25.5
 20
60.5
 30
0.0
 40
1.75
  0
HATCH
  5
EE
100
AcDbEntity
  8
MOUNTING_HOLES_LAYER_TOP
100
AcDbHatch
 10
0.0
 20
0.0
 30
0.0
210
0.0
220
0.0
230
1.0
  2
SOLID
 70
         1
 71
         1
 91
        1
 92
        1
 93
        1
 72
         2
 10
25.5
 20
60.5
 40
1.75
 50
0.0
 51
360.0
 73
         1
 97
        1
330
ED
 75
         0
 76
         1
 98
        1
 10
0.0
 20
0.0
  0
CIRCLE
  5
EF
100
AcDbEntity
  8
MOUNTING_HOLES_LAYER_TOP
100
AcDbCircle
 10
51.2
 20
-0.2
 30
0.0
 40
1.5
  0
HATCH
  5
F0
100
AcDbEntity
  8
MOUNTING_HOLES_LAYER_TOP
100
AcDbHatch
 10
0.0
 20
0.0
 30
0.0
210
0.0
220
0.0
230
1.0
  2
SOLID
 70
         1
 71
         1
 91
        1
 92
        1
 93
        1
 72
         2
 10
51.200000000000003
 20
-0.2
 40
1.5
 50
0.0
 51
360.0
 73
         1
 97
        1
330
EF
 75
         0
 76
         1
 98
        1
 10
0.0
 20
0.0
  0
CIRCLE
  5
F1
100
AcDbEntity
  8
MOUNTING_HOLES_LAYER_TOP
100
AcDbCircle
 10
55.65
 20
59.55
 30
0.0
 40
1.75
  0
HATCH
  5
F2
100
AcDbEntity
  8
MOUNTING_HOLES_LAYER_TOP
100
AcDbHatch
 10
0.0
 20
0.0
 30
0.0
210
0.0
220
0.0
230
1.0
  2
SOLID
 70
         1
 71
         1
 91
        1
 92
        1
 93
        1
 72
         2
 10
55.649999999999999
 20
59.549999999999997
 40
1.75
 50
0.0
 51
360.0
 73
         1
 97
        1
330
F1
 75
         0
 76
         1
 98
        1
 10
0.0
 20
0.0
  0
CIRCLE
  5
F3
100
AcDbEntity
  8
MOUNTING_HOLES_LAYER_TOP
100
AcDbCircle
 10
31.35
 20
59.55
 30
0.0
 40
1.75
  0
HATCH
  5
F4
100
AcDbEntity
  8
MOUNTING_HOLES_LAYER_TOP
100
AcDbHatch
 10
0.0
 20
0.0
 30
0.0
210
0.0
220
0.0
230
1.0
  2
SOLID
 70
         1
 71
         1
 91
        1
 92
        1
 93
        1
 72
         2
 10
31.350000000000001
 20
59.549999999999997
 40
1.75
 50
0.0
 51
360.0
 73
         1
 97
        1
330
F3
 75
         0
 76
         1
 98
        1
 10
0.0
 20
0.0
  0
CIRCLE
  5
F5
100
AcDbEntity
  8
MOUNTING_HOLES_LAYER_TOP
100
AcDbCircle
 10
67.59
 20
-9.2
 30
0.0
 40
1.625
  0
HATCH
  5
F6
100
AcDbEntity
  8
MOUNTING_HOLES_LAYER_TOP
100
AcDbHatch
 10
0.0
 20
0.0
 30
0.0
210
0.0
220
0.0
230
1.0
  2
SOLID
 70
         1
 71
         1
 91
        1
 92
        1
 93
        1
 72
         2
 10
67.590000000000003
 20
-9.1999999999999993
 40
1.625
 50
0.0
 51
360.0
 73
         1
 97
        1
330
F5
 75
         0
 76
         1
 98
        1
 10
0.0
 20
0.0
  0
CIRCLE
  5
F7
100
AcDbEntity
  8
MOUNTING_HOLES_LAYER_TOP
100
AcDbCircle
 10
79.01
 20
-9.2
 30
0.0
 40
1.625
  0
HATCH
  5
F8
100
AcDbEntity
  8
MOUNTING_HOLES_LAYER_TOP
100
AcDbHatch
 10
0.0
 20
0.0
 30
0.0
210
0.0
220
0.0
230
1.0
  2
SOLID
 70
         1
 71
         1
 91
        1
 92
        1
 93
        1
 72
         2
 10
79.010000000000005
 20
-9.1999999999999993
 40
1.625
 50
0.0
 51
360.0
 73
         1
 97
        1
330
F7
 75
         0
 76
         1
 98
        1
 10
0.0
 20
0.0
  0
CIRCLE
  5
F9
100
AcDbEntity
  8
MOUNTING_HOLES_LAYER_TOP
100
AcDbCircle
 10
62.8
 20
-10.5
 30
0.0
 40
0.75
  0
HATCH
  5
FA
100
AcDbEntity
  8
MOUNTING_HOLES_LAYER_TOP
100
AcDbHatch
 10
0.0
 20
0.0
 30
0.0
210
0.0
220
0.0
230
1.0
  2
SOLID
 70
         1
 71
         1
 91
        1
 92
        1
 93
        1
 72
         2
 10
62.799999999999997
 20
-10.5
 40
0.75
 50
0.0
 51
360.0
 73
         1
 97
        1
330
F9
 75
         0
 76
         1
 98
        1
 10
0.0
 20
0.0
  0
CIRCLE
  5
FB
100
AcDbEntity
  8
MOUNTING_HOLES_LAYER_TOP
100
AcDbCircle
 10
52.8
 20
-10.5
 30
0.0
 40
0.75
  0
HATCH
  5
FC
100
AcDbEntity
  8
MOUNTING_HOLES_LAYER_TOP
100
AcDbHatch
 10
0.0
 20
0.0
 30
0.0
210
0.0
220
0.0
230
1.0
  2
SOLID
 70
         1
 71
         1
 91
        1
 92
        1
 93
        1
 72
         2
 10
52.799999999999997
 20
-10.5
 40
0.75
 50
0.0
 51
360.0
 73
         1
 97
        1
330
FB
 75
         0
 76
         1
 98
        1
 10
0.0
 20
0.0
  0
CIRCLE
  5
FD
100
AcDbEntity
  8
MOUNTING_HOLES_LAYER_TOP
100
AcDbCircle
 10
66.1
 20
55.95
 30
0.0
 40
0.75
  0
HATCH
  5
FE
100
AcDbEntity
  8
MOUNTING_HOLES_LAYER_TOP
100
AcDbHatch
 10
0.0
 20
0.0
 30
0.0
210
0.0
220
0.0
230
1.0
  2
SOLID
 70
         1
 71
         1
 91
        1
 92
        1
 93
        1
 72
         2
 10
66.099999999999994
 20
55.950000000000003
 40
0.75
 50
0.0
 51
360.0
 73
         1
 97
        1
330
FD
 75
         0
 76
         1
 98
        1
 10
0.0
 20
0.0
  0
CIRCLE
  5
FF
100
AcDbEntity
  8
MOUNTING_HOLES_LAYER_TOP
100
AcDbCircle
 10
66.1
 20
48.45
 30
0.0
 40
0.75
  0
HATCH
  5
100
100
AcDbEntity
  8
MOUNTING_HOLES_LAYER_TOP
100
AcDbHatch
 10
0.0
 20
0.0
 30
0.0
210
0.0
220
0.0
230
1.0
  2
SOLID
 70
         1
 71
         1
 91
        1
 92
        1
 93
        1
 72
         2
 10
66.099999999999994
 20
48.450000000000003
 40
0.75
 50
0.0
 51
360.0
 73
         1
 97
        1
330
FF
 75
         0
 76
         1
 98
        1
 10
0.0
 20
0.0
  0
CIRCLE
  5
101
100
AcDbEntity
  8
MOUNTING_HOLES_LAYER_TOP
100
AcDbCircle
 10
55.95
 20
11.5
 30
0.0
 40
0.55
  0
HATCH
  5
102
100
AcDbEntity
  8
MOUNTING_HOLES_LAYER_TOP
100
AcDbHatch
 10
0.0
 20
0.0
 30
0.0
210
0.0
220
0.0
230
1.0
  2
SOLID
 70
         1
 71
         1
 91
        1
 92
        1
 93
        1
 72
         2
 10
55.950000000000003
 20
11.5
 40
0.55
 50
0.0
 51
360.0
 73
         1
 97
        1
330
101
 75
         0
 76
         1
 98
        1
 10
0.0
 20
0.0
  0
CIRCLE
  5
103
100
AcDbEntity
  8
MOUNTING_HOLES_LAYER_TOP
100
AcDbCircle
 10
30.95
 20
11.5
 30
0.0
 40
0.8
  0
HATCH
  5
104
100
AcDbEntity
  8
MOUNTING_HOLES_LAYER_TOP
100
AcDbHatch
 10
0.0
 20
0.0
 30
0.0
210
0.0
220
0.0
230
1.0
  2
SOLID
 70
         1
 71
         1
 91
        1
 92
        1
 93
        1
 72
         2
 10
30.949999999999999
 20
11.5
 40
0.8
 50
0.0
 51
360.0
 73
         1
 97
        1
330
103
 75
         0
 76
         1
 98
        1
 10
0.0
 20
0.0
  0
CIRCLE
  5
105
100
AcDbEntity
  8
PART_HOLES_LAYER_TOP
100
AcDbCircle
 10
24.67
 20
56.27
 30
0.0
 40
0.45
  0
HATCH
  5
106
100
AcDbEntity
  8
PART_HOLES_LAYER_TOP
100
AcDbHatch
 10
0.0
 20
0.0
 30
0.0
210
0.0
220
0.0
230
1.0
  2
SOLID
 70
         1
 71
         1
 91
        1
 92
        1
 93
        1
 72
         2
 10
24.670000000000002
 20
56.270000000000003
 40
0.45
 50
0.0
 51
360.0
 73
         1
 97
        1
330
105
 75
         0
 76
         1
 98
        1
 10
0.0
 20
0.0
  0
CIRCLE
  5
107
100
AcDbEntity
  8
PART_HOLES_LAYER_TOP
100
AcDbCircle
 10
24.67
 20
53.73
 30
0.0
 40
0.45
  0
HATCH
  5
108
100
AcDbEntity
  8
PART_HOLES_LAYER_TOP
100
AcDbHatch
 10
0.0
 20
0.0
 30
0.0
210
0.0
220
0.0
230
1.0
  2
SOLID
 70
         1
 71
         1
 91
        1
 92
        1
 93
        1
 72
         2
 10
24.670000000000002
 20
53.729999999999997
 40
0.45
 50
0.0
 51
360.0
 73
         1
 97
        1
330
107
 75
         0
 76
         1
 98
        1
 10
0.0
 20
0.0
  0
CIRCLE
  5
109
100
AcDbEntity
  8
PART_HOLES_LAYER_TOP
100
AcDbCircle
 10
24.3
 20
50.9
 30
0.0
 40
0.45
  0
HATCH
  5
10A
100
AcDbEntity
  8
PART_HOLES_LAYER_TOP
100
AcDbHatch
 10
0.0
 20
0.0
 30
0.0
210
0.0
220
0.0
230
1.0
  2
SOLID
 70
         1
 71
         1
 91
        1
 92
        1
 93
        1
 72
         2
 10
24.300000000000001
 20
50.899999999999999
 40
0.45
 50
0.0
 51
360.0
 73
         1
 97
        1
330
109
 75
         0
 76
         1
 98
        1
 10
0.0
 20
0.0
  0
CIRCLE
  5
10B
100
AcDbEntity
  8
PART_HOLES_LAYER_TOP
100
AcDbCircle
 10
26.84
 20
50.9
 30
0.0
 40
0.45
  0
HATCH
  5
10C
100
AcDbEntity
  8
PART_HOLES_LAYER_TOP
100
AcDbHatch
 10
0.0
 20
0.0
 30
0.0
210
0.0
220
0.0
230
1.0
  2
SOLID
 70
         1
 71
         1
 91
        1
 92
        1
 93
        1
 72
         2
 10
26.84
 20
50.899999999999999
 40
0.45
 50
0.0
 51
360.0
 73
         1
 97
        1
330
10B
 75
         0
 76
         1
 98
        1
 10
0.0
 20
0.0
  0
CIRCLE
  5
10D
100
AcDbEntity
  8
PART_HOLES_LAYER_TOP
100
AcDbCircle
 10
26.9
 20
15.34
 30
0.0
 40
0.45
  0
HATCH
  5
10E
100
AcDbEntity
  8
PART_HOLES_LAYER_TOP
100
AcDbHatch
 10
0.0
 20
0.0
 30
0.0
210
0.0
220
0.0
230
1.0
  2
SOLID
 70
         1
 71
         1
 91
        1
 92
        1
 93
        1
 72
         2
 10
26.899999999999999
 20
15.34
 40
0.45
 50
0.0
 51
360.0
 73
         1
 97
        1
330
10D
 75
         0
 76
         1
 98
        1
 10
0.0
 20
0.0
  0
CIRCLE
  5
10F
100
AcDbEntity
  8
PART_HOLES_LAYER_TOP
100
AcDbCircle
 10
26.9
 20
17.88
 30
0.0
 40
0.45
  0
HATCH
  5
110
100
AcDbEntity
  8
PART_HOLES_LAYER_TOP
100
AcDbHatch
 10
0.0
 20
0.0
 30
0.0
210
0.0
220
0.0
230
1.0
  2
SOLID
 70
         1
 71
         1
 91
        1
 92
        1
 93
        1
 72
         2
 10
26.899999999999999
 20
17.879999999999999
 40
0.45
 50
0.0
 51
360.0
 73
         1
 97
        1
330
10F
 75
         0
 76
         1
 98
        1
 10
0.0
 20
0.0
  0
CIRCLE
  5
111
100
AcDbEntity
  8
PART_HOLES_LAYER_TOP
100
AcDbCircle
 10
26.9
 20
20.42
 30
0.0
 40
0.45
  0
HATCH
  5
112
100
AcDbEntity
  8
PART_HOLES_LAYER_TOP
100
AcDbHatch
 10
0.0
 20
0.0
 30
0.0
210
0.0
220
0.0
230
1.0
  2
SOLID
 70
         1
 71
         1
 91
        1
 92
        1
 93
        1
 72
         2
 10
26.899999999999999
 20
20.420000000000002
 40
0.45
 50
0.0
 51
360.0
 73
         1
 97
        1
330
111
 75
         0
 76
         1
 98
        1
 10
0.0
 20
0.0
  0
CIRCLE
  5
113
100
AcDbEntity
  8
PART_HOLES_LAYER_TOP
100
AcDbCircle
 10
26.9
 20
22.96
 30
0.0
 40
0.45
  0
HATCH
  5
114
100
AcDbEntity
  8
PART_HOLES_LAYER_TOP
100
AcDbHatch
 10
0.0
 20
0.0
 30
0.0
210
0.0
220
0.0
230
1.0
  2
SOLID
 70
         1
 71
         1
 91
        1
 92
        1
 93
        1
 72
         2
 10
26.899999999999999
 20
22.960000000000001
 40
0.45
 50
0.0
 51
360.0
 73
         1
 97
        1
330
113
 75
         0
 76
         1
 98
        1
 10
0.0
 20
0.0
  0
CIRCLE
  5
115
100
AcDbEntity
  8
PART_HOLES_LAYER_TOP
100
AcDbCircle
 10
26.9
 20
25.5
 30
0.0
 40
0.45
  0
HATCH
  5
116
100
AcDbEntity
  8
PART_HOLES_LAYER_TOP
100
AcDbHatch
 10
0.0
 20
0.0
 30
0.0
210
0.0
220
0.0
230
1.0
  2
SOLID
 70
         1
 71
         1
 91
        1
 92
        1
 93
        1
 72
         2
 10
26.899999999999999
 20
25.5
 40
0.45
 50
0.0
 51
360.0
 73
         1
 97
        1
330
115
 75
         0
 76
         1
 98
        1
 10
0.0
 20
0.0
  0
CIRCLE
  5
117
100
AcDbEntity
  8
PART_HOLES_LAYER_TOP
100
AcDbCircle
 10
26.9
 20
28.04
 30
0.0
 40
0.45
  0
HATCH
  5
118
100
AcDbEntity
  8
PART_HOLES_LAYER_TOP
100
AcDbHatch
 10
0.0
 20
0.0
 30
0.0
210
0.0
220
0.0
230
1.0
  2
SOLID
 70
         1
 71
         1
 91
        1
 92
        1
 93
        1
 72
         2
 10
26.899999999999999
 20
28.039999999999999
 40
0.45
 50
0.0
 51
360.0
 73
         1
 97
        1
330
117
 75
         0
 76
         1
 98
        1
 10
0.0
 20
0.0
  0
CIRCLE
  5
119
100
AcDbEntity
  8
PART_HOLES_LAYER_TOP
100
AcDbCircle
 10
26.9
 20
30.58
 30
0.0
 40
0.45
  0
HATCH
  5
11A
100
AcDbEntity
  8
PART_HOLES_LAYER_TOP
100
AcDbHatch
 10
0.0
 20
0.0
 30
0.0
210
0.0
220
0.0
230
1.0
  2
SOLID
 70
         1
 71
         1
 91
        1
 92
        1
 93
        1
 72
         2
 10
26.899999999999999
 20
30.579999999999998
 40
0.45
 50
0.0
 51
360.0
 73
         1
 97
        1
330
119
 75
         0
 76
         1
 98
        1
 10
0.0
 20
0.0
  0
CIRCLE
  5
11B
100
AcDbEntity
  8
PART_HOLES_LAYER_TOP
100
AcDbCircle
 10
26.9
 20
33.12
 30
0.0
 40
0.45
  0
HATCH
  5
11C
100
AcDbEntity
  8
PART_HOLES_LAYER_TOP
100
AcDbHatch
 10
0.0
 20
0.0
 30
0.0
210
0.0
220
0.0
230
1.0
  2
SOLID
 70
         1
 71
         1
 91
        1
 92
        1
 93
        1
 72
         2
 10
26.899999999999999
 20
33.119999999999997
 40
0.45
 50
0.0
 51
360.0
 73
         1
 97
        1
330
11B
 75
         0
 76
         1
 98
        1
 10
0.0
 20
0.0
  0
CIRCLE
  5
11D
100
AcDbEntity
  8
PART_HOLES_LAYER_TOP
100
AcDbCircle
 10
26.9
 20
35.66
 30
0.0
 40
0.45
  0
HATCH
  5
11E
100
AcDbEntity
  8
PART_HOLES_LAYER_TOP
100
AcDbHatch
 10
0.0
 20
0.0
 30
0.0
210
0.0
220
0.0
230
1.0
  2
SOLID
 70
         1
 71
         1
 91
        1
 92
        1
 93
        1
 72
         2
 10
26.899999999999999
 20
35.659999999999997
 40
0.45
 50
0.0
 51
360.0
 73
         1
 97
        1
330
11D
 75
         0
 76
         1
 98
        1
 10
0.0
 20
0.0
  0
CIRCLE
  5
11F
100
AcDbEntity
  8
PART_HOLES_LAYER_TOP
100
AcDbCircle
 10
24.36
 20
15.34
 30
0.0
 40
0.45
  0
HATCH
  5
120
100
AcDbEntity
  8
PART_HOLES_LAYER_TOP
100
AcDbHatch
 10
0.0
 20
0.0
 30
0.0
210
0.0
220
0.0
230
1.0
  2
SOLID
 70
         1
 71
         1
 91
        1
 92
        1
 93
        1
 72
         2
 10
24.359999999999999
 20
15.34
 40
0.45
 50
0.0
 51
360.0
 73
         1
 97
        1
330
11F
 75
         0
 76
         1
 98
        1
 10
0.0
 20
0.0
  0
CIRCLE
  5
121
100
AcDbEntity
  8
PART_HOLES_LAYER_TOP
100
AcDbCircle
 10
24.36
 20
17.88
 30
0.0
 40
0.45
  0
HATCH
  5
122
100
AcDbEntity
  8
PART_HOLES_LAYER_TOP
100
AcDbHatch
 10
0.0
 20
0.0
 30
0.0
210
0.0
220
0.0
230
1.0
  2
SOLID
 70
         1
 71
         1
 91
        1
 92
        1
 93
        1
 72
         2
 10
24.359999999999999
 20
17.879999999999999
 40
0.45
 50
0.0
 51
360.0
 73
         1
 97
        1
330
121
 75
         0
 76
         1
 98
        1
 10
0.0
 20
0.0
  0
CIRCLE
  5
123
100
AcDbEntity
  8
PART_HOLES_LAYER_TOP
100
AcDbCircle
 10
24.36
 20
20.42
 30
0.0
 40
0.45
  0
HATCH
  5
124
100
AcDbEntity
  8
PART_HOLES_LAYER_TOP
100
AcDbHatch
 10
0.0
 20
0.0
 30
0.0
210
0.0
220
0.0
230
1.0
  2
SOLID
 70
         1
 71
         1
 91
        1
 92
        1
 93
        1
 72
         2
 10
24.359999999999999
 20
20.420000000000002
 40
0.45
 50
0.0
 51
360.0
 73
         1
 97
        1
330
123
 75
         0
 76
         1
 98
        1
 10
0.0
 20
0.0
  0
CIRCLE
  5
125
100
AcDbEntity
  8
PART_HOLES_LAYER_TOP
100
AcDbCircle
 10
24.36
 20
22.96
 30
0.0
 40
0.45
  0
HATCH
  5
126
100
AcDbEntity
  8
PART_HOLES_LAYER_TOP
100
AcDbHatch
 10
0.0
 20
0.0
 30
0.0
210
0.0
220
0.0
230
1.0
  2
SOLID
 70
         1
 71
         1
 91
        1
 92
        1
 93
        1
 72
         2
 10
24.359999999999999
 20
22.960000000000001
 40
0.45
 50
0.0
 51
360.0
 73
         1
 97
        1
330
125
 75
         0
 76
         1
 98
        1
 10
0.0
 20
0.0
  0
CIRCLE
  5
127
100
AcDbEntity
  8
PART_HOLES_LAYER_TOP
100
AcDbCircle
 10
24.36
 20
25.5
 30
0.0
 40
0.45
  0
HATCH
  5
128
100
AcDbEntity
  8
PART_HOLES_LAYER_TOP
100
AcDbHatch
 10
0.0
 20
0.0
 30
0.0
210
0.0
220
0.0
230
1.0
  2
SOLID
 70
         1
 71
         1
 91
        1
 92
        1
 93
        1
 72
         2
 10
24.359999999999999
 20
25.5
 40
0.45
 50
0.0
 51
360.0
 73
         1
 97
        1
330
127
 75
         0
 76
         1
 98
        1
 10
0.0
 20
0.0
  0
CIRCLE
  5
129
100
AcDbEntity
  8
PART_HOLES_LAYER_TOP
100
AcDbCircle
 10
24.36
 20
28.04
 30
0.0
 40
0.45
  0
HATCH
  5
12A
100
AcDbEntity
  8
PART_HOLES_LAYER_TOP
100
AcDbHatch
 10
0.0
 20
0.0
 30
0.0
210
0.0
220
0.0
230
1.0
  2
SOLID
 70
         1
 71
         1
 91
        1
 92
        1
 93
        1
 72
         2
 10
24.359999999999999
 20
28.039999999999999
 40
0.45
 50
0.0
 51
360.0
 73
         1
 97
        1
330
129
 75
         0
 76
         1
 98
        1
 10
0.0
 20
0.0
  0
CIRCLE
  5
12B
100
AcDbEntity
  8
PART_HOLES_LAYER_TOP
100
AcDbCircle
 10
24.36
 20
30.58
 30
0.0
 40
0.45
  0
HATCH
  5
12C
100
AcDbEntity
  8
PART_HOLES_LAYER_TOP
100
AcDbHatch
 10
0.0
 20
0.0
 30
0.0
210
0.0
220
0.0
230
1.0
  2
SOLID
 70
         1
 71
         1
 91
        1
 92
        1
 93
        1
 72
         2
 10
24.359999999999999
 20
30.579999999999998
 40
0.45
 50
0.0
 51
360.0
 73
         1
 97
        1
330
12B
 75
         0
 76
         1
 98
        1
 10
0.0
 20
0.0
  0
CIRCLE
  5
12D
100
AcDbEntity
  8
PART_HOLES_LAYER_TOP
100
AcDbCircle
 10
24.36
 20
33.12
 30
0.0
 40
0.45
  0
HATCH
  5
12E
100
AcDbEntity
  8
PART_HOLES_LAYER_TOP
100
AcDbHatch
 10
0.0
 20
0.0
 30
0.0
210
0.0
220
0.0
230
1.0
  2
SOLID
 70
         1
 71
         1
 91
        1
 92
        1
 93
        1
 72
         2
 10
24.359999999999999
 20
33.119999999999997
 40
0.45
 50
0.0
 51
360.0
 73
         1
 97
        1
330
12D
 75
         0
 76
         1
 98
        1
 10
0.0
 20
0.0
  0
CIRCLE
  5
12F
100
AcDbEntity
  8
PART_HOLES_LAYER_TOP
100
AcDbCircle
 10
24.36
 20
35.66
 30
0.0
 40
0.45
  0
HATCH
  5
130
100
AcDbEntity
  8
PART_HOLES_LAYER_TOP
100
AcDbHatch
 10
0.0
 20
0.0
 30
0.0
210
0.0
220
0.0
230
1.0
  2
SOLID
 70
         1
 71
         1
 91
        1
 92
        1
 93
        1
 72
         2
 10
24.359999999999999
 20
35.659999999999997
 40
0.45
 50
0.0
 51
360.0
 73
         1
 97
        1
330
12F
 75
         0
 76
         1
 98
        1
 10
0.0
 20
0.0
  0
CIRCLE
  5
131
100
AcDbEntity
  8
PART_HOLES_LAYER_TOP
100
AcDbCircle
 10
26.9
 20
12.8
 30
0.0
 40
0.45
  0
HATCH
  5
132
100
AcDbEntity
  8
PART_HOLES_LAYER_TOP
100
AcDbHatch
 10
0.0
 20
0.0
 30
0.0
210
0.0
220
0.0
230
1.0
  2
SOLID
 70
         1
 71
         1
 91
        1
 92
        1
 93
        1
 72
         2
 10
26.899999999999999
 20
12.800000000000001
 40
0.45
 50
0.0
 51
360.0
 73
         1
 97
        1
330
131
 75
         0
 76
         1
 98
        1
 10
0.0
 20
0.0
  0
CIRCLE
  5
133
100
AcDbEntity
  8
PART_HOLES_LAYER_TOP
100
AcDbCircle
 10
24.36
 20
12.8
 30
0.0
 40
0.45
  0
HATCH
  5
134
100
AcDbEntity
  8
PART_HOLES_LAYER_TOP
100
AcDbHatch
 10
0.0
 20
0.0
 30
0.0
210
0.0
220
0.0
230
1.0
  2
SOLID
 70
         1
 71
         1
 91
        1
 92
        1
 93
        1
 72
         2
 10
24.359999999999999
 20
12.800000000000001
 40
0.45
 50
0.0
 51
360.0
 73
         1
 97
        1
330
133
 75
         0
 76
         1
 98
        1
 10
0.0
 20
0.0
  0
CIRCLE
  5
135
100
AcDbEntity
  8
PART_HOLES_LAYER_TOP
100
AcDbCircle
 10
46.4
 20
-7.0
 30
0.0
 40
0.45
  0
HATCH
  5
136
100
AcDbEntity
  8
PART_HOLES_LAYER_TOP
100
AcDbHatch
 10
0.0
 20
0.0
 30
0.0
210
0.0
220
0.0
230
1.0
  2
SOLID
 70
         1
 71
         1
 91
        1
 92
        1
 93
        1
 72
         2
 10
46.399999999999999
 20
-7.0
 40
0.45
 50
0.0
 51
360.0
 73
         1
 97
        1
330
135
 75
         0
 76
         1
 98
        1
 10
0.0
 20
0.0
  0
CIRCLE
  5
137
100
AcDbEntity
  8
PART_HOLES_LAYER_TOP
100
AcDbCircle
 10
39.4
 20
-7.0
 30
0.0
 40
0.45
  0
HATCH
  5
138
100
AcDbEntity
  8
PART_HOLES_LAYER_TOP
100
AcDbHatch
 10
0.0
 20
0.0
 30
0.0
210
0.0
220
0.0
230
1.0
  2
SOLID
 70
         1
 71
         1
 91
        1
 92
        1
 93
        1
 72
         2
 10
39.399999999999999
 20
-7.0
 40
0.45
 50
0.0
 51
360.0
 73
         1
 97
        1
330
137
 75
         0
 76
         1
 98
        1
 10
0.0
 20
0.0
  0
CIRCLE
  5
139
100
AcDbEntity
  8
PART_HOLES_LAYER_TOP
100
AcDbCircle
 10
36.3
 20
-9.72
 30
0.0
 40
1.25
  0
HATCH
  5
13A
100
AcDbEntity
  8
PART_HOLES_LAYER_TOP
100
AcDbHatch
 10
0.0
 20
0.0
 30
0.0
210
0.0
220
0.0
230
1.0
  2
SOLID
 70
         1
 71
         1
 91
        1
 92
        1
 93
        1
 72
         2
 10
36.299999999999997
 20
-9.7200000000000006
 40
1.25
 50
0.0
 51
360.0
 73
         1
 97
        1
330
139
 75
         0
 76
         1
 98
        1
 10
0.0
 20
0.0
  0
CIRCLE
  5
13B
100
AcDbEntity
  8
PART_HOLES_LAYER_TOP
100
AcDbCircle
 10
49.5
 20
-9.72
 30
0.0
 40
1.25
  0
HATCH
  5
13C
100
AcDbEntity
  8
PART_HOLES_LAYER_TOP
100
AcDbHatch
 10
0.0
 20
0.0
 30
0.0
210
0.0
220
0.0
230
1.0
  2
SOLID
 70
         1
 71
         1
 91
        1
 92
        1
 93
        1
 72
         2
 10
49.5
 20
-9.7200000000000006
 40
1.25
 50
0.0
 51
360.0
 73
         1
 97
        1
330
13B
 75
         0
 76
         1
 98
        1
 10
0.0
 20
0.0
  0
CIRCLE
  5
13D
100
AcDbEntity
  8
PART_HOLES_LAYER_TOP
100
AcDbCircle
 10
43.9
 20
-7.0
 30
0.0
 40
0.45
  0
HATCH
  5
13E
100
AcDbEntity
  8
PART_HOLES_LAYER_TOP
100
AcDbHatch
 10
0.0
 20
0.0
 30
0.0
210
0.0
220
0.0
230
1.0
  2
SOLID
 70
         1
 71
         1
 91
        1
 92
        1
 93
        1
 72
         2
 10
43.899999999999999
 20
-7.0
 40
0.45
 50
0.0
 51
360.0
 73
         1
 97
        1
330
13D
 75
         0
 76
         1
 98
        1
 10
0.0
 20
0.0
  0
CIRCLE
  5
13F
100
AcDbEntity
  8
PART_HOLES_LAYER_TOP
100
AcDbCircle
 10
41.9
 20
-7.0
 30
0.0
 40
0.45
  0
HATCH
  5
140
100
AcDbEntity
  8
PART_HOLES_LAYER_TOP
100
AcDbHatch
 10
0.0
 20
0.0
 30
0.0
210
0.0
220
0.0
230
1.0
  2
SOLID
 70
         1
 71
         1
 91
        1
 92
        1
 93
        1
 72
         2
 10
41.899999999999999
 20
-7.0
 40
0.45
 50
0.0
 51
360.0
 73
         1
 97
        1
330
13F
 75
         0
 76
         1
 98
        1
 10
0.0
 20
0.0
  0
CIRCLE
  5
141
100
AcDbEntity
  8
PART_HOLES_LAYER_TOP
100
AcDbCircle
 10
71.96
 20
21.6
 30
0.0
 40
0.6
  0
HATCH
  5
142
100
AcDbEntity
  8
PART_HOLES_LAYER_TOP
100
AcDbHatch
 10
0.0
 20
0.0
 30
0.0
210
0.0
220
0.0
230
1.0
  2
SOLID
 70
         1
 71
         1
 91
        1
 92
        1
 93
        1
 72
         2
 10
71.959999999999994
 20
21.600000000000001
 40
0.6
 50
0.0
 51
360.0
 73
         1
 97
        1
330
141
 75
         0
 76
         1
 98
        1
 10
0.0
 20
0.0
  0
CIRCLE
  5
143
100
AcDbEntity
  8
PART_HOLES_LAYER_TOP
100
AcDbCircle
 10
71.96
 20
16.06
 30
0.0
 40
0.6
  0
HATCH
  5
144
100
AcDbEntity
  8
PART_HOLES_LAYER_TOP
100
AcDbHatch
 10
0.0
 20
0.0
 30
0.0
210
0.0
220
0.0
230
1.0
  2
SOLID
 70
         1
 71
         1
 91
        1
 92
        1
 93
        1
 72
         2
 10
71.959999999999994
 20
16.059999999999999
 40
0.6
 50
0.0
 51
360.0
 73
         1
 97
        1
330
143
 75
         0
 76
         1
 98
        1
 10
0.0
 20
0.0
  0
CIRCLE
  5
145
100
AcDbEntity
  8
PART_HOLES_LAYER_TOP
100
AcDbCircle
 10
71.96
 20
18.83
 30
0.0
 40
0.6
  0
HATCH
  5
146
100
AcDbEntity
  8
PART_HOLES_LAYER_TOP
100
AcDbHatch
 10
0.0
 20
0.0
 30
0.0
210
0.0
220
0.0
230
1.0
  2
SOLID
 70
         1
 71
         1
 91
        1
 92
        1
 93
        1
 72
         2
 10
71.959999999999994
 20
18.829999999999998
 40
0.6
 50
0.0
 51
360.0
 73
         1
 97
        1
330
145
 75
         0
 76
         1
 98
        1
 10
0.0
 20
0.0
  0
CIRCLE
  5
147
100
AcDbEntity
  8
PART_HOLES_LAYER_TOP
100
AcDbCircle
 10
71.96
 20
24.37
 30
0.0
 40
0.6
  0
HATCH
  5
148
100
AcDbEntity
  8
PART_HOLES_LAYER_TOP
100
AcDbHatch
 10
0.0
 20
0.0
 30
0.0
210
0.0
220
0.0
230
1.0
  2
SOLID
 70
         1
 71
         1
 91
        1
 92
        1
 93
        1
 72
         2
 10
71.959999999999994
 20
24.370000000000001
 40
0.6
 50
0.0
 51
360.0
 73
         1
 97
        1
330
147
 75
         0
 76
         1
 98
        1
 10
0.0
 20
0.0
  0
CIRCLE
  5
149
100
AcDbEntity
  8
PART_HOLES_LAYER_TOP
100
AcDbCircle
 10
71.96
 20
27.14
 30
0.0
 40
0.6
  0
HATCH
  5
14A
100
AcDbEntity
  8
PART_HOLES_LAYER_TOP
100
AcDbHatch
 10
0.0
 20
0.0
 30
0.0
210
0.0
220
0.0
230
1.0
  2
SOLID
 70
         1
 71
         1
 91
        1
 92
        1
 93
        1
 72
         2
 10
71.959999999999994
 20
27.140000000000001
 40
0.6
 50
0.0
 51
360.0
 73
         1
 97
        1
330
149
 75
         0
 76
         1
 98
        1
 10
0.0
 20
0.0
  0
CIRCLE
  5
14B
100
AcDbEntity
  8
PART_HOLES_LAYER_TOP
100
AcDbCircle
 10
74.8
 20
17.445
 30
0.0
 40
0.6
  0
HATCH
  5
14C
100
AcDbEntity
  8
PART_HOLES_LAYER_TOP
100
AcDbHatch
 10
0.0
 20
0.0
 30
0.0
210
0.0
220
0.0
230
1.0
  2
SOLID
 70
         1
 71
         1
 91
        1
 92
        1
 93
        1
 72
         2
 10
74.799999999999997
 20
17.445
 40
0.6
 50
0.0
 51
360.0
 73
         1
 97
        1
330
14B
 75
         0
 76
         1
 98
        1
 10
0.0
 20
0.0
  0
CIRCLE
  5
14D
100
AcDbEntity
  8
PART_HOLES_LAYER_TOP
100
AcDbCircle
 10
74.8
 20
20.215
 30
0.0
 40
0.6
  0
HATCH
  5
14E
100
AcDbEntity
  8
PART_HOLES_LAYER_TOP
100
AcDbHatch
 10
0.0
 20
0.0
 30
0.0
210
0.0
220
0.0
230
1.0
  2
SOLID
 70
         1
 71
         1
 91
        1
 92
        1
 93
        1
 72
         2
 10
74.799999999999997
 20
20.215
 40
0.6
 50
0.0
 51
360.0
 73
         1
 97
        1
330
14D
 75
         0
 76
         1
 98
        1
 10
0.0
 20
0.0
  0
CIRCLE
  5
14F
100
AcDbEntity
  8
PART_HOLES_LAYER_TOP
100
AcDbCircle
 10
74.8
 20
22.985
 30
0.0
 40
0.6
  0
HATCH
  5
150
100
AcDbEntity
  8
PART_HOLES_LAYER_TOP
100
AcDbHatch
 10
0.0
 20
0.0
 30
0.0
210
0.0
220
0.0
230
1.0
  2
SOLID
 70
         1
 71
         1
 91
        1
 92
        1
 93
        1
 72
         2
 10
74.799999999999997
 20
22.984999999999999
 40
0.6
 50
0.0
 51
360.0
 73
         1
 97
        1
330
14F
 75
         0
 76
         1
 98
        1
 10
0.0
 20
0.0
  0
CIRCLE
  5
151
100
AcDbEntity
  8
PART_HOLES_LAYER_TOP
100
AcDbCircle
 10
74.8
 20
25.755
 30
0.0
 40
0.6
  0
HATCH
  5
152
100
AcDbEntity
  8
PART_HOLES_LAYER_TOP
100
AcDbHatch
 10
0.0
 20
0.0
 30
0.0
210
0.0
220
0.0
230
1.0
  2
SOLID
 70
         1
 71
         1
 91
        1
 92
        1
 93
        1
 72
         2
 10
74.799999999999997
 20
25.754999999999999
 40
0.6
 50
0.0
 51
360.0
 73
         1
 97
        1
330
151
 75
         0
 76
         1
 98
        1
 10
0.0
 20
0.0
  0
CIRCLE
  5
153
100
AcDbEntity
  8
PART_HOLES_LAYER_TOP
100
AcDbCircle
 10
73.38
 20
34.1
 30
0.0
 40
1.5
  0
HATCH
  5
154
100
AcDbEntity
  8
PART_HOLES_LAYER_TOP
100
AcDbHatch
 10
0.0
 20
0.0
 30
0.0
210
0.0
220
0.0
230
1.0
  2
SOLID
 70
         1
 71
         1
 91
        1
 92
        1
 93
        1
 72
         2
 10
73.379999999999995
 20
34.100000000000001
 40
1.5
 50
0.0
 51
360.0
 73
         1
 97
        1
330
153
 75
         0
 76
         1
 98
        1
 10
0.0
 20
0.0
  0
CIRCLE
  5
155
100
AcDbEntity
  8
PART_HOLES_LAYER_TOP
100
AcDbCircle
 10
73.38
 20
9.1
 30
0.0
 40
1.5
  0
HATCH
  5
156
100
AcDbEntity
  8
PART_HOLES_LAYER_TOP
100
AcDbHatch
 10
0.0
 20
0.0
 30
0.0
210
0.0
220
0.0
230
1.0
  2
SOLID
 70
         1
 71
         1
 91
        1
 92
        1
 93
        1
 72
         2
 10
73.379999999999995
 20
9.0999999999999996
 40
1.5
 50
0.0
 51
360.0
 73
         1
 97
        1
330
155
 75
         0
 76
         1
 98
        1
 10
0.0
 20
0.0
  0
CIRCLE
  5
157
100
AcDbEntity
  8
PART_HOLES_LAYER_TOP
100
AcDbCircle
 10
62.5
 20
35.0
 30
0.0
 40
0.45
  0
HATCH
  5
158
100
AcDbEntity
  8
PART_HOLES_LAYER_TOP
100
AcDbHatch
 10
0.0
 20
0.0
 30
0.0
210
0.0
220
0.0
230
1.0
  2
SOLID
 70
         1
 71
         1
 91
        1
 92
        1
 93
        1
 72
         2
 10
62.5
 20
35.0
 40
0.45
 50
0.0
 51
360.0
 73
         1
 97
        1
330
157
 75
         0
 76
         1
 98
        1
 10
0.0
 20
0.0
  0
CIRCLE
  5
159
100
AcDbEntity
  8
PART_HOLES_LAYER_TOP
100
AcDbCircle
 10
65.04
 20
35.0
 30
0.0
 40
0.45
  0
HATCH
  5
15A
100
AcDbEntity
  8
PART_HOLES_LAYER_TOP
100
AcDbHatch
 10
0.0
 20
0.0
 30
0.0
210
0.0
220
0.0
230
1.0
  2
SOLID
 70
         1
 71
         1
 91
        1
 92
        1
 93
        1
 72
         2
 10
65.040000000000006
 20
35.0
 40
0.45
 50
0.0
 51
360.0
 73
         1
 97
        1
330
159
 75
         0
 76
         1
 98
        1
 10
0.0
 20
0.0
  0
CIRCLE
  5
15B
100
AcDbEntity
  8
PART_HOLES_LAYER_TOP
100
AcDbCircle
 10
62.5
 20
32.46
 30
0.0
 40
0.45
  0
HATCH
  5
15C
100
AcDbEntity
  8
PART_HOLES_LAYER_TOP
100
AcDbHatch
 10
0.0
 20
0.0
 30
0.0
210
0.0
220
0.0
230
1.0
  2
SOLID
 70
         1
 71
         1
 91
        1
 92
        1
 93
        1
 72
         2
 10
62.5
 20
32.460000000000001
 40
0.45
 50
0.0
 51
360.0
 73
         1
 97
        1
330
15B
 75
         0
 76
         1
 98
        1
 10
0.0
 20
0.0
  0
CIRCLE
  5
15D
100
AcDbEntity
  8
PART_HOLES_LAYER_TOP
100
AcDbCircle
 10
65.04
 20
32.46
 30
0.0
 40
0.45
  0
HATCH
  5
15E
100
AcDbEntity
  8
PART_HOLES_LAYER_TOP
100
AcDbHatch
 10
0.0
 20
0.0
 30
0.0
210
0.0
220
0.0
230
1.0
  2
SOLID
 70
         1
 71
         1
 91
        1
 92
        1
 93
        1
 72
         2
 10
65.040000000000006
 20
32.460000000000001
 40
0.45
 50
0.0
 51
360.0
 73
         1
 97
        1
330
15D
 75
         0
 76
         1
 98
        1
 10
0.0
 20
0.0
  0
CIRCLE
  5
15F
100
AcDbEntity
  8
PART_HOLES_LAYER_TOP
100
AcDbCircle
 10
62.5
 20
29.92
 30
0.0
 40
0.45
  0
HATCH
  5
160
100
AcDbEntity
  8
PART_HOLES_LAYER_TOP
100
AcDbHatch
 10
0.0
 20
0.0
 30
0.0
210
0.0
220
0.0
230
1.0
  2
SOLID
 70
         1
 71
         1
 91
        1
 92
        1
 93
        1
 72
         2
 10
62.5
 20
29.920000000000002
 40
0.45
 50
0.0
 51
360.0
 73
         1
 97
        1
330
15F
 75
         0
 76
         1
 98
        1
 10
0.0
 20
0.0
  0
CIRCLE
  5
161
100
AcDbEntity
  8
PART_HOLES_LAYER_TOP
100
AcDbCircle
 10
65.04
 20
29.92
 30
0.0
 40
0.45
  0
HATCH
  5
162
100
AcDbEntity
  8
PART_HOLES_LAYER_TOP
100
AcDbHatch
 10
0.0
 20
0.0
 30
0.0
210
0.0
220
0.0
230
1.0
  2
SOLID
 70
         1
 71
         1
 91
        1
 92
        1
 93
        1
 72
         2
 10
65.040000000000006
 20
29.920000000000002
 40
0.45
 50
0.0
 51
360.0
 73
         1
 97
        1
330
161
 75
         0
 76
         1
 98
        1
 10
0.0
 20
0.0
  0
CIRCLE
  5
163
100
AcDbEntity
  8
PART_HOLES_LAYER_TOP
100
AcDbCircle
 10
62.5
 20
27.38
 30
0.0
 40
0.45
  0
HATCH
  5
164
100
AcDbEntity
  8
PART_HOLES_LAYER_TOP
100
AcDbHatch
 10
0.0
 20
0.0
 30
0.0
210
0.0
220
0.0
230
1.0
  2
SOLID
 70
         1
 71
         1
 91
        1
 92
        1
 93
        1
 72
         2
 10
62.5
 20
27.379999999999999
 40
0.45
 50
0.0
 51
360.0
 73
         1
 97
        1
330
163
 75
         0
 76
         1
 98
        1
 10
0.0
 20
0.0
  0
CIRCLE
  5
165
100
AcDbEntity
  8
PART_HOLES_LAYER_TOP
100
AcDbCircle
 10
65.04
 20
27.38
 30
0.0
 40
0.45
  0
HATCH
  5
166
100
AcDbEntity
  8
PART_HOLES_LAYER_TOP
100
AcDbHatch
 10
0.0
 20
0.0
 30
0.0
210
0.0
220
0.0
230
1.0
  2
SOLID
 70
         1
 71
         1
 91
        1
 92
        1
 93
        1
 72
         2
 10
65.040000000000006
 20
27.379999999999999
 40
0.45
 50
0.0
 51
360.0
 73
         1
 97
        1
330
165
 75
         0
 76
         1
 98
        1
 10
0.0
 20
0.0
  0
CIRCLE
  5
167
100
AcDbEntity
  8
PART_HOLES_LAYER_TOP
100
AcDbCircle
 10
62.5
 20
24.84
 30
0.0
 40
0.45
  0
HATCH
  5
168
100
AcDbEntity
  8
PART_HOLES_LAYER_TOP
100
AcDbHatch
 10
0.0
 20
0.0
 30
0.0
210
0.0
220
0.0
230
1.0
  2
SOLID
 70
         1
 71
         1
 91
        1
 92
        1
 93
        1
 72
         2
 10
62.5
 20
24.84
 40
0.45
 50
0.0
 51
360.0
 73
         1
 97
        1
330
167
 75
         0
 76
         1
 98
        1
 10
0.0
 20
0.0
  0
CIRCLE
  5
169
100
AcDbEntity
  8
PART_HOLES_LAYER_TOP
100
AcDbCircle
 10
65.04
 20
24.84
 30
0.0
 40
0.45
  0
HATCH
  5
16A
100
AcDbEntity
  8
PART_HOLES_LAYER_TOP
100
AcDbHatch
 10
0.0
 20
0.0
 30
0.0
210
0.0
220
0.0
230
1.0
  2
SOLID
 70
         1
 71
         1
 91
        1
 92
        1
 93
        1
 72
         2
 10
65.040000000000006
 20
24.84
 40
0.45
 50
0.0
 51
360.0
 73
         1
 97
        1
330
169
 75
         0
 76
         1
 98
        1
 10
0.0
 20
0.0
  0
CIRCLE
  5
16B
100
AcDbEntity
  8
PART_HOLES_LAYER_TOP
100
AcDbCircle
 10
62.5
 20
22.3
 30
0.0
 40
0.45
  0
HATCH
  5
16C
100
AcDbEntity
  8
PART_HOLES_LAYER_TOP
100
AcDbHatch
 10
0.0
 20
0.0
 30
0.0
210
0.0
220
0.0
230
1.0
  2
SOLID
 70
         1
 71
         1
 91
        1
 92
        1
 93
        1
 72
         2
 10
62.5
 20
22.300000000000001
 40
0.45
 50
0.0
 51
360.0
 73
         1
 97
        1
330
16B
 75
         0
 76
         1
 98
        1
 10
0.0
 20
0.0
  0
CIRCLE
  5
16D
100
AcDbEntity
  8
PART_HOLES_LAYER_TOP
100
AcDbCircle
 10
65.04
 20
22.3
 30
0.0
 40
0.45
  0
HATCH
  5
16E
100
AcDbEntity
  8
PART_HOLES_LAYER_TOP
100
AcDbHatch
 10
0.0
 20
0.0
 30
0.0
210
0.0
220
0.0
230
1.0
  2
SOLID
 70
         1
 71
         1
 91
        1
 92
        1
 93
        1
 72
         2
 10
65.040000000000006
 20
22.300000000000001
 40
0.45
 50
0.0
 51
360.0
 73
         1
 97
        1
330
16D
 75
         0
 76
         1
 98
        1
 10
0.0
 20
0.0
  0
CIRCLE
  5
16F
100
AcDbEntity
  8
PART_HOLES_LAYER_TOP
100
AcDbCircle
 10
62.5
 20
19.76
 30
0.0
 40
0.45
  0
HATCH
  5
170
100
AcDbEntity
  8
PART_HOLES_LAYER_TOP
100
AcDbHatch
 10
0.0
 20
0.0
 30
0.0
210
0.0
220
0.0
230
1.0
  2
SOLID
 70
         1
 71
         1
 91
        1
 92
        1
 93
        1
 72
         2
 10
62.5
 20
19.760000000000002
 40
0.45
 50
0.0
 51
360.0
 73
         1
 97
        1
330
16F
 75
         0
 76
         1
 98
        1
 10
0.0
 20
0.0
  0
CIRCLE
  5
171
100
AcDbEntity
  8
PART_HOLES_LAYER_TOP
100
AcDbCircle
 10
65.04
 20
19.76
 30
0.0
 40
0.45
  0
HATCH
  5
172
100
AcDbEntity
  8
PART_HOLES_LAYER_TOP
100
AcDbHatch
 10
0.0
 20
0.0
 30
0.0
210
0.0
220
0.0
230
1.0
  2
SOLID
 70
         1
 71
         1
 91
        1
 92
        1
 93
        1
 72
         2
 10
65.040000000000006
 20
19.760000000000002
 40
0.45
 50
0.0
 51
360.0
 73
         1
 97
        1
330
171
 75
         0
 76
         1
 98
        1
 10
0.0
 20
0.0
  0
CIRCLE
  5
173
100
AcDbEntity
  8
PART_HOLES_LAYER_TOP
100
AcDbCircle
 10
62.5
 20
17.22
 30
0.0
 40
0.45
  0
HATCH
  5
174
100
AcDbEntity
  8
PART_HOLES_LAYER_TOP
100
AcDbHatch
 10
0.0
 20
0.0
 30
0.0
210
0.0
220
0.0
230
1.0
  2
SOLID
 70
         1
 71
         1
 91
        1
 92
        1
 93
        1
 72
         2
 10
62.5
 20
17.219999999999999
 40
0.45
 50
0.0
 51
360.0
 73
         1
 97
        1
330
173
 75
         0
 76
         1
 98
        1
 10
0.0
 20
0.0
  0
CIRCLE
  5
175
100
AcDbEntity
  8
PART_HOLES_LAYER_TOP
100
AcDbCircle
 10
65.04
 20
17.22
 30
0.0
 40
0.45
  0
HATCH
  5
176
100
AcDbEntity
  8
PART_HOLES_LAYER_TOP
100
AcDbHatch
 10
0.0
 20
0.0
 30
0.0
210
0.0
220
0.0
230
1.0
  2
SOLID
 70
         1
 71
         1
 91
        1
 92
        1
 93
        1
 72
         2
 10
65.040000000000006
 20
17.219999999999999
 40
0.45
 50
0.0
 51
360.0
 73
         1
 97
        1
330
175
 75
         0
 76
         1
 98
        1
 10
0.0
 20
0.0
  0
CIRCLE
  5
177
100
AcDbEntity
  8
PART_HOLES_LAYER_TOP
100
AcDbCircle
 10
62.5
 20
14.68
 30
0.0
 40
0.45
  0
HATCH
  5
178
100
AcDbEntity
  8
PART_HOLES_LAYER_TOP
100
AcDbHatch
 10
0.0
 20
0.0
 30
0.0
210
0.0
220
0.0
230
1.0
  2
SOLID
 70
         1
 71
         1
 91
        1
 92
        1
 93
        1
 72
         2
 10
62.5
 20
14.68
 40
0.45
 50
0.0
 51
360.0
 73
         1
 97
        1
330
177
 75
         0
 76
         1
 98
        1
 10
0.0
 20
0.0
  0
CIRCLE
  5
179
100
AcDbEntity
  8
PART_HOLES_LAYER_TOP
100
AcDbCircle
 10
65.04
 20
14.68
 30
0.0
 40
0.45
  0
HATCH
  5
17A
100
AcDbEntity
  8
PART_HOLES_LAYER_TOP
100
AcDbHatch
 10
0.0
 20
0.0
 30
0.0
210
0.0
220
0.0
230
1.0
  2
SOLID
 70
         1
 71
         1
 91
        1
 92
        1
 93
        1
 72
         2
 10
65.040000000000006
 20
14.68
 40
0.45
 50
0.0
 51
360.0
 73
         1
 97
        1
330
179
 75
         0
 76
         1
 98
        1
 10
0.0
 20
0.0
  0
CIRCLE
  5
17B
100
AcDbEntity
  8
PART_HOLES_LAYER_TOP
100
AcDbCircle
 10
62.5
 20
12.14
 30
0.0
 40
0.45
  0
HATCH
  5
17C
100
AcDbEntity
  8
PART_HOLES_LAYER_TOP
100
AcDbHatch
 10
0.0
 20
0.0
 30
0.0
210
0.0
220
0.0
230
1.0
  2
SOLID
 70
         1
 71
         1
 91
        1
 92
        1
 93
        1
 72
         2
 10
62.5
 20
12.140000000000001
 40
0.45
 50
0.0
 51
360.0
 73
         1
 97
        1
330
17B
 75
         0
 76
         1
 98
        1
 10
0.0
 20
0.0
  0
CIRCLE
  5
17D
100
AcDbEntity
  8
PART_HOLES_LAYER_TOP
100
AcDbCircle
 10
65.04
 20
12.14
 30
0.0
 40
0.45
  0
HATCH
  5
17E
100
AcDbEntity
  8
PART_HOLES_LAYER_TOP
100
AcDbHatch
 10
0.0
 20
0.0
 30
0.0
210
0.0
220
0.0
230
1.0
  2
SOLID
 70
         1
 71
         1
 91
        1
 92
        1
 93
        1
 72
         2
 10
65.040000000000006
 20
12.140000000000001
 40
0.45
 50
0.0
 51
360.0
 73
         1
 97
        1
330
17D
 75
         0
 76
         1
 98
        1
 10
0.0
 20
0.0
  0
CIRCLE
  5
17F
100
AcDbEntity
  8
PART_HOLES_LAYER_TOP
100
AcDbCircle
 10
73.935
 20
-2.85
 30
0.0
 40
0.45
  0
HATCH
  5
180
100
AcDbEntity
  8
PART_HOLES_LAYER_TOP
100
AcDbHatch
 10
0.0
 20
0.0
 30
0.0
210
0.0
220
0.0
230
1.0
  2
SOLID
 70
         1
 71
         1
 91
        1
 92
        1
 93
        1
 72
         2
 10
73.935000000000002
 20
-2.8500000000000001
 40
0.45
 50
0.0
 51
360.0
 73
         1
 97
        1
330
17F
 75
         0
 76
         1
 98
        1
 10
0.0
 20
0.0
  0
CIRCLE
  5
181
100
AcDbEntity
  8
PART_HOLES_LAYER_TOP
100
AcDbCircle
 10
72.665
 20
-0.31
 30
0.0
 40
0.45
  0
HATCH
  5
182
100
AcDbEntity
  8
PART_HOLES_LAYER_TOP
100
AcDbHatch
 10
0.0
 20
0.0
 30
0.0
210
0.0
220
0.0
230
1.0
  2
SOLID
 70
         1
 71
         1
 91
        1
 92
        1
 93
        1
 72
         2
 10
72.665000000000006
 20
-0.31
 40
0.45
 50
0.0
 51
360.0
 73
         1
 97
        1
330
181
 75
         0
 76
         1
 98
        1
 10
0.0
 20
0.0
  0
CIRCLE
  5
183
100
AcDbEntity
  8
PART_HOLES_LAYER_TOP
100
AcDbCircle
 10
81.17
 20
-6.15
 30
0.0
 40
0.95
  0
HATCH
  5
184
100
AcDbEntity
  8
PART_HOLES_LAYER_TOP
100
AcDbHatch
 10
0.0
 20
0.0
 30
0.0
210
0.0
220
0.0
230
1.0
  2
SOLID
 70
         1
 71
         1
 91
        1
 92
        1
 93
        1
 72
         2
 10
81.170000000000002
 20
-6.1500000000000004
 40
0.95
 50
0.0
 51
360.0
 73
         1
 97
        1
330
183
 75
         0
 76
         1
 98
        1
 10
0.0
 20
0.0
  0
CIRCLE
  5
185
100
AcDbEntity
  8
PART_HOLES_LAYER_TOP
100
AcDbCircle
 10
70.38
 20
4.52
 30
0.0
 40
0.75
  0
HATCH
  5
186
100
AcDbEntity
  8
PART_HOLES_LAYER_TOP
100
AcDbHatch
 10
0.0
 20
0.0
 30
0.0
210
0.0
220
0.0
230
1.0
  2
SOLID
 70
         1
 71
         1
 91
        1
 92
        1
 93
        1
 72
         2
 10
70.379999999999995
 20
4.5199999999999996
 40
0.75
 50
0.0
 51
360.0
 73
         1
 97
        1
330
185
 75
         0
 76
         1
 98
        1
 10
0.0
 20
0.0
  0
CIRCLE
  5
187
100
AcDbEntity
  8
PART_HOLES_LAYER_TOP
100
AcDbCircle
 10
69.51
 20
-12.58
 30
0.0
 40
0.6
  0
HATCH
  5
188
100
AcDbEntity
  8
PART_HOLES_LAYER_TOP
100
AcDbHatch
 10
0.0
 20
0.0
 30
0.0
210
0.0
220
0.0
230
1.0
  2
SOLID
 70
         1
 71
         1
 91
        1
 92
        1
 93
        1
 72
         2
 10
69.510000000000005
 20
-12.58
 40
0.6
 50
0.0
 51
360.0
 73
         1
 97
        1
330
187
 75
         0
 76
         1
 98
        1
 10
0.0
 20
0.0
  0
CIRCLE
  5
189
100
AcDbEntity
  8
PART_HOLES_LAYER_TOP
100
AcDbCircle
 10
76.22
 20
4.52
 30
0.0
 40
0.75
  0
HATCH
  5
18A
100
AcDbEntity
  8
PART_HOLES_LAYER_TOP
100
AcDbHatch
 10
0.0
 20
0.0
 30
0.0
210
0.0
220
0.0
230
1.0
  2
SOLID
 70
         1
 71
         1
 91
        1
 92
        1
 93
        1
 72
         2
 10
76.219999999999999
 20
4.5199999999999996
 40
0.75
 50
0.0
 51
360.0
 73
         1
 97
        1
330
189
 75
         0
 76
         1
 98
        1
 10
0.0
 20
0.0
  0
CIRCLE
  5
18B
100
AcDbEntity
  8
PART_HOLES_LAYER_TOP
100
AcDbCircle
 10
77.09
 20
-14.28
 30
0.0
 40
0.6
  0
HATCH
  5
18C
100
AcDbEntity
  8
PART_HOLES_LAYER_TOP
100
AcDbHatch
 10
0.0
 20
0.0
 30
0.0
210
0.0
220
0.0
230
1.0
  2
SOLID
 70
         1
 71
         1
 91
        1
 92
        1
 93
        1
 72
         2
 10
77.090000000000003
 20
-14.279999999999999
 40
0.6
 50
0.0
 51
360.0
 73
         1
 97
        1
330
18B
 75
         0
 76
         1
 98
        1
 10
0.0
 20
0.0
  0
CIRCLE
  5
18D
100
AcDbEntity
  8
PART_HOLES_LAYER_TOP
100
AcDbCircle
 10
65.43
 20
-6.15
 30
0.0
 40
0.95
  0
HATCH
  5
18E
100
AcDbEntity
  8
PART_HOLES_LAYER_TOP
100
AcDbHatch
 10
0.0
 20
0.0
 30
0.0
210
0.0
220
0.0
230
1.0
  2
SOLID
 70
         1
 71
         1
 91
        1
 92
        1
 93
        1
 72
         2
 10
65.430000000000007
 20
-6.1500000000000004
 40
0.95
 50
0.0
 51
360.0
 73
         1
 97
        1
330
18D
 75
         0
 76
         1
 98
        1
 10
0.0
 20
0.0
  0
CIRCLE
  5
18F
100
AcDbEntity
  8
PART_HOLES_LAYER_TOP
100
AcDbCircle
 10
66.97
 20
-14.28
 30
0.0
 40
0.6
  0
HATCH
  5
190
100
AcDbEntity
  8
PART_HOLES_LAYER_TOP
100
AcDbHatch
 10
0.0
 20
0.0
 30
0.0
210
0.0
220
0.0
230
1.0
  2
SOLID
 70
         1
 71
         1
 91
        1
 92
        1
 93
        1
 72
         2
 10
66.969999999999999
 20
-14.279999999999999
 40
0.6
 50
0.0
 51
360.0
 73
         1
 97
        1
330
18F
 75
         0
 76
         1
 98
        1
 10
0.0
 20
0.0
  0
CIRCLE
  5
191
100
AcDbEntity
  8
PART_HOLES_LAYER_TOP
100
AcDbCircle
 10
67.84
 20
4.52
 30
0.0
 40
0.75
  0
HATCH
  5
192
100
AcDbEntity
  8
PART_HOLES_LAYER_TOP
100
AcDbHatch
 10
0.0
 20
0.0
 30
0.0
210
0.0
220
0.0
230
1.0
  2
SOLID
 70
         1
 71
         1
 91
        1
 92
        1
 93
        1
 72
         2
 10
67.840000000000003
 20
4.5199999999999996
 40
0.75
 50
0.0
 51
360.0
 73
         1
 97
        1
330
191
 75
         0
 76
         1
 98
        1
 10
0.0
 20
0.0
  0
CIRCLE
  5
193
100
AcDbEntity
  8
PART_HOLES_LAYER_TOP
100
AcDbCircle
 10
79.63
 20
-12.58
 30
0.0
 40
0.6
  0
HATCH
  5
194
100
AcDbEntity
  8
PART_HOLES_LAYER_TOP
100
AcDbHatch
 10
0.0
 20
0.0
 30
0.0
210
0.0
220
0.0
230
1.0
  2
SOLID
 70
         1
 71
         1
 91
        1
 92
        1
 93
        1
 72
         2
 10
79.629999999999995
 20
-12.58
 40
0.6
 50
0.0
 51
360.0
 73
         1
 97
        1
330
193
 75
         0
 76
         1
 98
        1
 10
0.0
 20
0.0
  0
CIRCLE
  5
195
100
AcDbEntity
  8
PART_HOLES_LAYER_TOP
100
AcDbCircle
 10
78.76
 20
4.52
 30
0.0
 40
0.75
  0
HATCH
  5
196
100
AcDbEntity
  8
PART_HOLES_LAYER_TOP
100
AcDbHatch
 10
0.0
 20
0.0
 30
0.0
210
0.0
220
0.0
230
1.0
  2
SOLID
 70
         1
 71
         1
 91
        1
 92
        1
 93
        1
 72
         2
 10
78.760000000000005
 20
4.5199999999999996
 40
0.75
 50
0.0
 51
360.0
 73
         1
 97
        1
330
195
 75
         0
 76
         1
 98
        1
 10
0.0
 20
0.0
  0
CIRCLE
  5
197
100
AcDbEntity
  8
PART_HOLES_LAYER_TOP
100
AcDbCircle
 10
71.395
 20
-2.85
 30
0.0
 40
0.45
  0
HATCH
  5
198
100
AcDbEntity
  8
PART_HOLES_LAYER_TOP
100
AcDbHatch
 10
0.0
 20
0.0
 30
0.0
210
0.0
220
0.0
230
1.0
  2
SOLID
 70
         1
 71
         1
 91
        1
 92
        1
 93
        1
 72
         2
 10
71.394999999999996
 20
-2.8500000000000001
 40
0.45
 50
0.0
 51
360.0
 73
         1
 97
        1
330
197
 75
         0
 76
         1
 98
        1
 10
0.0
 20
0.0
  0
CIRCLE
  5
199
100
AcDbEntity
  8
PART_HOLES_LAYER_TOP
100
AcDbCircle
 10
75.205
 20
-0.31
 30
0.0
 40
0.45
  0
HATCH
  5
19A
100
AcDbEntity
  8
PART_HOLES_LAYER_TOP
100
AcDbHatch
 10
0.0
 20
0.0
 30
0.0
210
0.0
220
0.0
230
1.0
  2
SOLID
 70
         1
 71
         1
 91
        1
 92
        1
 93
        1
 72
         2
 10
75.204999999999998
 20
-0.31
 40
0.45
 50
0.0
 51
360.0
 73
         1
 97
        1
330
199
 75
         0
 76
         1
 98
        1
 10
0.0
 20
0.0
  0
CIRCLE
  5
19B
100
AcDbEntity
  8
PART_HOLES_LAYER_TOP
100
AcDbCircle
 10
77.745
 20
-0.31
 30
0.0
 40
0.45
  0
HATCH
  5
19C
100
AcDbEntity
  8
PART_HOLES_LAYER_TOP
100
AcDbHatch
 10
0.0
 20
0.0
 30
0.0
210
0.0
220
0.0
230
1.0
  2
SOLID
 70
         1
 71
         1
 91
        1
 92
        1
 93
        1
 72
         2
 10
77.745000000000005
 20
-0.31
 40
0.45
 50
0.0
 51
360.0
 73
         1
 97
        1
330
19B
 75
         0
 76
         1
 98
        1
 10
0.0
 20
0.0
  0
CIRCLE
  5
19D
100
AcDbEntity
  8
PART_HOLES_LAYER_TOP
100
AcDbCircle
 10
76.475
 20
-2.85
 30
0.0
 40
0.45
  0
HATCH
  5
19E
100
AcDbEntity
  8
PART_HOLES_LAYER_TOP
100
AcDbHatch
 10
0.0
 20
0.0
 30
0.0
210
0.0
220
0.0
230
1.0
  2
SOLID
 70
         1
 71
         1
 91
        1
 92
        1
 93
        1
 72
         2
 10
76.474999999999994
 20
-2.8500000000000001
 40
0.45
 50
0.0
 51
360.0
 73
         1
 97
        1
330
19D
 75
         0
 76
         1
 98
        1
 10
0.0
 20
0.0
  0
CIRCLE
  5
19F
100
AcDbEntity
  8
PART_HOLES_LAYER_TOP
100
AcDbCircle
 10
70.125
 20
-0.31
 30
0.0
 40
0.45
  0
HATCH
  5
1A0
100
AcDbEntity
  8
PART_HOLES_LAYER_TOP
100
AcDbHatch
 10
0.0
 20
0.0
 30
0.0
210
0.0
220
0.0
230
1.0
  2
SOLID
 70
         1
 71
         1
 91
        1
 92
        1
 93
        1
 72
         2
 10
70.125
 20
-0.31
 40
0.45
 50
0.0
 51
360.0
 73
         1
 97
        1
330
19F
 75
         0
 76
         1
 98
        1
 10
0.0
 20
0.0
  0
CIRCLE
  5
1A1
100
AcDbEntity
  8
PART_HOLES_LAYER_TOP
100
AcDbCircle
 10
68.855
 20
-2.85
 30
0.0
 40
0.45
  0
HATCH
  5
1A2
100
AcDbEntity
  8
PART_HOLES_LAYER_TOP
100
AcDbHatch
 10
0.0
 20
0.0
 30
0.0
210
0.0
220
0.0
230
1.0
  2
SOLID
 70
         1
 71
         1
 91
        1
 92
        1
 93
        1
 72
         2
 10
68.855000000000004
 20
-2.8500000000000001
 40
0.45
 50
0.0
 51
360.0
 73
         1
 97
        1
330
1A1
 75
         0
 76
         1
 98
        1
 10
0.0
 20
0.0
  0
CIRCLE
  5
1A3
100
AcDbEntity
  8
PART_HOLES_LAYER_TOP
100
AcDbCircle
 10
78.6
 20
55.299998
 30
0.0
 40
1.4
  0
HATCH
  5
1A4
100
AcDbEntity
  8
PART_HOLES_LAYER_TOP
100
AcDbHatch
 10
0.0
 20
0.0
 30
0.0
210
0.0
220
0.0
230
1.0
  2
SOLID
 70
         1
 71
         1
 91
        1
 92
        1
 93
        1
 72
         2
 10
78.599999999999994
 20
55.299998000000002
 40
1.3999999999999999
 50
0.0
 51
360.0
 73
         1
 97
        1
330
1A3
 75
         0
 76
         1
 98
        1
 10
0.0
 20
0.0
  0
CIRCLE
  5
1A5
100
AcDbEntity
  8
PART_HOLES_LAYER_TOP
100
AcDbCircle
 10
73.9
 20
52.3
 30
0.0
 40
1.4
  0
HATCH
  5
1A6
100
AcDbEntity
  8
PART_HOLES_LAYER_TOP
100
AcDbHatch
 10
0.0
 20
0.0
 30
0.0
210
0.0
220
0.0
230
1.0
  2
SOLID
 70
         1
 71
         1
 91
        1
 92
        1
 93
        1
 72
         2
 10
73.900000000000006
 20
52.299999999999997
 40
1.3999999999999999
 50
0.0
 51
360.0
 73
         1
 97
        1
330
1A5
 75
         0
 76
         1
 98
        1
 10
0.0
 20
0.0
  0
CIRCLE
  5
1A7
100
AcDbEntity
  8
PART_HOLES_LAYER_TOP
100
AcDbCircle
 10
78.6
 20
49.099998
 30
0.0
 40
1.4
  0
HATCH
  5
1A8
100
AcDbEntity
  8
PART_HOLES_LAYER_TOP
100
AcDbHatch
 10
0.0
 20
0.0
 30
0.0
210
0.0
220
0.0
230
1.0
  2
SOLID
 70
         1
 71
         1
 91
        1
 92
        1
 93
        1
 72
         2
 10
78.599999999999994
 20
49.099997999999999
 40
1.3999999999999999
 50
0.0
 51
360.0
 73
         1
 97
        1
330
1A7
 75
         0
 76
         1
 98
        1
 10
0.0
 20
0.0
  0
CIRCLE
  5
1A9
100
AcDbEntity
  8
PART_HOLES_LAYER_TOP
100
AcDbCircle
 10
27.44
 20
-9.2
 30
0.0
 40
0.45
  0
HATCH
  5
1AA
100
AcDbEntity
  8
PART_HOLES_LAYER_TOP
100
AcDbHatch
 10
0.0
 20
0.0
 30
0.0
210
0.0
220
0.0
230
1.0
  2
SOLID
 70
         1
 71
         1
 91
        1
 92
        1
 93
        1
 72
         2
 10
27.440000000000001
 20
-9.1999999999999993
 40
0.45
 50
0.0
 51
360.0
 73
         1
 97
        1
330
1A9
 75
         0
 76
         1
 98
        1
 10
0.0
 20
0.0
  0
CIRCLE
  5
1AB
100
AcDbEntity
  8
PART_HOLES_LAYER_TOP
100
AcDbCircle
 10
24.9
 20
-9.2
 30
0.0
 40
0.45
  0
HATCH
  5
1AC
100
AcDbEntity
  8
PART_HOLES_LAYER_TOP
100
AcDbHatch
 10
0.0
 20
0.0
 30
0.0
210
0.0
220
0.0
230
1.0
  2
SOLID
 70
         1
 71
         1
 91
        1
 92
        1
 93
        1
 72
         2
 10
24.899999999999999
 20
-9.1999999999999993
 40
0.45
 50
0.0
 51
360.0
 73
         1
 97
        1
330
1AB
 75
         0
 76
         1
 98
        1
 10
0.0
 20
0.0
  0
CIRCLE
  5
1AD
100
AcDbEntity
  8
PART_HOLES_LAYER_TOP
100
AcDbCircle
 10
30.4
 20
3.08
 30
0.0
 40
1.4
  0
HATCH
  5
1AE
100
AcDbEntity
  8
PART_HOLES_LAYER_TOP
100
AcDbHatch
 10
0.0
 20
0.0
 30
0.0
210
0.0
220
0.0
230
1.0
  2
SOLID
 70
         1
 71
         1
 91
        1
 92
        1
 93
        1
 72
         2
 10
30.399999999999999
 20
3.0800000000000001
 40
1.3999999999999999
 50
0.0
 51
360.0
 73
         1
 97
        1
330
1AD
 75
         0
 76
         1
 98
        1
 10
0.0
 20
0.0
  0
CIRCLE
  5
1AF
100
AcDbEntity
  8
PART_HOLES_LAYER_TOP
100
AcDbCircle
 10
30.4
 20
-7.08
 30
0.0
 40
1.4
  0
HATCH
  5
1B0
100
AcDbEntity
  8
PART_HOLES_LAYER_TOP
100
AcDbHatch
 10
0.0
 20
0.0
 30
0.0
210
0.0
220
0.0
230
1.0
  2
SOLID
 70
         1
 71
         1
 91
        1
 92
        1
 93
        1
 72
         2
 10
30.399999999999999
 20
-7.0800000000000001
 40
1.3999999999999999
 50
0.0
 51
360.0
 73
         1
 97
        1
330
1AF
 75
         0
 76
         1
 98
        1
 10
0.0
 20
0.0
  0
CIRCLE
  5
1B1
100
AcDbEntity
  8
PART_HOLES_LAYER_TOP
100
AcDbCircle
 10
25.32
 20
-2.0
 30
0.0
 40
1.4
  0
HATCH
  5
1B2
100
AcDbEntity
  8
PART_HOLES_LAYER_TOP
100
AcDbHatch
 10
0.0
 20
0.0
 30
0.0
210
0.0
220
0.0
230
1.0
  2
SOLID
 70
         1
 71
         1
 91
        1
 92
        1
 93
        1
 72
         2
 10
25.32
 20
-2.0
 40
1.3999999999999999
 50
0.0
 51
360.0
 73
         1
 97
        1
330
1B1
 75
         0
 76
         1
 98
        1
 10
0.0
 20
0.0
  0
CIRCLE
  5
1B3
100
AcDbEntity
  8
PART_HOLES_LAYER_TOP
100
AcDbCircle
 10
30.4
 20
-2.0
 30
0.0
 40
1.4
  0
HATCH
  5
1B4
100
AcDbEntity
  8
PART_HOLES_LAYER_TOP
100
AcDbHatch
 10
0.0
 20
0.0
 30
0.0
210
0.0
220
0.0
230
1.0
  2
SOLID
 70
         1
 71
         1
 91
        1
 92
        1
 93
        1
 72
         2
 10
30.399999999999999
 20
-2.0
 40
1.3999999999999999
 50
0.0
 51
360.0
 73
         1
 97
        1
330
1B3
 75
         0
 76
         1
 98
        1
 10
0.0
 20
0.0
  0
CIRCLE
  5
1B5
100
AcDbEntity
  8
PART_HOLES_LAYER_TOP
100
AcDbCircle
 10
31.2
 20
-14.7
 30
0.0
 40
0.45
  0
HATCH
  5
1B6
100
AcDbEntity
  8
PART_HOLES_LAYER_TOP
100
AcDbHatch
 10
0.0
 20
0.0
 30
0.0
210
0.0
220
0.0
230
1.0
  2
SOLID
 70
         1
 71
         1
 91
        1
 92
        1
 93
        1
 72
         2
 10
31.199999999999999
 20
-14.699999999999999
 40
0.45
 50
0.0
 51
360.0
 73
         1
 97
        1
330
1B5
 75
         0
 76
         1
 98
        1
 10
0.0
 20
0.0
  0
CIRCLE
  5
1B7
100
AcDbEntity
  8
PART_HOLES_LAYER_TOP
100
AcDbCircle
 10
26.8
 20
-14.7
 30
0.0
 40
0.45
  0
HATCH
  5
1B8
100
AcDbEntity
  8
PART_HOLES_LAYER_TOP
100
AcDbHatch
 10
0.0
 20
0.0
 30
0.0
210
0.0
220
0.0
230
1.0
  2
SOLID
 70
         1
 71
         1
 91
        1
 92
        1
 93
        1
 72
         2
 10
26.800000000000001
 20
-14.699999999999999
 40
0.45
 50
0.0
 51
360.0
 73
         1
 97
        1
330
1B7
 75
         0
 76
         1
 98
        1
 10
0.0
 20
0.0
  0
ENDSEC
  0
SECTION
  2
OBJECTS
  0
DICTIONARY
  5
19
100
AcDbDictionary
  3
ACAD_GROUP
350
1A
  3
ACAD_MLINESTYLE
350
1B
  0
DICTIONARY
  5
1A
102
{ACAD_REACTORS
330
19
102
}
100
AcDbDictionary
  0
DICTIONARY
  5
1B
102
{ACAD_REACTORS
330
19
102
}
100
AcDbDictionary
  3
STANDARD
350
1C
  0
MLINESTYLE
  5
1C
102
{ACAD_REACTORS
330
1B
102
}
100
AcDbMlineStyle
  2
STANDARD
 70
         0
  3

 62
         0
 51
90.0
 52
90.0
 71
         2
 49
0.5
 62
       256
  6
BYLAYER
 49
-0.5
 62
       256
  6
BYLAYER
  0
DICTIONARY
  5
22
102
{ACAD_REACTORS
330
19
102
}
100
AcDbDictionary
  0
ENDSEC
  0
EOF
