  0
SECTION
  2
HEADER
  9
$ACADVER
  1
AC1014
  9
$ACADMAINTVER
 70
         0
  9
$DWGCODEPAGE
  3
ANSI_1252
  9
$INSBASE
 10
0.0
 20
0.0
 30
0.0
  9
$EXTMIN
 10
-9.2096
 20
-11.418221
 30
0.0
  9
$EXTMAX
 10
194.0096
 20
108.539209
 30
0.0
  9
$LIMMIN
 10
0.0
 20
0.0
  9
$LIMMAX
 10
0.0
 20
0.0
  9
$ORTHOMODE
 70
         0
  9
$REGENMODE
 70
         1
  9
$FILLMODE
 70
         1
  9
$QTEXTMODE
 70
         0
  9
$MIRRTEXT
 70
         1
  9
$DRAGMODE
 70
         2
  9
$LTSCALE
 40
1.0
  9
$OSMODE
 70
         0
  9
$ATTMODE
 70
         1
  9
$TEXTSIZE
 40
0.2
  9
$TRACEWID
 40
0.05
  9
$TEXTSTYLE
  7
STANDARD
  9
$CLAYER
  8
0
  9
$CELTYPE
  6
CONTINUOUS
  9
$CECOLOR
 62
       256
  9
$CELTSCALE
 40
1.0
  9
$DELOBJ
 70
         1
  9
$DISPSILH
 70
         0
  9
$DIMSCALE
 40
1.0
  9
$DIMASZ
 40
0.18
  9
$DIMEXO
 40
0.0625
  9
$DIMDLI
 40
0.38
  9
$DIMRND
 40
0.0
  9
$DIMDLE
 40
0.0
  9
$DIMEXE
 40
0.18
  9
$DIMTP
 40
0.0
  9
$DIMTM
 40
0.0
  9
$DIMTXT
 40
0.18
  9
$DIMCEN
 40
0.09
  9
$DIMTSZ
 40
0.0
  9
$DIMTOL
 70
         0
  9
$DIMLIM
 70
         0
  9
$DIMTIH
 70
         1
  9
$DIMTOH
 70
         1
  9
$DIMSE1
 70
         0
  9
$DIMSE2
 70
         0
  9
$DIMTAD
 70
         0
  9
$DIMZIN
 70
         0
  9
$DIMBLK
  1

  9
$DIMASO
 70
         1
  9
$DIMSHO
 70
         1
  9
$DIMPOST
  1

  9
$DIMAPOST
  1

  9
$DIMALT
 70
         0
  9
$DIMALTD
 70
         2
  9
$DIMALTF
 40
25.4
  9
$DIMLFAC
 40
1.0
  9
$DIMTOFL
 70
         0
  9
$DIMTVP
 40
0.0
  9
$DIMTIX
 70
         0
  9
$DIMSOXD
 70
         0
  9
$DIMSAH
 70
         0
  9
$DIMBLK1
  1

  9
$DIMBLK2
  1

  9
$DIMSTYLE
  2
STANDARD
  9
$DIMCLRD
 70
         0
  9
$DIMCLRE
 70
         0
  9
$DIMCLRT
 70
         0
  9
$DIMTFAC
 40
1.0
  9
$DIMGAP
 40
0.09
  9
$DIMJUST
 70
         0
  9
$DIMSD1
 70
         0
  9
$DIMSD2
 70
         0
  9
$DIMTOLJ
 70
         1
  9
$DIMTZIN
 70
         0
  9
$DIMALTZ
 70
         0
  9
$DIMALTTZ
 70
         0
  9
$DIMFIT
 70
         3
  9
$DIMUPT
 70
         0
  9
$DIMUNIT
 70
         2
  9
$DIMDEC
 70
         4
  9
$DIMTDEC
 70
         4
  9
$DIMALTU
 70
         2
  9
$DIMALTTD
 70
         2
  9
$DIMTXSTY
  7
STANDARD
  9
$DIMAUNIT
 70
         0
  9
$LUNITS
 70
         2
  9
$LUPREC
 70
         4
  9
$SKETCHINC
 40
0.1
  9
$FILLETRAD
 40
0.0
  9
$AUNITS
 70
         0
  9
$AUPREC
 70
         0
  9
$MENU
  1
acad
  9
$ELEVATION
 40
0.0
  9
$PELEVATION
 40
0.0
  9
$THICKNESS
 40
0.0
  9
$LIMCHECK
 70
         0
  9
$BLIPMODE
 70
         1
  9
$CHAMFERA
 40
0.0
  9
$CHAMFERB
 40
0.0
  9
$CHAMFERC
 40
0.0
  9
$CHAMFERD
 40
0.0
  9
$SKPOLY
 70
         0
  9
$TDCREATE
 40
2457368.722754630
  9
$TDUPDATE
 40
0.000000000
  9
$TDINDWG
 40
0.0000000000
  9
$TDUSRTIMER
 40
0.0000000000
  9
$USRTIMER
 70
         1
  9
$ANGBASE
 50
0.0
  9
$ANGDIR
 70
         0
  9
$PDMODE
 70
         0
  9
$PDSIZE
 40
0.0
  9
$PLINEWID
 40
0.0
  9
$COORDS
 70
         0
  9
$SPLFRAME
 70
         0
  9
$SPLINETYPE
 70
         6
  9
$SPLINESEGS
 70
         8
  9
$ATTDIA
 70
         0
  9
$ATTREQ
 70
         1
  9
$HANDLING
 70
         1
  9
$HANDSEED
  5
563
  9
$SURFTAB1
 70
         6
  9
$SURFTAB2
 70
         6
  9
$SURFTYPE
 70
         6
  9
$SURFU
 70
         6
  9
$SURFV
 70
         6
  9
$UCSNAME
  2

  9
$UCSORG
 10
0.0
 20
0.0
 30
0.0
  9
$UCSXDIR
 10
1.0
 20
0.0
 30
0.0
  9
$UCSYDIR
 10
0.0
 20
1.0
 30
0.0
  9
$PUCSNAME
  2

  9
$PUCSORG
 10
0.0
 20
0.0
 30
0.0
  9
$PUCSXDIR
 10
1.0
 20
0.0
 30
0.0
  9
$PUCSYDIR
 10
0.0
 20
1.0
 30
0.0
  9
$USERI1
 70
        -3
  9
$USERI2
 70
         0
  9
$USERI3
 70
         0
  9
$USERI4
 70
         0
  9
$USERI5
 70
         0
  9
$USERR1
 40
0.0
  9
$USERR2
 40
0.0
  9
$USERR3
 40
0.0
  9
$USERR4
 40
0.0
  9
$USERR5
 40
0.0
  9
$WORLDVIEW
 70
         1
  9
$SHADEDGE
 70
         3
  9
$SHADEDIF
 70
        70
  9
$TILEMODE
 70
         1
  9
$MAXACTVP
 70
        16
  9
$PINSBASE
 10
0.0
 20
0.0
 30
0.0
  9
$PLIMCHECK
 70
         0
  9
$PEXTMIN
 10
1.0000000000E+20
 20
1.0000000000E+20
 30
1.0000000000E+20
  9
$PEXTMAX
 10
-1.0000000000E+20
 20
-1.0000000000E+20
 30
-1.0000000000E+20
  9
$PLIMMIN
 10
0.0
 20
0.0
  9
$PLIMMAX
 10
12.0
 20
9.0
  9
$UNITMODE
 70
         0
  9
$VISRETAIN
 70
         0
  9
$PLINEGEN
 70
         1
  9
$PSLTSCALE
 70
         0
  9
$TREEDEPTH
 70
      3020
  9
$PICKSTYLE
 70
         1
  9
$CMLSTYLE
  2
STANDARD
  9
$CMLJUST
 70
         0
  9
$CMLSCALE
 40
1.0
  9
$PROXYGRAPHICS
 70
         0
  9
$MEASUREMENT
 70
         0
  0
ENDSEC
  0
SECTION
  2
CLASSES
  0
CLASS
  1
LWPOLYLINE
  2
AcDbPolyline
  3
"AutoCAD"
 90
        0
280
         0
281
         1
  0
CLASS
  1
IMAGE
  2
AcDbRasterImage
  3
ISM
 90
      127
280
         0
281
         1
  0
CLASS
  1
OLE2FRAME
  2
AcDbOle2Frame
  3
""
 90
        0
280
         0
281
         1
  0
CLASS
  1
HATCH
  2
AcDbHatch
  3
"ACAD_SEDONA"
 90
        0
280
         0
281
         1
  0
CLASS
  1
DICTIONARYVAR
  2
AcDbDictionaryVar
  3
"AutoCAD"
 90
        0
280
         0
281
         0
  0
CLASS
  1
RASTERVARIABLES
  2
AcDbRasterVariables
  3
ISM
 90
        0
280
         0
281
         0
  0
CLASS
  1
IMAGEDEF
  2
AcDbRasterImageDef
  3
ISM
 90
        0
280
         0
281
         0
  0
CLASS
  1
IMAGEDEF_REACTOR
  2
AcDbRasterImageDefReactor
  3
ISM
 90
        1
280
         0
281
         0
  0
CLASS
  1
IDBUFFER
  2
AcDbIdBuffer
  3
"Acad"
 90
        0
280
         0
281
         0
  0
CLASS
  1
SPATIAL_FILTER
  2
AcDbSpatialFilter
  3
"Acad"
 90
        0
280
         0
281
         0
  0
CLASS
  1
XRECORD
  2
AcDbXrecord
  3
"<Built In>"
 90
        0
280
         0
281
         0
  0
CLASS
  1
SORTENTSTABLE
  2
AcDbSortentsTable
  3
"AutoCAD"
 90
        0
280
         0
281
         0
  0
CLASS
  1
LAYER_INDEX
  2
AcDbLayerIndex
  3
"Acad"
 90
        0
280
         0
281
         0
  0
CLASS
  1
SPATIAL_INDEX
  2
AcDbSpatialIndex
  3
"Acad"
 90
        0
280
         0
281
         0
  0
CLASS
  1
OBJECT_PTR
  2
CAseDLPNTableRecord
  3
"ASE-LPNTableRecord"
 90
        1
280
         0
281
         0
  0
CLASS
  1
LAYOUT
  2
AcDbLayout
  3
"AutoCAD 2000"
 90
        0
280
         0
281
         0
  0
CLASS
  1
PLOTSETTINGS
  2
AcDbPlotSettings
  3
"AutoCAD 2000"
 90
        0
280
         0
281
         0
  0
CLASS
  1
ACDBDICTIONARYWDFLT
  2
AcDbDictionaryWithDefault
  3
"AutoCAD 2000"
 90
        0
280
         0
281
         0
  0
CLASS
  1
ACDBPLACEHOLDER
  2
AcDbPlaceHolder
  3
"AutoCAD 2000"
 90
        0
280
         0
281
         0
  0
CLASS
  1
VBA_PROJECT
  2
AcDbVbaProject
  3
"acadvba"
 90
        0
280
         0
281
         0
  0
CLASS
  1
WIPEOUT
  2
AcDbWipeout
  3
WipeOut|AutoCAD Express Tool|expresstools@autodesk.com
 90
      127
280
         0
281
         1
  0
CLASS
  1
WIPEOUTVARIABLES
  2
AcDbWipeoutVariables
  3
WipeOut|AutoCAD Express Tool|expresstools@autodesk.com
 90
        0
280
         0
281
         0
  0
CLASS
  1
RTEXT
  2
RText
  3
RText|AutoCAD Express Tool|expresstools@autodesk.com
 90
        0
280
         0
281
         1
  0
CLASS
  1
ARCALIGNEDTEXT
  2
AcDbArcAlignedText
  3
ATEXT|AutoCAD Express Tool|expresstools@autodesk.com
 90
        0
280
         0
281
         1
  0
ENDSEC
  0
SECTION
  2
TABLES
  0
TABLE
  2
VPORT
  5
7
100
AcDbSymbolTable
 70
         1
  0
VPORT
  5
15
100
AcDbSymbolTableRecord
100
AcDbViewportTableRecord
  2
*ACTIVE
 70
         0
 10
0.0
 20
0.0
 11
1.0
 21
1.0
 12
6.591288
 22
4.579184
 13
0.0
 23
0.0
 14
1.0
 24
1.0
 15
0.0
 25
0.0
 16
0.0
 26
0.0
 36
1.0
 17
0.0
 27
0.0
 37
0.0
 40
9.158369
 41
0.688564
 42
50.0
 43
0.0
 44
0.0
 50
0.0
 51
0.0
 71
         0
 72
       100
 73
         1
 74
         1
 75
         0
 76
         0
 77
         0
 78
         0
  0
ENDTAB
  0
TABLE
  2
LTYPE
  5
4
100
AcDbSymbolTable
 70
         3
  0
LTYPE
  5
11
100
AcDbSymbolTableRecord
100
AcDbLinetypeTableRecord
  2
BYBLOCK
 70
        64
  3

 72
        65
 73
         0
 40
0.0
  0
LTYPE
  5
12
100
AcDbSymbolTableRecord
100
AcDbLinetypeTableRecord
  2
BYLAYER
 70
        64
  3

 72
        65
 73
         0
 40
0.0
  0
LTYPE
  5
13
100
AcDbSymbolTableRecord
100
AcDbLinetypeTableRecord
  2
CONTINUOUS
 70
        64
  3
Solid line
 72
        65
 73
         0
 40
0.0
  0
ENDTAB
  0
TABLE
  2
LAYER
  5
2
100
AcDbSymbolTable
 70
         7
  0
LAYER
  5
14
100
AcDbSymbolTableRecord
100
AcDbLayerTableRecord
  2
0
 70
         0
 62
         7
  6
CONTINUOUS
  0
LAYER
  5
24
100
AcDbSymbolTableRecord
100
AcDbLayerTableRecord
  2
ASSEMBLY_OUTLINES_TOP
 70
         0
 62
       102
  6
CONTINUOUS
  0
LAYER
  5
25
100
AcDbSymbolTableRecord
100
AcDbLayerTableRecord
  2
ASSEMBLY_REF_DES_TOP
 70
         0
 62
       102
  6
CONTINUOUS
  0
LAYER
  5
26
100
AcDbSymbolTableRecord
100
AcDbLayerTableRecord
  2
BOARD_OUTLINE
 70
         0
 62
        10
  6
CONTINUOUS
  0
LAYER
  5
27
100
AcDbSymbolTableRecord
100
AcDbLayerTableRecord
  2
MOUNTING_HOLES_LAYER_TOP
 70
         0
 62
        42
  6
CONTINUOUS
  0
LAYER
  5
28
100
AcDbSymbolTableRecord
100
AcDbLayerTableRecord
  2
PART_HOLES_LAYER_TOP
 70
         0
 62
        30
  6
CONTINUOUS
  0
LAYER
  5
29
100
AcDbSymbolTableRecord
100
AcDbLayerTableRecord
  2
SOLDERMASK_PADS_TOP
 70
         0
 62
       180
  6
CONTINUOUS
  0
ENDTAB
  0
TABLE
  2
STYLE
  5
3
100
AcDbSymbolTable
 70
         5
  0
STYLE
  5
17
100
AcDbSymbolTableRecord
100
AcDbTextStyleTableRecord
  2
STANDARD
 70
         0
 40
0.0
 41
1.0
 50
0.0
 71
         0
 42
0.0
  3
txt
  4

  0
STYLE
  5
12E
100
AcDbSymbolTableRecord
100
AcDbTextStyleTableRecord
  2
VERIBEST_GERBER_1
 70
         0
 40
0.0
 41
1.0
 50
0.0
 71
         0
 42
0.0
  3

  4

  0
STYLE
  5
1F0
100
AcDbSymbolTableRecord
100
AcDbTextStyleTableRecord
  2
GOST_TYPE_B
 70
         0
 40
0.0
 41
1.0
 50
0.0
 71
         0
 42
0.0
  3
gost.ttf
  4

  0
STYLE
  5
248
100
AcDbSymbolTableRecord
100
AcDbTextStyleTableRecord
  2
VERIBEST_GERBER_0
 70
         0
 40
0.0
 41
1.0
 50
0.0
 71
         0
 42
0.0
  3
gost.ttf
  4

  0
STYLE
  5
252
100
AcDbSymbolTableRecord
100
AcDbTextStyleTableRecord
  2
GOST_D
 70
         0
 40
0.0
 41
1.0
 50
0.0
 71
         0
 42
0.0
  3
GOST_0.TTF
  4

  0
ENDTAB
  0
TABLE
  2
VIEW
  5
5
100
AcDbSymbolTable
 70
         0
  0
ENDTAB
  0
TABLE
  2
UCS
  5
6
100
AcDbSymbolTable
 70
         0
  0
ENDTAB
  0
TABLE
  2
APPID
  5
8
100
AcDbSymbolTable
 70
         1
  0
APPID
  5
16
100
AcDbSymbolTableRecord
100
AcDbRegAppTableRecord
  2
ACAD
 70
         0
  0
ENDTAB
  0
TABLE
  2
DIMSTYLE
  5
9
100
AcDbSymbolTable
 70
         1
  0
DIMSTYLE
105
18
100
AcDbSymbolTableRecord
100
AcDbDimStyleTableRecord
  2
STANDARD
 70
         0
  3

  4

  5

  6

  7

 40
1.0
 41
0.18
 42
0.0625
 43
0.38
 44
0.18
 45
0.0
 46
0.0
 47
0.0
 48
0.0
 71
         0
 72
         0
 73
         1
 74
         1
 75
         0
 76
         0
 77
         0
 78
         0
140
0.18
141
0.09
142
0.0
143
25.4
144
1.0
145
0.0
146
1.0
147
0.09
170
         0
171
         2
172
         0
173
         0
174
         0
175
         0
176
         0
177
         0
178
         0
270
         2
271
         4
272
         4
273
         2
274
         2
275
         0
280
         0
281
         0
282
         0
283
         1
284
         0
285
         0
286
         0
287
         3
288
         0
340
17
  0
ENDTAB
  0
TABLE
  2
BLOCK_RECORD
  5
1
100
AcDbSymbolTable
 70
         0
  0
BLOCK_RECORD
  5
A
100
AcDbSymbolTableRecord
100
AcDbBlockTableRecord
  2
*MODEL_SPACE
  0
BLOCK_RECORD
  5
B
100
AcDbSymbolTableRecord
100
AcDbBlockTableRecord
  2
*PAPER_SPACE
  0
ENDTAB
  0
ENDSEC
  0
SECTION
  2
BLOCKS
  0
BLOCK
  5
D
100
AcDbEntity
  8
0
100
AcDbBlockBegin
  2
*MODEL_SPACE
 70
         0
 10
0.0
 20
0.0
 30
0.0
  3
*MODEL_SPACE
  1

  0
ENDBLK
  5
E
100
AcDbEntity
  8
0
100
AcDbBlockEnd
  0
BLOCK
  5
F
100
AcDbEntity
 67
         1
  8
0
100
AcDbBlockBegin
  2
*PAPER_SPACE
 70
         0
 10
0.0
 20
0.0
 30
0.0
  3
*PAPER_SPACE
  1

  0
ENDBLK
  5
10
100
AcDbEntity
 67
         1
  8
0
100
AcDbBlockEnd
  0
ENDSEC
  0
SECTION
  2
ENTITIES
  0
LWPOLYLINE
  5
2A
100
AcDbEntity
  8
ASSEMBLY_OUTLINES_TOP
100
AcDbPolyline
 90
        3
 70
         1
 10
80.95
 20
25.378078
 10
82.093
 20
25.949578
 10
82.093
 20
24.806578
  0
HATCH
  5
2B
100
AcDbEntity
  8
ASSEMBLY_OUTLINES_TOP
100
AcDbHatch
 10
0.0
 20
0.0
 30
0.0
210
0.0
220
0.0
230
1.0
  2
SOLID
 70
         1
 71
         1
 91
        1
 92
        2
 72
         0
 73
         1
 93
        3
 10
80.950000000000003
 20
25.378077999999999
 10
82.093000000000004
 20
25.949577999999999
 10
82.093000000000004
 20
24.806577999999998
 97
        1
330
2A
 75
         0
 76
         1
 98
        1
 10
0.0
 20
0.0
  0
LWPOLYLINE
  5
2C
100
AcDbEntity
  8
ASSEMBLY_OUTLINES_TOP
100
AcDbPolyline
 90
        3
 70
         1
 10
74.95
 20
25.378078
 10
73.807
 20
24.806579
 10
73.807
 20
25.949578
  0
HATCH
  5
2D
100
AcDbEntity
  8
ASSEMBLY_OUTLINES_TOP
100
AcDbHatch
 10
0.0
 20
0.0
 30
0.0
210
0.0
220
0.0
230
1.0
  2
SOLID
 70
         1
 71
         1
 91
        1
 92
        2
 72
         0
 73
         1
 93
        3
 10
74.950000000000003
 20
25.378077999999999
 10
73.807000000000002
 20
24.806578999999999
 10
73.807000000000002
 20
25.949577999999999
 97
        1
330
2C
 75
         0
 76
         1
 98
        1
 10
0.0
 20
0.0
  0
LWPOLYLINE
  5
2E
100
AcDbEntity
  8
ASSEMBLY_OUTLINES_TOP
100
AcDbPolyline
 90
        2
 70
         0
 43
0.2032
 10
81.5215
 20
25.378078
 10
83.8075
 20
25.378078
  0
LWPOLYLINE
  5
2F
100
AcDbEntity
  8
ASSEMBLY_OUTLINES_TOP
100
AcDbPolyline
 90
        2
 70
         0
 43
0.2032
 10
74.3785
 20
25.378078
 10
72.0925
 20
25.378078
  0
LWPOLYLINE
  5
30
100
AcDbEntity
  8
ASSEMBLY_OUTLINES_TOP
100
AcDbPolyline
 90
        2
 70
         0
 43
0.2032
 10
80.95
 20
19.508
 10
80.95
 20
25.886078
  0
LWPOLYLINE
  5
31
100
AcDbEntity
  8
ASSEMBLY_OUTLINES_TOP
100
AcDbPolyline
 90
        2
 70
         0
 43
0.2032
 10
74.95
 20
19.508
 10
74.95
 20
25.886078
  0
LWPOLYLINE
  5
32
100
AcDbEntity
  8
ASSEMBLY_OUTLINES_TOP
100
AcDbPolyline
 90
        3
 70
         1
 10
71.218081
 20
13.0
 10
71.78958
 20
11.857
 10
70.646581
 20
11.857001
  0
HATCH
  5
33
100
AcDbEntity
  8
ASSEMBLY_OUTLINES_TOP
100
AcDbHatch
 10
0.0
 20
0.0
 30
0.0
210
0.0
220
0.0
230
1.0
  2
SOLID
 70
         1
 71
         1
 91
        1
 92
        2
 72
         0
 73
         1
 93
        3
 10
71.218080999999998
 20
13.0
 10
71.789580000000001
 20
11.856999999999999
 10
70.646580999999998
 20
11.857001
 97
        1
330
32
 75
         0
 76
         1
 98
        1
 10
0.0
 20
0.0
  0
LWPOLYLINE
  5
34
100
AcDbEntity
  8
ASSEMBLY_OUTLINES_TOP
100
AcDbPolyline
 90
        3
 70
         1
 10
71.218081
 20
19.0
 10
70.646581
 20
20.143
 10
71.789581
 20
20.143
  0
HATCH
  5
35
100
AcDbEntity
  8
ASSEMBLY_OUTLINES_TOP
100
AcDbHatch
 10
0.0
 20
0.0
 30
0.0
210
0.0
220
0.0
230
1.0
  2
SOLID
 70
         1
 71
         1
 91
        1
 92
        2
 72
         0
 73
         1
 93
        3
 10
71.218080999999998
 20
19.0
 10
70.646580999999998
 20
20.143000000000001
 10
71.789580999999998
 20
20.143000000000001
 97
        1
330
34
 75
         0
 76
         1
 98
        1
 10
0.0
 20
0.0
  0
LWPOLYLINE
  5
36
100
AcDbEntity
  8
ASSEMBLY_OUTLINES_TOP
100
AcDbPolyline
 90
        2
 70
         0
 43
0.2032
 10
71.218081
 20
12.4285
 10
71.218081
 20
10.1425
  0
LWPOLYLINE
  5
37
100
AcDbEntity
  8
ASSEMBLY_OUTLINES_TOP
100
AcDbPolyline
 90
        2
 70
         0
 43
0.2032
 10
71.218081
 20
19.5715
 10
71.218081
 20
21.8575
  0
LWPOLYLINE
  5
38
100
AcDbEntity
  8
ASSEMBLY_OUTLINES_TOP
100
AcDbPolyline
 90
        2
 70
         0
 43
0.2032
 10
74.442
 20
13.0
 10
70.710081
 20
13.0
  0
LWPOLYLINE
  5
39
100
AcDbEntity
  8
ASSEMBLY_OUTLINES_TOP
100
AcDbPolyline
 90
        2
 70
         0
 43
0.2032
 10
74.442
 20
19.0
 10
70.710081
 20
19.0
  0
LWPOLYLINE
  5
3A
100
AcDbEntity
  8
ASSEMBLY_OUTLINES_TOP
100
AcDbPolyline
 90
        3
 70
         1
 10
12.35
 20
25.378643
 10
13.493
 20
25.950143
 10
13.493
 20
24.807143
  0
HATCH
  5
3B
100
AcDbEntity
  8
ASSEMBLY_OUTLINES_TOP
100
AcDbHatch
 10
0.0
 20
0.0
 30
0.0
210
0.0
220
0.0
230
1.0
  2
SOLID
 70
         1
 71
         1
 91
        1
 92
        2
 72
         0
 73
         1
 93
        3
 10
12.35
 20
25.378643
 10
13.493
 20
25.950143000000001
 10
13.493
 20
24.807143
 97
        1
330
3A
 75
         0
 76
         1
 98
        1
 10
0.0
 20
0.0
  0
LWPOLYLINE
  5
3C
100
AcDbEntity
  8
ASSEMBLY_OUTLINES_TOP
100
AcDbPolyline
 90
        3
 70
         1
 10
6.35
 20
25.378643
 10
5.207
 20
24.807144
 10
5.207
 20
25.950143
  0
HATCH
  5
3D
100
AcDbEntity
  8
ASSEMBLY_OUTLINES_TOP
100
AcDbHatch
 10
0.0
 20
0.0
 30
0.0
210
0.0
220
0.0
230
1.0
  2
SOLID
 70
         1
 71
         1
 91
        1
 92
        2
 72
         0
 73
         1
 93
        3
 10
6.3499999999999996
 20
25.378643
 10
5.2069999999999999
 20
24.807144000000001
 10
5.2069999999999999
 20
25.950143000000001
 97
        1
330
3C
 75
         0
 76
         1
 98
        1
 10
0.0
 20
0.0
  0
LWPOLYLINE
  5
3E
100
AcDbEntity
  8
ASSEMBLY_OUTLINES_TOP
100
AcDbPolyline
 90
        2
 70
         0
 43
0.2032
 10
12.9215
 20
25.378643
 10
15.2075
 20
25.378643
  0
LWPOLYLINE
  5
3F
100
AcDbEntity
  8
ASSEMBLY_OUTLINES_TOP
100
AcDbPolyline
 90
        2
 70
         0
 43
0.2032
 10
5.7785
 20
25.378643
 10
3.4925
 20
25.378643
  0
LWPOLYLINE
  5
40
100
AcDbEntity
  8
ASSEMBLY_OUTLINES_TOP
100
AcDbPolyline
 90
        2
 70
         0
 43
0.2032
 10
12.35
 20
19.508
 10
12.35
 20
25.886643
  0
LWPOLYLINE
  5
41
100
AcDbEntity
  8
ASSEMBLY_OUTLINES_TOP
100
AcDbPolyline
 90
        2
 70
         0
 43
0.2032
 10
6.35
 20
19.508
 10
6.35
 20
25.886643
  0
LWPOLYLINE
  5
42
100
AcDbEntity
  8
ASSEMBLY_OUTLINES_TOP
100
AcDbPolyline
 90
        3
 70
         1
 10
17.270259
 20
13.0
 10
17.841758
 20
11.857
 10
16.698759
 20
11.857001
  0
HATCH
  5
43
100
AcDbEntity
  8
ASSEMBLY_OUTLINES_TOP
100
AcDbHatch
 10
0.0
 20
0.0
 30
0.0
210
0.0
220
0.0
230
1.0
  2
SOLID
 70
         1
 71
         1
 91
        1
 92
        2
 72
         0
 73
         1
 93
        3
 10
17.270258999999999
 20
13.0
 10
17.841757999999999
 20
11.856999999999999
 10
16.698758999999999
 20
11.857001
 97
        1
330
42
 75
         0
 76
         1
 98
        1
 10
0.0
 20
0.0
  0
LWPOLYLINE
  5
44
100
AcDbEntity
  8
ASSEMBLY_OUTLINES_TOP
100
AcDbPolyline
 90
        3
 70
         1
 10
17.270259
 20
19.0
 10
16.698759
 20
20.143
 10
17.841759
 20
20.143
  0
HATCH
  5
45
100
AcDbEntity
  8
ASSEMBLY_OUTLINES_TOP
100
AcDbHatch
 10
0.0
 20
0.0
 30
0.0
210
0.0
220
0.0
230
1.0
  2
SOLID
 70
         1
 71
         1
 91
        1
 92
        2
 72
         0
 73
         1
 93
        3
 10
17.270258999999999
 20
19.0
 10
16.698758999999999
 20
20.143000000000001
 10
17.841759
 20
20.143000000000001
 97
        1
330
44
 75
         0
 76
         1
 98
        1
 10
0.0
 20
0.0
  0
LWPOLYLINE
  5
46
100
AcDbEntity
  8
ASSEMBLY_OUTLINES_TOP
100
AcDbPolyline
 90
        2
 70
         0
 43
0.2032
 10
17.270259
 20
12.4285
 10
17.270259
 20
10.1425
  0
LWPOLYLINE
  5
47
100
AcDbEntity
  8
ASSEMBLY_OUTLINES_TOP
100
AcDbPolyline
 90
        2
 70
         0
 43
0.2032
 10
17.270259
 20
19.5715
 10
17.270259
 20
21.8575
  0
LWPOLYLINE
  5
48
100
AcDbEntity
  8
ASSEMBLY_OUTLINES_TOP
100
AcDbPolyline
 90
        2
 70
         0
 43
0.2032
 10
12.858
 20
13.0
 10
17.778259
 20
13.0
  0
LWPOLYLINE
  5
49
100
AcDbEntity
  8
ASSEMBLY_OUTLINES_TOP
100
AcDbPolyline
 90
        2
 70
         0
 43
0.2032
 10
12.858
 20
19.0
 10
17.778259
 20
19.0
  0
LWPOLYLINE
  5
4A
100
AcDbEntity
  8
ASSEMBLY_OUTLINES_TOP
100
AcDbPolyline
 90
        3
 70
         1
 10
171.112657
 20
6.997039
 10
170.541157
 20
8.140039
 10
171.684157
 20
8.140039
  0
HATCH
  5
4B
100
AcDbEntity
  8
ASSEMBLY_OUTLINES_TOP
100
AcDbHatch
 10
0.0
 20
0.0
 30
0.0
210
0.0
220
0.0
230
1.0
  2
SOLID
 70
         1
 71
         1
 91
        1
 92
        2
 72
         0
 73
         1
 93
        3
 10
171.11265700000001
 20
6.997039
 10
170.541157
 20
8.1400389999999998
 10
171.684157
 20
8.1400389999999998
 97
        1
330
4A
 75
         0
 76
         1
 98
        1
 10
0.0
 20
0.0
  0
LWPOLYLINE
  5
4C
100
AcDbEntity
  8
ASSEMBLY_OUTLINES_TOP
100
AcDbPolyline
 90
        3
 70
         1
 10
171.112657
 20
66.997039
 10
171.684156
 20
65.854039
 10
170.541157
 20
65.85404
  0
HATCH
  5
4D
100
AcDbEntity
  8
ASSEMBLY_OUTLINES_TOP
100
AcDbHatch
 10
0.0
 20
0.0
 30
0.0
210
0.0
220
0.0
230
1.0
  2
SOLID
 70
         1
 71
         1
 91
        1
 92
        2
 72
         0
 73
         1
 93
        3
 10
171.11265700000001
 20
66.997039000000001
 10
171.684156
 20
65.854039
 10
170.541157
 20
65.854039999999998
 97
        1
330
4C
 75
         0
 76
         1
 98
        1
 10
0.0
 20
0.0
  0
LWPOLYLINE
  5
4E
100
AcDbEntity
  8
ASSEMBLY_OUTLINES_TOP
100
AcDbPolyline
 90
        2
 70
         0
 43
0.2032
 10
171.112657
 20
34.24444
 10
171.112657
 20
7.568539
  0
LWPOLYLINE
  5
4F
100
AcDbEntity
  8
ASSEMBLY_OUTLINES_TOP
100
AcDbPolyline
 90
        2
 70
         0
 43
0.2032
 10
171.112657
 20
66.425539
 10
171.112657
 20
39.749635
  0
LWPOLYLINE
  5
50
100
AcDbEntity
  8
ASSEMBLY_OUTLINES_TOP
100
AcDbPolyline
 90
        2
 70
         0
 43
0.2032
 10
168.504091
 20
6.997039
 10
171.620657
 20
6.997039
  0
LWPOLYLINE
  5
51
100
AcDbEntity
  8
ASSEMBLY_OUTLINES_TOP
100
AcDbPolyline
 90
        2
 70
         0
 43
0.2032
 10
168.504091
 20
66.997039
 10
171.620657
 20
66.997039
  0
LWPOLYLINE
  5
52
100
AcDbEntity
  8
ASSEMBLY_OUTLINES_TOP
100
AcDbPolyline
 90
        4
 70
         1
 43
0.3
 10
8.0
 20
-4.0
 10
8.0
 20
96.0
 10
173.0
 20
96.0
 10
173.0
 20
-4.0
  0
LWPOLYLINE
  5
53
100
AcDbEntity
  8
ASSEMBLY_OUTLINES_TOP
100
AcDbPolyline
 90
        2
 70
         0
 43
0.2032
 10
8.0
 20
96.508
 10
8.0
 20
100.508
  0
LWPOLYLINE
  5
54
100
AcDbEntity
  8
ASSEMBLY_OUTLINES_TOP
100
AcDbPolyline
 90
        2
 70
         0
 43
0.2032
 10
173.0
 20
96.508
 10
173.0
 20
100.508
  0
LWPOLYLINE
  5
55
100
AcDbEntity
  8
ASSEMBLY_OUTLINES_TOP
100
AcDbPolyline
 90
        2
 70
         0
 43
0.2032
 10
8.5715
 20
100.0
 10
87.190666
 20
100.0
  0
LWPOLYLINE
  5
56
100
AcDbEntity
  8
ASSEMBLY_OUTLINES_TOP
100
AcDbPolyline
 90
        2
 70
         0
 43
0.2032
 10
93.809334
 20
100.0
 10
172.4285
 20
100.0
  0
LWPOLYLINE
  5
57
100
AcDbEntity
  8
ASSEMBLY_OUTLINES_TOP
100
AcDbPolyline
 90
        3
 70
         1
 10
8.0
 20
100.0
 10
9.143
 20
100.5715
 10
9.143
 20
99.4285
  0
HATCH
  5
58
100
AcDbEntity
  8
ASSEMBLY_OUTLINES_TOP
100
AcDbHatch
 10
0.0
 20
0.0
 30
0.0
210
0.0
220
0.0
230
1.0
  2
SOLID
 70
         1
 71
         1
 91
        1
 92
        2
 72
         0
 73
         1
 93
        3
 10
8.0
 20
100.0
 10
9.1430000000000007
 20
100.5715
 10
9.1430000000000007
 20
99.4285
 97
        1
330
57
 75
         0
 76
         1
 98
        1
 10
0.0
 20
0.0
  0
LWPOLYLINE
  5
59
100
AcDbEntity
  8
ASSEMBLY_OUTLINES_TOP
100
AcDbPolyline
 90
        3
 70
         1
 10
173.0
 20
100.0
 10
171.857
 20
99.428501
 10
171.857
 20
100.5715
  0
HATCH
  5
5A
100
AcDbEntity
  8
ASSEMBLY_OUTLINES_TOP
100
AcDbHatch
 10
0.0
 20
0.0
 30
0.0
210
0.0
220
0.0
230
1.0
  2
SOLID
 70
         1
 71
         1
 91
        1
 92
        2
 72
         0
 73
         1
 93
        3
 10
173.0
 20
100.0
 10
171.857
 20
99.428500999999997
 10
171.857
 20
100.5715
 97
        1
330
59
 75
         0
 76
         1
 98
        1
 10
0.0
 20
0.0
  0
LWPOLYLINE
  5
5B
100
AcDbEntity
  8
ASSEMBLY_OUTLINES_TOP
100
AcDbPolyline
 90
        2
 70
         0
 43
0.2032
 10
173.0
 20
96.508
 10
173.0
 20
104.186886
  0
LWPOLYLINE
  5
5C
100
AcDbEntity
  8
ASSEMBLY_OUTLINES_TOP
100
AcDbPolyline
 90
        2
 70
         0
 43
0.2032
 10
183.0
 20
96.508
 10
183.0
 20
104.186886
  0
LWPOLYLINE
  5
5D
100
AcDbEntity
  8
ASSEMBLY_OUTLINES_TOP
100
AcDbPolyline
 90
        2
 70
         0
 43
0.2032
 10
172.4285
 20
103.678886
 10
170.1425
 20
103.678886
  0
LWPOLYLINE
  5
5E
100
AcDbEntity
  8
ASSEMBLY_OUTLINES_TOP
100
AcDbPolyline
 90
        2
 70
         0
 43
0.2032
 10
183.5715
 20
103.678886
 10
185.8575
 20
103.678886
  0
LWPOLYLINE
  5
5F
100
AcDbEntity
  8
ASSEMBLY_OUTLINES_TOP
100
AcDbPolyline
 90
        3
 70
         1
 10
173.0
 20
103.678886
 10
171.857
 20
103.107387
 10
171.857
 20
104.250386
  0
HATCH
  5
60
100
AcDbEntity
  8
ASSEMBLY_OUTLINES_TOP
100
AcDbHatch
 10
0.0
 20
0.0
 30
0.0
210
0.0
220
0.0
230
1.0
  2
SOLID
 70
         1
 71
         1
 91
        1
 92
        2
 72
         0
 73
         1
 93
        3
 10
173.0
 20
103.67888600000001
 10
171.857
 20
103.107387
 10
171.857
 20
104.25038600000001
 97
        1
330
5F
 75
         0
 76
         1
 98
        1
 10
0.0
 20
0.0
  0
LWPOLYLINE
  5
61
100
AcDbEntity
  8
ASSEMBLY_OUTLINES_TOP
100
AcDbPolyline
 90
        3
 70
         1
 10
183.0
 20
103.678886
 10
184.143
 20
104.250386
 10
184.143
 20
103.107386
  0
HATCH
  5
62
100
AcDbEntity
  8
ASSEMBLY_OUTLINES_TOP
100
AcDbHatch
 10
0.0
 20
0.0
 30
0.0
210
0.0
220
0.0
230
1.0
  2
SOLID
 70
         1
 71
         1
 91
        1
 92
        2
 72
         0
 73
         1
 93
        3
 10
183.0
 20
103.67888600000001
 10
184.143
 20
104.25038600000001
 10
184.143
 20
103.10738600000001
 97
        1
330
61
 75
         0
 76
         1
 98
        1
 10
0.0
 20
0.0
  0
LWPOLYLINE
  5
63
100
AcDbEntity
  8
ASSEMBLY_OUTLINES_TOP
100
AcDbPolyline
 90
        2
 70
         0
 43
0.2032
 10
183.508
 20
96.0
 10
193.908
 20
96.0
  0
LWPOLYLINE
  5
64
100
AcDbEntity
  8
ASSEMBLY_OUTLINES_TOP
100
AcDbPolyline
 90
        2
 70
         0
 43
0.2032
 10
183.508
 20
-4.0
 10
193.908
 20
-4.0
  0
LWPOLYLINE
  5
65
100
AcDbEntity
  8
ASSEMBLY_OUTLINES_TOP
100
AcDbPolyline
 90
        2
 70
         0
 43
0.2032
 10
193.4
 20
95.4285
 10
193.4
 20
49.309333
  0
LWPOLYLINE
  5
66
100
AcDbEntity
  8
ASSEMBLY_OUTLINES_TOP
100
AcDbPolyline
 90
        2
 70
         0
 43
0.2032
 10
193.4
 20
42.690666
 10
193.4
 20
-3.4285
  0
LWPOLYLINE
  5
67
100
AcDbEntity
  8
ASSEMBLY_OUTLINES_TOP
100
AcDbPolyline
 90
        3
 70
         1
 10
193.4
 20
96.0
 10
193.971499
 20
94.857
 10
192.8285
 20
94.857001
  0
HATCH
  5
68
100
AcDbEntity
  8
ASSEMBLY_OUTLINES_TOP
100
AcDbHatch
 10
0.0
 20
0.0
 30
0.0
210
0.0
220
0.0
230
1.0
  2
SOLID
 70
         1
 71
         1
 91
        1
 92
        2
 72
         0
 73
         1
 93
        3
 10
193.40000000000001
 20
96.0
 10
193.97149899999999
 20
94.856999999999999
 10
192.82849999999999
 20
94.857000999999997
 97
        1
330
67
 75
         0
 76
         1
 98
        1
 10
0.0
 20
0.0
  0
LWPOLYLINE
  5
69
100
AcDbEntity
  8
ASSEMBLY_OUTLINES_TOP
100
AcDbPolyline
 90
        3
 70
         1
 10
193.4
 20
-4.0
 10
192.8285
 20
-2.857
 10
193.9715
 20
-2.857
  0
HATCH
  5
6A
100
AcDbEntity
  8
ASSEMBLY_OUTLINES_TOP
100
AcDbHatch
 10
0.0
 20
0.0
 30
0.0
210
0.0
220
0.0
230
1.0
  2
SOLID
 70
         1
 71
         1
 91
        1
 92
        2
 72
         0
 73
         1
 93
        3
 10
193.40000000000001
 20
-4.0
 10
192.82849999999999
 20
-2.8570000000000002
 10
193.97149999999999
 20
-2.8570000000000002
 97
        1
330
69
 75
         0
 76
         1
 98
        1
 10
0.0
 20
0.0
  0
LWPOLYLINE
  5
6B
100
AcDbEntity
  8
ASSEMBLY_OUTLINES_TOP
100
AcDbPolyline
 90
        2
 70
         0
 43
0.2032
 10
-2.0
 20
96.508
 10
-2.0
 20
100.217295
  0
LWPOLYLINE
  5
6C
100
AcDbEntity
  8
ASSEMBLY_OUTLINES_TOP
100
AcDbPolyline
 90
        2
 70
         0
 43
0.2032
 10
2.0
 20
92.508
 10
2.0
 20
100.217295
  0
LWPOLYLINE
  5
6D
100
AcDbEntity
  8
ASSEMBLY_OUTLINES_TOP
100
AcDbPolyline
 90
        2
 70
         0
 43
0.2032
 10
-2.5715
 20
99.709295
 10
-4.8575
 20
99.709295
  0
LWPOLYLINE
  5
6E
100
AcDbEntity
  8
ASSEMBLY_OUTLINES_TOP
100
AcDbPolyline
 90
        2
 70
         0
 43
0.2032
 10
2.5715
 20
99.709295
 10
4.8575
 20
99.709295
  0
LWPOLYLINE
  5
6F
100
AcDbEntity
  8
ASSEMBLY_OUTLINES_TOP
100
AcDbPolyline
 90
        3
 70
         1
 10
-2.0
 20
99.709295
 10
-3.143
 20
99.137796
 10
-3.143
 20
100.280795
  0
HATCH
  5
70
100
AcDbEntity
  8
ASSEMBLY_OUTLINES_TOP
100
AcDbHatch
 10
0.0
 20
0.0
 30
0.0
210
0.0
220
0.0
230
1.0
  2
SOLID
 70
         1
 71
         1
 91
        1
 92
        2
 72
         0
 73
         1
 93
        3
 10
-2.0
 20
99.709294999999997
 10
-3.1429999999999998
 20
99.137795999999994
 10
-3.1429999999999998
 20
100.280795
 97
        1
330
6F
 75
         0
 76
         1
 98
        1
 10
0.0
 20
0.0
  0
LWPOLYLINE
  5
71
100
AcDbEntity
  8
ASSEMBLY_OUTLINES_TOP
100
AcDbPolyline
 90
        3
 70
         1
 10
2.0
 20
99.709295
 10
3.143
 20
100.280795
 10
3.143
 20
99.137795
  0
HATCH
  5
72
100
AcDbEntity
  8
ASSEMBLY_OUTLINES_TOP
100
AcDbHatch
 10
0.0
 20
0.0
 30
0.0
210
0.0
220
0.0
230
1.0
  2
SOLID
 70
         1
 71
         1
 91
        1
 92
        2
 72
         0
 73
         1
 93
        3
 10
2.0
 20
99.709294999999997
 10
3.1429999999999998
 20
100.280795
 10
3.1429999999999998
 20
99.137794999999997
 97
        1
330
71
 75
         0
 76
         1
 98
        1
 10
0.0
 20
0.0
  0
LWPOLYLINE
  5
73
100
AcDbEntity
  8
ASSEMBLY_OUTLINES_TOP
100
AcDbPolyline
 90
        2
 70
         0
 43
0.2032
 10
-2.0
 20
96.508
 10
-2.0
 20
104.408
  0
LWPOLYLINE
  5
74
100
AcDbEntity
  8
ASSEMBLY_OUTLINES_TOP
100
AcDbPolyline
 90
        2
 70
         0
 43
0.2032
 10
8.0
 20
96.508
 10
8.0
 20
104.408
  0
LWPOLYLINE
  5
75
100
AcDbEntity
  8
ASSEMBLY_OUTLINES_TOP
100
AcDbPolyline
 90
        2
 70
         0
 43
0.2032
 10
-1.4285
 20
103.9
 10
0.320745
 20
103.9
  0
LWPOLYLINE
  5
76
100
AcDbEntity
  8
ASSEMBLY_OUTLINES_TOP
100
AcDbPolyline
 90
        2
 70
         0
 43
0.2032
 10
5.679256
 20
103.9
 10
7.4285
 20
103.9
  0
LWPOLYLINE
  5
77
100
AcDbEntity
  8
ASSEMBLY_OUTLINES_TOP
100
AcDbPolyline
 90
        3
 70
         1
 10
-2.0
 20
103.9
 10
-0.857
 20
104.4715
 10
-0.857
 20
103.3285
  0
HATCH
  5
78
100
AcDbEntity
  8
ASSEMBLY_OUTLINES_TOP
100
AcDbHatch
 10
0.0
 20
0.0
 30
0.0
210
0.0
220
0.0
230
1.0
  2
SOLID
 70
         1
 71
         1
 91
        1
 92
        2
 72
         0
 73
         1
 93
        3
 10
-2.0
 20
103.90000000000001
 10
-0.857
 20
104.47150000000001
 10
-0.857
 20
103.32850000000001
 97
        1
330
77
 75
         0
 76
         1
 98
        1
 10
0.0
 20
0.0
  0
LWPOLYLINE
  5
79
100
AcDbEntity
  8
ASSEMBLY_OUTLINES_TOP
100
AcDbPolyline
 90
        3
 70
         1
 10
8.0
 20
103.9
 10
6.857
 20
103.328501
 10
6.857
 20
104.4715
  0
HATCH
  5
7A
100
AcDbEntity
  8
ASSEMBLY_OUTLINES_TOP
100
AcDbHatch
 10
0.0
 20
0.0
 30
0.0
210
0.0
220
0.0
230
1.0
  2
SOLID
 70
         1
 71
         1
 91
        1
 92
        2
 72
         0
 73
         1
 93
        3
 10
8.0
 20
103.90000000000001
 10
6.8570000000000002
 20
103.328501
 10
6.8570000000000002
 20
104.47150000000001
 97
        1
330
79
 75
         0
 76
         1
 98
        1
 10
0.0
 20
0.0
  0
LWPOLYLINE
  5
7B
100
AcDbEntity
  8
ASSEMBLY_OUTLINES_TOP
100
AcDbPolyline
 90
        2
 70
         0
 43
0.2032
 10
-2.508
 20
96.0
 10
-6.108
 20
96.0
  0
LWPOLYLINE
  5
7C
100
AcDbEntity
  8
ASSEMBLY_OUTLINES_TOP
100
AcDbPolyline
 90
        2
 70
         0
 43
0.2032
 10
1.492
 20
92.0
 10
-6.108
 20
92.0
  0
LWPOLYLINE
  5
7D
100
AcDbEntity
  8
ASSEMBLY_OUTLINES_TOP
100
AcDbPolyline
 90
        2
 70
         0
 43
0.2032
 10
-5.6
 20
96.5715
 10
-5.6
 20
98.8575
  0
LWPOLYLINE
  5
7E
100
AcDbEntity
  8
ASSEMBLY_OUTLINES_TOP
100
AcDbPolyline
 90
        2
 70
         0
 43
0.2032
 10
-5.6
 20
91.4285
 10
-5.6
 20
89.1425
  0
LWPOLYLINE
  5
7F
100
AcDbEntity
  8
ASSEMBLY_OUTLINES_TOP
100
AcDbPolyline
 90
        3
 70
         1
 10
-5.6
 20
96.0
 10
-6.1715
 20
97.143
 10
-5.0285
 20
97.143
  0
HATCH
  5
80
100
AcDbEntity
  8
ASSEMBLY_OUTLINES_TOP
100
AcDbHatch
 10
0.0
 20
0.0
 30
0.0
210
0.0
220
0.0
230
1.0
  2
SOLID
 70
         1
 71
         1
 91
        1
 92
        2
 72
         0
 73
         1
 93
        3
 10
-5.5999999999999996
 20
96.0
 10
-6.1715
 20
97.143000000000001
 10
-5.0285000000000002
 20
97.143000000000001
 97
        1
330
7F
 75
         0
 76
         1
 98
        1
 10
0.0
 20
0.0
  0
LWPOLYLINE
  5
81
100
AcDbEntity
  8
ASSEMBLY_OUTLINES_TOP
100
AcDbPolyline
 90
        3
 70
         1
 10
-5.6
 20
92.0
 10
-5.028501
 20
90.857
 10
-6.1715
 20
90.857001
  0
HATCH
  5
82
100
AcDbEntity
  8
ASSEMBLY_OUTLINES_TOP
100
AcDbHatch
 10
0.0
 20
0.0
 30
0.0
210
0.0
220
0.0
230
1.0
  2
SOLID
 70
         1
 71
         1
 91
        1
 92
        2
 72
         0
 73
         1
 93
        3
 10
-5.5999999999999996
 20
92.0
 10
-5.0285010000000003
 20
90.856999999999999
 10
-6.1715
 20
90.857000999999997
 97
        1
330
81
 75
         0
 76
         1
 98
        1
 10
0.0
 20
0.0
  0
LWPOLYLINE
  5
83
100
AcDbEntity
  8
ASSEMBLY_OUTLINES_TOP
100
AcDbPolyline
 90
        2
 70
         0
 43
0.2032
 10
2.492
 20
23.0
 10
-9.108
 20
23.0
  0
LWPOLYLINE
  5
84
100
AcDbEntity
  8
ASSEMBLY_OUTLINES_TOP
100
AcDbPolyline
 90
        2
 70
         0
 43
0.2032
 10
1.492
 20
0.0
 10
-9.108
 20
0.0
  0
LWPOLYLINE
  5
85
100
AcDbEntity
  8
ASSEMBLY_OUTLINES_TOP
100
AcDbPolyline
 90
        2
 70
         0
 43
0.2032
 10
-8.6
 20
22.4285
 10
-8.6
 20
14.252597
  0
LWPOLYLINE
  5
86
100
AcDbEntity
  8
ASSEMBLY_OUTLINES_TOP
100
AcDbPolyline
 90
        2
 70
         0
 43
0.2032
 10
-8.6
 20
8.747402
 10
-8.6
 20
0.5715
  0
LWPOLYLINE
  5
87
100
AcDbEntity
  8
ASSEMBLY_OUTLINES_TOP
100
AcDbPolyline
 90
        3
 70
         1
 10
-8.6
 20
23.0
 10
-8.028501
 20
21.857
 10
-9.1715
 20
21.857001
  0
HATCH
  5
88
100
AcDbEntity
  8
ASSEMBLY_OUTLINES_TOP
100
AcDbHatch
 10
0.0
 20
0.0
 30
0.0
210
0.0
220
0.0
230
1.0
  2
SOLID
 70
         1
 71
         1
 91
        1
 92
        2
 72
         0
 73
         1
 93
        3
 10
-8.5999999999999996
 20
23.0
 10
-8.0285010000000003
 20
21.856999999999999
 10
-9.1715
 20
21.857001
 97
        1
330
87
 75
         0
 76
         1
 98
        1
 10
0.0
 20
0.0
  0
LWPOLYLINE
  5
89
100
AcDbEntity
  8
ASSEMBLY_OUTLINES_TOP
100
AcDbPolyline
 90
        3
 70
         1
 10
-8.6
 20
0.0
 10
-9.1715
 20
1.143
 10
-8.0285
 20
1.143
  0
HATCH
  5
8A
100
AcDbEntity
  8
ASSEMBLY_OUTLINES_TOP
100
AcDbHatch
 10
0.0
 20
0.0
 30
0.0
210
0.0
220
0.0
230
1.0
  2
SOLID
 70
         1
 71
         1
 91
        1
 92
        2
 72
         0
 73
         1
 93
        3
 10
-8.5999999999999996
 20
0.0
 10
-9.1715
 20
1.143
 10
-8.0284999999999993
 20
1.143
 97
        1
330
89
 75
         0
 76
         1
 98
        1
 10
0.0
 20
0.0
  0
LWPOLYLINE
  5
8B
100
AcDbEntity
  8
ASSEMBLY_OUTLINES_TOP
100
AcDbPolyline
 90
        2
 70
         0
 43
0.2032
 10
1.492
 20
0.0
 10
-6.577839
 20
0.0
  0
LWPOLYLINE
  5
8C
100
AcDbEntity
  8
ASSEMBLY_OUTLINES_TOP
100
AcDbPolyline
 90
        2
 70
         0
 43
0.2032
 10
-2.508
 20
-4.0
 10
-6.577839
 20
-4.0
  0
LWPOLYLINE
  5
8D
100
AcDbEntity
  8
ASSEMBLY_OUTLINES_TOP
100
AcDbPolyline
 90
        2
 70
         0
 43
0.2032
 10
-6.069839
 20
0.5715
 10
-6.069839
 20
2.8575
  0
LWPOLYLINE
  5
8E
100
AcDbEntity
  8
ASSEMBLY_OUTLINES_TOP
100
AcDbPolyline
 90
        2
 70
         0
 43
0.2032
 10
-6.069839
 20
-4.5715
 10
-6.069839
 20
-6.8575
  0
LWPOLYLINE
  5
8F
100
AcDbEntity
  8
ASSEMBLY_OUTLINES_TOP
100
AcDbPolyline
 90
        3
 70
         1
 10
-6.069839
 20
0.0
 10
-6.641339
 20
1.143
 10
-5.498339
 20
1.143
  0
HATCH
  5
90
100
AcDbEntity
  8
ASSEMBLY_OUTLINES_TOP
100
AcDbHatch
 10
0.0
 20
0.0
 30
0.0
210
0.0
220
0.0
230
1.0
  2
SOLID
 70
         1
 71
         1
 91
        1
 92
        2
 72
         0
 73
         1
 93
        3
 10
-6.069839
 20
0.0
 10
-6.6413390000000003
 20
1.143
 10
-5.4983389999999996
 20
1.143
 97
        1
330
8F
 75
         0
 76
         1
 98
        1
 10
0.0
 20
0.0
  0
LWPOLYLINE
  5
91
100
AcDbEntity
  8
ASSEMBLY_OUTLINES_TOP
100
AcDbPolyline
 90
        3
 70
         1
 10
-6.069839
 20
-4.0
 10
-5.49834
 20
-5.143
 10
-6.641339
 20
-5.142999
  0
HATCH
  5
92
100
AcDbEntity
  8
ASSEMBLY_OUTLINES_TOP
100
AcDbHatch
 10
0.0
 20
0.0
 30
0.0
210
0.0
220
0.0
230
1.0
  2
SOLID
 70
         1
 71
         1
 91
        1
 92
        2
 72
         0
 73
         1
 93
        3
 10
-6.069839
 20
-4.0
 10
-5.4983399999999998
 20
-5.1429999999999998
 10
-6.6413390000000003
 20
-5.1429989999999997
 97
        1
330
91
 75
         0
 76
         1
 98
        1
 10
0.0
 20
0.0
  0
LWPOLYLINE
  5
93
100
AcDbEntity
  8
ASSEMBLY_OUTLINES_TOP
100
AcDbPolyline
 90
        2
 70
         0
 43
0.2032
 10
-2.0
 20
-4.508
 10
-2.0
 20
-7.751837
  0
LWPOLYLINE
  5
94
100
AcDbEntity
  8
ASSEMBLY_OUTLINES_TOP
100
AcDbPolyline
 90
        2
 70
         0
 43
0.2032
 10
2.0
 20
-0.508
 10
2.0
 20
-7.751837
  0
LWPOLYLINE
  5
95
100
AcDbEntity
  8
ASSEMBLY_OUTLINES_TOP
100
AcDbPolyline
 90
        2
 70
         0
 43
0.2032
 10
-2.5715
 20
-7.243837
 10
-4.8575
 20
-7.243837
  0
LWPOLYLINE
  5
96
100
AcDbEntity
  8
ASSEMBLY_OUTLINES_TOP
100
AcDbPolyline
 90
        2
 70
         0
 43
0.2032
 10
2.5715
 20
-7.243837
 10
4.8575
 20
-7.243837
  0
LWPOLYLINE
  5
97
100
AcDbEntity
  8
ASSEMBLY_OUTLINES_TOP
100
AcDbPolyline
 90
        3
 70
         1
 10
-2.0
 20
-7.243837
 10
-3.143
 20
-7.815336
 10
-3.143
 20
-6.672337
  0
HATCH
  5
98
100
AcDbEntity
  8
ASSEMBLY_OUTLINES_TOP
100
AcDbHatch
 10
0.0
 20
0.0
 30
0.0
210
0.0
220
0.0
230
1.0
  2
SOLID
 70
         1
 71
         1
 91
        1
 92
        2
 72
         0
 73
         1
 93
        3
 10
-2.0
 20
-7.2438370000000001
 10
-3.1429999999999998
 20
-7.8153360000000003
 10
-3.1429999999999998
 20
-6.6723369999999997
 97
        1
330
97
 75
         0
 76
         1
 98
        1
 10
0.0
 20
0.0
  0
LWPOLYLINE
  5
99
100
AcDbEntity
  8
ASSEMBLY_OUTLINES_TOP
100
AcDbPolyline
 90
        3
 70
         1
 10
2.0
 20
-7.243837
 10
3.143
 20
-6.672337
 10
3.143
 20
-7.815337
  0
HATCH
  5
9A
100
AcDbEntity
  8
ASSEMBLY_OUTLINES_TOP
100
AcDbHatch
 10
0.0
 20
0.0
 30
0.0
210
0.0
220
0.0
230
1.0
  2
SOLID
 70
         1
 71
         1
 91
        1
 92
        2
 72
         0
 73
         1
 93
        3
 10
2.0
 20
-7.2438370000000001
 10
3.1429999999999998
 20
-6.6723369999999997
 10
3.1429999999999998
 20
-7.8153370000000004
 97
        1
330
99
 75
         0
 76
         1
 98
        1
 10
0.0
 20
0.0
  0
LWPOLYLINE
  5
9B
100
AcDbEntity
  8
ASSEMBLY_OUTLINES_TOP
100
AcDbPolyline
 90
        2
 70
         0
 43
0.2032
 10
2.492
 20
69.0
 10
-9.045993
 20
69.0
  0
LWPOLYLINE
  5
9C
100
AcDbEntity
  8
ASSEMBLY_OUTLINES_TOP
100
AcDbPolyline
 90
        2
 70
         0
 43
0.2032
 10
2.492
 20
46.0
 10
-9.045993
 20
46.0
  0
LWPOLYLINE
  5
9D
100
AcDbEntity
  8
ASSEMBLY_OUTLINES_TOP
100
AcDbPolyline
 90
        2
 70
         0
 43
0.2032
 10
-8.537993
 20
68.4285
 10
-8.537993
 20
60.252597
  0
LWPOLYLINE
  5
9E
100
AcDbEntity
  8
ASSEMBLY_OUTLINES_TOP
100
AcDbPolyline
 90
        2
 70
         0
 43
0.2032
 10
-8.537993
 20
54.747402
 10
-8.537993
 20
46.5715
  0
LWPOLYLINE
  5
9F
100
AcDbEntity
  8
ASSEMBLY_OUTLINES_TOP
100
AcDbPolyline
 90
        3
 70
         1
 10
-8.537993
 20
69.0
 10
-7.966494
 20
67.857
 10
-9.109493
 20
67.857001
  0
HATCH
  5
A0
100
AcDbEntity
  8
ASSEMBLY_OUTLINES_TOP
100
AcDbHatch
 10
0.0
 20
0.0
 30
0.0
210
0.0
220
0.0
230
1.0
  2
SOLID
 70
         1
 71
         1
 91
        1
 92
        2
 72
         0
 73
         1
 93
        3
 10
-8.5379930000000002
 20
69.0
 10
-7.966494
 20
67.856999999999999
 10
-9.1094930000000005
 20
67.857000999999997
 97
        1
330
9F
 75
         0
 76
         1
 98
        1
 10
0.0
 20
0.0
  0
LWPOLYLINE
  5
A1
100
AcDbEntity
  8
ASSEMBLY_OUTLINES_TOP
100
AcDbPolyline
 90
        3
 70
         1
 10
-8.537993
 20
46.0
 10
-9.109493
 20
47.143
 10
-7.966493
 20
47.143
  0
HATCH
  5
A2
100
AcDbEntity
  8
ASSEMBLY_OUTLINES_TOP
100
AcDbHatch
 10
0.0
 20
0.0
 30
0.0
210
0.0
220
0.0
230
1.0
  2
SOLID
 70
         1
 71
         1
 91
        1
 92
        2
 72
         0
 73
         1
 93
        3
 10
-8.5379930000000002
 20
46.0
 10
-9.1094930000000005
 20
47.143000000000001
 10
-7.9664929999999998
 20
47.143000000000001
 97
        1
330
A1
 75
         0
 76
         1
 98
        1
 10
0.0
 20
0.0
  0
LWPOLYLINE
  5
A3
100
AcDbEntity
  8
ASSEMBLY_OUTLINES_TOP
100
AcDbPolyline
 90
        2
 70
         0
 43
0.2032
 10
2.492
 20
46.0
 10
-9.072711
 20
46.0
  0
LWPOLYLINE
  5
A4
100
AcDbEntity
  8
ASSEMBLY_OUTLINES_TOP
100
AcDbPolyline
 90
        2
 70
         0
 43
0.2032
 10
2.492
 20
23.0
 10
-9.072711
 20
23.0
  0
LWPOLYLINE
  5
A5
100
AcDbEntity
  8
ASSEMBLY_OUTLINES_TOP
100
AcDbPolyline
 90
        2
 70
         0
 43
0.2032
 10
-8.564711
 20
45.4285
 10
-8.564711
 20
37.252597
  0
LWPOLYLINE
  5
A6
100
AcDbEntity
  8
ASSEMBLY_OUTLINES_TOP
100
AcDbPolyline
 90
        2
 70
         0
 43
0.2032
 10
-8.564711
 20
31.747402
 10
-8.564711
 20
23.5715
  0
LWPOLYLINE
  5
A7
100
AcDbEntity
  8
ASSEMBLY_OUTLINES_TOP
100
AcDbPolyline
 90
        3
 70
         1
 10
-8.564711
 20
46.0
 10
-7.993212
 20
44.857
 10
-9.136211
 20
44.857001
  0
HATCH
  5
A8
100
AcDbEntity
  8
ASSEMBLY_OUTLINES_TOP
100
AcDbHatch
 10
0.0
 20
0.0
 30
0.0
210
0.0
220
0.0
230
1.0
  2
SOLID
 70
         1
 71
         1
 91
        1
 92
        2
 72
         0
 73
         1
 93
        3
 10
-8.5647110000000009
 20
46.0
 10
-7.9932119999999998
 20
44.856999999999999
 10
-9.1362109999999994
 20
44.857000999999997
 97
        1
330
A7
 75
         0
 76
         1
 98
        1
 10
0.0
 20
0.0
  0
LWPOLYLINE
  5
A9
100
AcDbEntity
  8
ASSEMBLY_OUTLINES_TOP
100
AcDbPolyline
 90
        3
 70
         1
 10
-8.564711
 20
23.0
 10
-9.136211
 20
24.143
 10
-7.993211
 20
24.143
  0
HATCH
  5
AA
100
AcDbEntity
  8
ASSEMBLY_OUTLINES_TOP
100
AcDbHatch
 10
0.0
 20
0.0
 30
0.0
210
0.0
220
0.0
230
1.0
  2
SOLID
 70
         1
 71
         1
 91
        1
 92
        2
 72
         0
 73
         1
 93
        3
 10
-8.5647110000000009
 20
23.0
 10
-9.1362109999999994
 20
24.143000000000001
 10
-7.9932109999999996
 20
24.143000000000001
 97
        1
330
A9
 75
         0
 76
         1
 98
        1
 10
0.0
 20
0.0
  0
LWPOLYLINE
  5
AB
100
AcDbEntity
  8
ASSEMBLY_OUTLINES_TOP
100
AcDbPolyline
 90
        2
 70
         0
 43
0.2032
 10
-2.0
 20
-3.492
 10
-2.0
 20
19.808
  0
LWPOLYLINE
  5
AC
100
AcDbEntity
  8
ASSEMBLY_OUTLINES_TOP
100
AcDbPolyline
 90
        2
 70
         0
 43
0.2032
 10
3.0
 20
22.492
 10
3.0
 20
18.792
  0
LWPOLYLINE
  5
AD
100
AcDbEntity
  8
ASSEMBLY_OUTLINES_TOP
100
AcDbPolyline
 90
        2
 70
         0
 43
0.2032
 10
-2.5715
 20
19.3
 10
-4.8575
 20
19.3
  0
LWPOLYLINE
  5
AE
100
AcDbEntity
  8
ASSEMBLY_OUTLINES_TOP
100
AcDbPolyline
 90
        2
 70
         0
 43
0.2032
 10
3.5715
 20
19.3
 10
5.8575
 20
19.3
  0
LWPOLYLINE
  5
AF
100
AcDbEntity
  8
ASSEMBLY_OUTLINES_TOP
100
AcDbPolyline
 90
        3
 70
         1
 10
-2.0
 20
19.3
 10
-3.143
 20
18.728501
 10
-3.143
 20
19.8715
  0
HATCH
  5
B0
100
AcDbEntity
  8
ASSEMBLY_OUTLINES_TOP
100
AcDbHatch
 10
0.0
 20
0.0
 30
0.0
210
0.0
220
0.0
230
1.0
  2
SOLID
 70
         1
 71
         1
 91
        1
 92
        2
 72
         0
 73
         1
 93
        3
 10
-2.0
 20
19.300000000000001
 10
-3.1429999999999998
 20
18.728501000000001
 10
-3.1429999999999998
 20
19.871500000000001
 97
        1
330
AF
 75
         0
 76
         1
 98
        1
 10
0.0
 20
0.0
  0
LWPOLYLINE
  5
B1
100
AcDbEntity
  8
ASSEMBLY_OUTLINES_TOP
100
AcDbPolyline
 90
        3
 70
         1
 10
3.0
 20
19.3
 10
4.143
 20
19.8715
 10
4.143
 20
18.7285
  0
HATCH
  5
B2
100
AcDbEntity
  8
ASSEMBLY_OUTLINES_TOP
100
AcDbHatch
 10
0.0
 20
0.0
 30
0.0
210
0.0
220
0.0
230
1.0
  2
SOLID
 70
         1
 71
         1
 91
        1
 92
        2
 72
         0
 73
         1
 93
        3
 10
3.0
 20
19.300000000000001
 10
4.1429999999999998
 20
19.871500000000001
 10
4.1429999999999998
 20
18.7285
 97
        1
330
B1
 75
         0
 76
         1
 98
        1
 10
0.0
 20
0.0
  0
LWPOLYLINE
  5
B3
100
AcDbEntity
  8
ASSEMBLY_OUTLINES_TOP
100
AcDbPolyline
 90
        2
 70
         0
 43
0.2032
 10
183.508
 20
96.0
 10
186.008
 20
96.0
  0
LWPOLYLINE
  5
B4
100
AcDbEntity
  8
ASSEMBLY_OUTLINES_TOP
100
AcDbPolyline
 90
        2
 70
         0
 43
0.2032
 10
179.508
 20
92.0
 10
186.008
 20
92.0
  0
LWPOLYLINE
  5
B5
100
AcDbEntity
  8
ASSEMBLY_OUTLINES_TOP
100
AcDbPolyline
 90
        2
 70
         0
 43
0.2032
 10
185.5
 20
96.5715
 10
185.5
 20
98.8575
  0
LWPOLYLINE
  5
B6
100
AcDbEntity
  8
ASSEMBLY_OUTLINES_TOP
100
AcDbPolyline
 90
        2
 70
         0
 43
0.2032
 10
185.5
 20
91.4285
 10
185.5
 20
89.1425
  0
LWPOLYLINE
  5
B7
100
AcDbEntity
  8
ASSEMBLY_OUTLINES_TOP
100
AcDbPolyline
 90
        3
 70
         1
 10
185.5
 20
96.0
 10
184.9285
 20
97.143
 10
186.0715
 20
97.143
  0
HATCH
  5
B8
100
AcDbEntity
  8
ASSEMBLY_OUTLINES_TOP
100
AcDbHatch
 10
0.0
 20
0.0
 30
0.0
210
0.0
220
0.0
230
1.0
  2
SOLID
 70
         1
 71
         1
 91
        1
 92
        2
 72
         0
 73
         1
 93
        3
 10
185.5
 20
96.0
 10
184.92850000000001
 20
97.143000000000001
 10
186.07149999999999
 20
97.143000000000001
 97
        1
330
B7
 75
         0
 76
         1
 98
        1
 10
0.0
 20
0.0
  0
LWPOLYLINE
  5
B9
100
AcDbEntity
  8
ASSEMBLY_OUTLINES_TOP
100
AcDbPolyline
 90
        3
 70
         1
 10
185.5
 20
92.0
 10
186.071499
 20
90.857
 10
184.9285
 20
90.857001
  0
HATCH
  5
BA
100
AcDbEntity
  8
ASSEMBLY_OUTLINES_TOP
100
AcDbHatch
 10
0.0
 20
0.0
 30
0.0
210
0.0
220
0.0
230
1.0
  2
SOLID
 70
         1
 71
         1
 91
        1
 92
        2
 72
         0
 73
         1
 93
        3
 10
185.5
 20
92.0
 10
186.07149899999999
 20
90.856999999999999
 10
184.92850000000001
 20
90.857000999999997
 97
        1
330
B9
 75
         0
 76
         1
 98
        1
 10
0.0
 20
0.0
  0
LWPOLYLINE
  5
BB
100
AcDbEntity
  8
ASSEMBLY_OUTLINES_TOP
100
AcDbPolyline
 90
        2
 70
         0
 43
0.2032
 10
179.508
 20
92.0
 10
190.053751
 20
92.0
  0
LWPOLYLINE
  5
BC
100
AcDbEntity
  8
ASSEMBLY_OUTLINES_TOP
100
AcDbPolyline
 90
        2
 70
         0
 43
0.2032
 10
178.508
 20
69.0
 10
190.053751
 20
69.0
  0
LWPOLYLINE
  5
BD
100
AcDbEntity
  8
ASSEMBLY_OUTLINES_TOP
100
AcDbPolyline
 90
        2
 70
         0
 43
0.2032
 10
189.545751
 20
91.4285
 10
189.545751
 20
83.252597
  0
LWPOLYLINE
  5
BE
100
AcDbEntity
  8
ASSEMBLY_OUTLINES_TOP
100
AcDbPolyline
 90
        2
 70
         0
 43
0.2032
 10
189.545751
 20
77.747402
 10
189.545751
 20
69.5715
  0
LWPOLYLINE
  5
BF
100
AcDbEntity
  8
ASSEMBLY_OUTLINES_TOP
100
AcDbPolyline
 90
        3
 70
         1
 10
189.545751
 20
92.0
 10
190.11725
 20
90.857
 10
188.974251
 20
90.857001
  0
HATCH
  5
C0
100
AcDbEntity
  8
ASSEMBLY_OUTLINES_TOP
100
AcDbHatch
 10
0.0
 20
0.0
 30
0.0
210
0.0
220
0.0
230
1.0
  2
SOLID
 70
         1
 71
         1
 91
        1
 92
        2
 72
         0
 73
         1
 93
        3
 10
189.545751
 20
92.0
 10
190.11725000000001
 20
90.856999999999999
 10
188.97425100000001
 20
90.857000999999997
 97
        1
330
BF
 75
         0
 76
         1
 98
        1
 10
0.0
 20
0.0
  0
LWPOLYLINE
  5
C1
100
AcDbEntity
  8
ASSEMBLY_OUTLINES_TOP
100
AcDbPolyline
 90
        3
 70
         1
 10
189.545751
 20
69.0
 10
188.974251
 20
70.143
 10
190.117251
 20
70.143
  0
HATCH
  5
C2
100
AcDbEntity
  8
ASSEMBLY_OUTLINES_TOP
100
AcDbHatch
 10
0.0
 20
0.0
 30
0.0
210
0.0
220
0.0
230
1.0
  2
SOLID
 70
         1
 71
         1
 91
        1
 92
        2
 72
         0
 73
         1
 93
        3
 10
189.545751
 20
69.0
 10
188.97425100000001
 20
70.143000000000001
 10
190.11725100000001
 20
70.143000000000001
 97
        1
330
C1
 75
         0
 76
         1
 98
        1
 10
0.0
 20
0.0
  0
LWPOLYLINE
  5
C3
100
AcDbEntity
  8
ASSEMBLY_OUTLINES_TOP
100
AcDbPolyline
 90
        2
 70
         0
 43
0.2032
 10
179.0
 20
92.508
 10
179.0
 20
108.437609
  0
LWPOLYLINE
  5
C4
100
AcDbEntity
  8
ASSEMBLY_OUTLINES_TOP
100
AcDbPolyline
 90
        2
 70
         0
 43
0.2032
 10
183.0
 20
96.508
 10
183.0
 20
108.437609
  0
LWPOLYLINE
  5
C5
100
AcDbEntity
  8
ASSEMBLY_OUTLINES_TOP
100
AcDbPolyline
 90
        2
 70
         0
 43
0.2032
 10
178.4285
 20
107.929609
 10
176.1425
 20
107.929609
  0
LWPOLYLINE
  5
C6
100
AcDbEntity
  8
ASSEMBLY_OUTLINES_TOP
100
AcDbPolyline
 90
        2
 70
         0
 43
0.2032
 10
183.5715
 20
107.929609
 10
185.8575
 20
107.929609
  0
LWPOLYLINE
  5
C7
100
AcDbEntity
  8
ASSEMBLY_OUTLINES_TOP
100
AcDbPolyline
 90
        3
 70
         1
 10
179.0
 20
107.929609
 10
177.857
 20
107.35811
 10
177.857
 20
108.501109
  0
HATCH
  5
C8
100
AcDbEntity
  8
ASSEMBLY_OUTLINES_TOP
100
AcDbHatch
 10
0.0
 20
0.0
 30
0.0
210
0.0
220
0.0
230
1.0
  2
SOLID
 70
         1
 71
         1
 91
        1
 92
        2
 72
         0
 73
         1
 93
        3
 10
179.0
 20
107.929609
 10
177.857
 20
107.35811
 10
177.857
 20
108.501109
 97
        1
330
C7
 75
         0
 76
         1
 98
        1
 10
0.0
 20
0.0
  0
LWPOLYLINE
  5
C9
100
AcDbEntity
  8
ASSEMBLY_OUTLINES_TOP
100
AcDbPolyline
 90
        3
 70
         1
 10
183.0
 20
107.929609
 10
184.143
 20
108.501109
 10
184.143
 20
107.358109
  0
HATCH
  5
CA
100
AcDbEntity
  8
ASSEMBLY_OUTLINES_TOP
100
AcDbHatch
 10
0.0
 20
0.0
 30
0.0
210
0.0
220
0.0
230
1.0
  2
SOLID
 70
         1
 71
         1
 91
        1
 92
        2
 72
         0
 73
         1
 93
        3
 10
183.0
 20
107.929609
 10
184.143
 20
108.501109
 10
184.143
 20
107.358109
 97
        1
330
C9
 75
         0
 76
         1
 98
        1
 10
0.0
 20
0.0
  0
LWPOLYLINE
  5
CB
100
AcDbEntity
  8
ASSEMBLY_OUTLINES_TOP
100
AcDbPolyline
 90
        2
 70
         0
 43
0.2032
 10
178.508
 20
69.0
 10
190.195432
 20
69.0
  0
LWPOLYLINE
  5
CC
100
AcDbEntity
  8
ASSEMBLY_OUTLINES_TOP
100
AcDbPolyline
 90
        2
 70
         0
 43
0.2032
 10
178.508
 20
46.0
 10
190.195432
 20
46.0
  0
LWPOLYLINE
  5
CD
100
AcDbEntity
  8
ASSEMBLY_OUTLINES_TOP
100
AcDbPolyline
 90
        2
 70
         0
 43
0.2032
 10
189.687432
 20
68.4285
 10
189.687432
 20
60.252597
  0
LWPOLYLINE
  5
CE
100
AcDbEntity
  8
ASSEMBLY_OUTLINES_TOP
100
AcDbPolyline
 90
        2
 70
         0
 43
0.2032
 10
189.687432
 20
54.747402
 10
189.687432
 20
46.5715
  0
LWPOLYLINE
  5
CF
100
AcDbEntity
  8
ASSEMBLY_OUTLINES_TOP
100
AcDbPolyline
 90
        3
 70
         1
 10
189.687432
 20
69.0
 10
190.258931
 20
67.857
 10
189.115932
 20
67.857001
  0
HATCH
  5
D0
100
AcDbEntity
  8
ASSEMBLY_OUTLINES_TOP
100
AcDbHatch
 10
0.0
 20
0.0
 30
0.0
210
0.0
220
0.0
230
1.0
  2
SOLID
 70
         1
 71
         1
 91
        1
 92
        2
 72
         0
 73
         1
 93
        3
 10
189.687432
 20
69.0
 10
190.25893099999999
 20
67.856999999999999
 10
189.11593199999999
 20
67.857000999999997
 97
        1
330
CF
 75
         0
 76
         1
 98
        1
 10
0.0
 20
0.0
  0
LWPOLYLINE
  5
D1
100
AcDbEntity
  8
ASSEMBLY_OUTLINES_TOP
100
AcDbPolyline
 90
        3
 70
         1
 10
189.687432
 20
46.0
 10
189.115932
 20
47.143
 10
190.258932
 20
47.143
  0
HATCH
  5
D2
100
AcDbEntity
  8
ASSEMBLY_OUTLINES_TOP
100
AcDbHatch
 10
0.0
 20
0.0
 30
0.0
210
0.0
220
0.0
230
1.0
  2
SOLID
 70
         1
 71
         1
 91
        1
 92
        2
 72
         0
 73
         1
 93
        3
 10
189.687432
 20
46.0
 10
189.11593199999999
 20
47.143000000000001
 10
190.25893199999999
 20
47.143000000000001
 97
        1
330
D1
 75
         0
 76
         1
 98
        1
 10
0.0
 20
0.0
  0
LWPOLYLINE
  5
D3
100
AcDbEntity
  8
ASSEMBLY_OUTLINES_TOP
100
AcDbPolyline
 90
        2
 70
         0
 43
0.2032
 10
178.508
 20
46.0
 10
190.229458
 20
46.0
  0
LWPOLYLINE
  5
D4
100
AcDbEntity
  8
ASSEMBLY_OUTLINES_TOP
100
AcDbPolyline
 90
        2
 70
         0
 43
0.2032
 10
178.508
 20
23.0
 10
190.229458
 20
23.0
  0
LWPOLYLINE
  5
D5
100
AcDbEntity
  8
ASSEMBLY_OUTLINES_TOP
100
AcDbPolyline
 90
        2
 70
         0
 43
0.2032
 10
189.721458
 20
45.4285
 10
189.721458
 20
37.252597
  0
LWPOLYLINE
  5
D6
100
AcDbEntity
  8
ASSEMBLY_OUTLINES_TOP
100
AcDbPolyline
 90
        2
 70
         0
 43
0.2032
 10
189.721458
 20
31.747402
 10
189.721458
 20
23.5715
  0
LWPOLYLINE
  5
D7
100
AcDbEntity
  8
ASSEMBLY_OUTLINES_TOP
100
AcDbPolyline
 90
        3
 70
         1
 10
189.721458
 20
46.0
 10
190.292957
 20
44.857
 10
189.149958
 20
44.857001
  0
HATCH
  5
D8
100
AcDbEntity
  8
ASSEMBLY_OUTLINES_TOP
100
AcDbHatch
 10
0.0
 20
0.0
 30
0.0
210
0.0
220
0.0
230
1.0
  2
SOLID
 70
         1
 71
         1
 91
        1
 92
        2
 72
         0
 73
         1
 93
        3
 10
189.72145800000001
 20
46.0
 10
190.292957
 20
44.856999999999999
 10
189.149958
 20
44.857000999999997
 97
        1
330
D7
 75
         0
 76
         1
 98
        1
 10
0.0
 20
0.0
  0
LWPOLYLINE
  5
D9
100
AcDbEntity
  8
ASSEMBLY_OUTLINES_TOP
100
AcDbPolyline
 90
        3
 70
         1
 10
189.721458
 20
23.0
 10
189.149958
 20
24.143
 10
190.292958
 20
24.143
  0
HATCH
  5
DA
100
AcDbEntity
  8
ASSEMBLY_OUTLINES_TOP
100
AcDbHatch
 10
0.0
 20
0.0
 30
0.0
210
0.0
220
0.0
230
1.0
  2
SOLID
 70
         1
 71
         1
 91
        1
 92
        2
 72
         0
 73
         1
 93
        3
 10
189.72145800000001
 20
23.0
 10
189.149958
 20
24.143000000000001
 10
190.292958
 20
24.143000000000001
 97
        1
330
D9
 75
         0
 76
         1
 98
        1
 10
0.0
 20
0.0
  0
LWPOLYLINE
  5
DB
100
AcDbEntity
  8
ASSEMBLY_OUTLINES_TOP
100
AcDbPolyline
 90
        2
 70
         0
 43
0.2032
 10
178.508
 20
23.0
 10
190.282012
 20
23.0
  0
LWPOLYLINE
  5
DC
100
AcDbEntity
  8
ASSEMBLY_OUTLINES_TOP
100
AcDbPolyline
 90
        2
 70
         0
 43
0.2032
 10
179.508
 20
0.0
 10
190.282012
 20
0.0
  0
LWPOLYLINE
  5
DD
100
AcDbEntity
  8
ASSEMBLY_OUTLINES_TOP
100
AcDbPolyline
 90
        2
 70
         0
 43
0.2032
 10
189.774012
 20
22.4285
 10
189.774012
 20
14.252597
  0
LWPOLYLINE
  5
DE
100
AcDbEntity
  8
ASSEMBLY_OUTLINES_TOP
100
AcDbPolyline
 90
        2
 70
         0
 43
0.2032
 10
189.774012
 20
8.747402
 10
189.774012
 20
0.5715
  0
LWPOLYLINE
  5
DF
100
AcDbEntity
  8
ASSEMBLY_OUTLINES_TOP
100
AcDbPolyline
 90
        3
 70
         1
 10
189.774012
 20
23.0
 10
190.345511
 20
21.857
 10
189.202512
 20
21.857001
  0
HATCH
  5
E0
100
AcDbEntity
  8
ASSEMBLY_OUTLINES_TOP
100
AcDbHatch
 10
0.0
 20
0.0
 30
0.0
210
0.0
220
0.0
230
1.0
  2
SOLID
 70
         1
 71
         1
 91
        1
 92
        2
 72
         0
 73
         1
 93
        3
 10
189.774012
 20
23.0
 10
190.34551099999999
 20
21.856999999999999
 10
189.20251200000001
 20
21.857001
 97
        1
330
DF
 75
         0
 76
         1
 98
        1
 10
0.0
 20
0.0
  0
LWPOLYLINE
  5
E1
100
AcDbEntity
  8
ASSEMBLY_OUTLINES_TOP
100
AcDbPolyline
 90
        3
 70
         1
 10
189.774012
 20
0.0
 10
189.202512
 20
1.143
 10
190.345512
 20
1.143
  0
HATCH
  5
E2
100
AcDbEntity
  8
ASSEMBLY_OUTLINES_TOP
100
AcDbHatch
 10
0.0
 20
0.0
 30
0.0
210
0.0
220
0.0
230
1.0
  2
SOLID
 70
         1
 71
         1
 91
        1
 92
        2
 72
         0
 73
         1
 93
        3
 10
189.774012
 20
0.0
 10
189.20251200000001
 20
1.143
 10
190.34551200000001
 20
1.143
 97
        1
330
E1
 75
         0
 76
         1
 98
        1
 10
0.0
 20
0.0
  0
LWPOLYLINE
  5
E3
100
AcDbEntity
  8
ASSEMBLY_OUTLINES_TOP
100
AcDbPolyline
 90
        2
 70
         0
 43
0.2032
 10
179.0
 20
-0.508
 10
179.0
 20
-11.316621
  0
LWPOLYLINE
  5
E4
100
AcDbEntity
  8
ASSEMBLY_OUTLINES_TOP
100
AcDbPolyline
 90
        2
 70
         0
 43
0.2032
 10
183.0
 20
-4.508
 10
183.0
 20
-11.316621
  0
LWPOLYLINE
  5
E5
100
AcDbEntity
  8
ASSEMBLY_OUTLINES_TOP
100
AcDbPolyline
 90
        2
 70
         0
 43
0.2032
 10
178.4285
 20
-10.808621
 10
176.1425
 20
-10.808621
  0
LWPOLYLINE
  5
E6
100
AcDbEntity
  8
ASSEMBLY_OUTLINES_TOP
100
AcDbPolyline
 90
        2
 70
         0
 43
0.2032
 10
183.5715
 20
-10.808621
 10
185.8575
 20
-10.808621
  0
LWPOLYLINE
  5
E7
100
AcDbEntity
  8
ASSEMBLY_OUTLINES_TOP
100
AcDbPolyline
 90
        3
 70
         1
 10
179.0
 20
-10.808621
 10
177.857
 20
-11.38012
 10
177.857
 20
-10.237121
  0
HATCH
  5
E8
100
AcDbEntity
  8
ASSEMBLY_OUTLINES_TOP
100
AcDbHatch
 10
0.0
 20
0.0
 30
0.0
210
0.0
220
0.0
230
1.0
  2
SOLID
 70
         1
 71
         1
 91
        1
 92
        2
 72
         0
 73
         1
 93
        3
 10
179.0
 20
-10.808621
 10
177.857
 20
-11.38012
 10
177.857
 20
-10.237121
 97
        1
330
E7
 75
         0
 76
         1
 98
        1
 10
0.0
 20
0.0
  0
LWPOLYLINE
  5
E9
100
AcDbEntity
  8
ASSEMBLY_OUTLINES_TOP
100
AcDbPolyline
 90
        3
 70
         1
 10
183.0
 20
-10.808621
 10
184.143
 20
-10.237121
 10
184.143
 20
-11.380121
  0
HATCH
  5
EA
100
AcDbEntity
  8
ASSEMBLY_OUTLINES_TOP
100
AcDbHatch
 10
0.0
 20
0.0
 30
0.0
210
0.0
220
0.0
230
1.0
  2
SOLID
 70
         1
 71
         1
 91
        1
 92
        2
 72
         0
 73
         1
 93
        3
 10
183.0
 20
-10.808621
 10
184.143
 20
-10.237121
 10
184.143
 20
-11.380121000000001
 97
        1
330
E9
 75
         0
 76
         1
 98
        1
 10
0.0
 20
0.0
  0
LWPOLYLINE
  5
EB
100
AcDbEntity
  8
ASSEMBLY_OUTLINES_TOP
100
AcDbPolyline
 90
        2
 70
         0
 43
0.2032
 10
179.508
 20
0.0
 10
187.867123
 20
0.0
  0
LWPOLYLINE
  5
EC
100
AcDbEntity
  8
ASSEMBLY_OUTLINES_TOP
100
AcDbPolyline
 90
        2
 70
         0
 43
0.2032
 10
183.508
 20
-4.0
 10
187.867123
 20
-4.0
  0
LWPOLYLINE
  5
ED
100
AcDbEntity
  8
ASSEMBLY_OUTLINES_TOP
100
AcDbPolyline
 90
        2
 70
         0
 43
0.2032
 10
187.359123
 20
0.5715
 10
187.359123
 20
2.8575
  0
LWPOLYLINE
  5
EE
100
AcDbEntity
  8
ASSEMBLY_OUTLINES_TOP
100
AcDbPolyline
 90
        2
 70
         0
 43
0.2032
 10
187.359123
 20
-4.5715
 10
187.359123
 20
-6.8575
  0
LWPOLYLINE
  5
EF
100
AcDbEntity
  8
ASSEMBLY_OUTLINES_TOP
100
AcDbPolyline
 90
        3
 70
         1
 10
187.359123
 20
0.0
 10
186.787623
 20
1.143
 10
187.930623
 20
1.143
  0
HATCH
  5
F0
100
AcDbEntity
  8
ASSEMBLY_OUTLINES_TOP
100
AcDbHatch
 10
0.0
 20
0.0
 30
0.0
210
0.0
220
0.0
230
1.0
  2
SOLID
 70
         1
 71
         1
 91
        1
 92
        2
 72
         0
 73
         1
 93
        3
 10
187.35912300000001
 20
0.0
 10
186.787623
 20
1.143
 10
187.930623
 20
1.143
 97
        1
330
EF
 75
         0
 76
         1
 98
        1
 10
0.0
 20
0.0
  0
LWPOLYLINE
  5
F1
100
AcDbEntity
  8
ASSEMBLY_OUTLINES_TOP
100
AcDbPolyline
 90
        3
 70
         1
 10
187.359123
 20
-4.0
 10
187.930622
 20
-5.143
 10
186.787623
 20
-5.142999
  0
HATCH
  5
F2
100
AcDbEntity
  8
ASSEMBLY_OUTLINES_TOP
100
AcDbHatch
 10
0.0
 20
0.0
 30
0.0
210
0.0
220
0.0
230
1.0
  2
SOLID
 70
         1
 71
         1
 91
        1
 92
        2
 72
         0
 73
         1
 93
        3
 10
187.35912300000001
 20
-4.0
 10
187.930622
 20
-5.1429999999999998
 10
186.787623
 20
-5.1429989999999997
 97
        1
330
F1
 75
         0
 76
         1
 98
        1
 10
0.0
 20
0.0
  0
LWPOLYLINE
  5
F3
100
AcDbEntity
  8
ASSEMBLY_OUTLINES_TOP
100
AcDbPolyline
 90
        2
 70
         0
 43
0.2032
 10
178.0
 20
46.508
 10
178.0
 20
50.000364
  0
LWPOLYLINE
  5
F4
100
AcDbEntity
  8
ASSEMBLY_OUTLINES_TOP
100
AcDbPolyline
 90
        2
 70
         0
 43
0.2032
 10
183.0
 20
-3.492
 10
183.0
 20
50.000364
  0
LWPOLYLINE
  5
F5
100
AcDbEntity
  8
ASSEMBLY_OUTLINES_TOP
100
AcDbPolyline
 90
        2
 70
         0
 43
0.2032
 10
177.4285
 20
49.492364
 10
175.1425
 20
49.492364
  0
LWPOLYLINE
  5
F6
100
AcDbEntity
  8
ASSEMBLY_OUTLINES_TOP
100
AcDbPolyline
 90
        2
 70
         0
 43
0.2032
 10
183.5715
 20
49.492364
 10
185.8575
 20
49.492364
  0
LWPOLYLINE
  5
F7
100
AcDbEntity
  8
ASSEMBLY_OUTLINES_TOP
100
AcDbPolyline
 90
        3
 70
         1
 10
178.0
 20
49.492364
 10
176.857
 20
48.920865
 10
176.857
 20
50.063864
  0
HATCH
  5
F8
100
AcDbEntity
  8
ASSEMBLY_OUTLINES_TOP
100
AcDbHatch
 10
0.0
 20
0.0
 30
0.0
210
0.0
220
0.0
230
1.0
  2
SOLID
 70
         1
 71
         1
 91
        1
 92
        2
 72
         0
 73
         1
 93
        3
 10
178.0
 20
49.492364000000002
 10
176.857
 20
48.920864999999999
 10
176.857
 20
50.063864000000002
 97
        1
330
F7
 75
         0
 76
         1
 98
        1
 10
0.0
 20
0.0
  0
LWPOLYLINE
  5
F9
100
AcDbEntity
  8
ASSEMBLY_OUTLINES_TOP
100
AcDbPolyline
 90
        3
 70
         1
 10
183.0
 20
49.492364
 10
184.143
 20
50.063864
 10
184.143
 20
48.920864
  0
HATCH
  5
FA
100
AcDbEntity
  8
ASSEMBLY_OUTLINES_TOP
100
AcDbHatch
 10
0.0
 20
0.0
 30
0.0
210
0.0
220
0.0
230
1.0
  2
SOLID
 70
         1
 71
         1
 91
        1
 92
        2
 72
         0
 73
         1
 93
        3
 10
183.0
 20
49.492364000000002
 10
184.143
 20
50.063864000000002
 10
184.143
 20
48.920864000000002
 97
        1
330
F9
 75
         0
 76
         1
 98
        1
 10
0.0
 20
0.0
  0
LWPOLYLINE
  5
FB
100
AcDbEntity
  8
ASSEMBLY_OUTLINES_TOP
100
AcDbPolyline
 90
        2
 70
         0
 43
0.2032
 10
178.0
 20
68.492
 10
178.0
 20
65.588045
  0
LWPOLYLINE
  5
FC
100
AcDbEntity
  8
ASSEMBLY_OUTLINES_TOP
100
AcDbPolyline
 90
        2
 70
         0
 43
0.2032
 10
183.0
 20
95.492
 10
183.0
 20
65.588045
  0
LWPOLYLINE
  5
FD
100
AcDbEntity
  8
ASSEMBLY_OUTLINES_TOP
100
AcDbPolyline
 90
        2
 70
         0
 43
0.2032
 10
177.4285
 20
66.096045
 10
175.1425
 20
66.096045
  0
LWPOLYLINE
  5
FE
100
AcDbEntity
  8
ASSEMBLY_OUTLINES_TOP
100
AcDbPolyline
 90
        2
 70
         0
 43
0.2032
 10
183.5715
 20
66.096045
 10
185.8575
 20
66.096045
  0
LWPOLYLINE
  5
FF
100
AcDbEntity
  8
ASSEMBLY_OUTLINES_TOP
100
AcDbPolyline
 90
        3
 70
         1
 10
178.0
 20
66.096045
 10
176.857
 20
65.524546
 10
176.857
 20
66.667545
  0
HATCH
  5
100
100
AcDbEntity
  8
ASSEMBLY_OUTLINES_TOP
100
AcDbHatch
 10
0.0
 20
0.0
 30
0.0
210
0.0
220
0.0
230
1.0
  2
SOLID
 70
         1
 71
         1
 91
        1
 92
        2
 72
         0
 73
         1
 93
        3
 10
178.0
 20
66.096045000000004
 10
176.857
 20
65.524546000000001
 10
176.857
 20
66.667545000000004
 97
        1
330
FF
 75
         0
 76
         1
 98
        1
 10
0.0
 20
0.0
  0
LWPOLYLINE
  5
101
100
AcDbEntity
  8
ASSEMBLY_OUTLINES_TOP
100
AcDbPolyline
 90
        3
 70
         1
 10
183.0
 20
66.096045
 10
184.143
 20
66.667545
 10
184.143
 20
65.524545
  0
HATCH
  5
102
100
AcDbEntity
  8
ASSEMBLY_OUTLINES_TOP
100
AcDbHatch
 10
0.0
 20
0.0
 30
0.0
210
0.0
220
0.0
230
1.0
  2
SOLID
 70
         1
 71
         1
 91
        1
 92
        2
 72
         0
 73
         1
 93
        3
 10
183.0
 20
66.096045000000004
 10
184.143
 20
66.667545000000004
 10
184.143
 20
65.524545000000003
 97
        1
330
101
 75
         0
 76
         1
 98
        1
 10
0.0
 20
0.0
  0
LWPOLYLINE
  5
103
100
AcDbEntity
  8
ASSEMBLY_OUTLINES_TOP
100
AcDbPolyline
 90
        2
 70
         0
 43
0.2032
 10
178.0
 20
23.508
 10
178.0
 20
26.503566
  0
LWPOLYLINE
  5
104
100
AcDbEntity
  8
ASSEMBLY_OUTLINES_TOP
100
AcDbPolyline
 90
        2
 70
         0
 43
0.2032
 10
183.0
 20
-3.492
 10
183.0
 20
26.503566
  0
LWPOLYLINE
  5
105
100
AcDbEntity
  8
ASSEMBLY_OUTLINES_TOP
100
AcDbPolyline
 90
        2
 70
         0
 43
0.2032
 10
177.4285
 20
25.995566
 10
175.1425
 20
25.995566
  0
LWPOLYLINE
  5
106
100
AcDbEntity
  8
ASSEMBLY_OUTLINES_TOP
100
AcDbPolyline
 90
        2
 70
         0
 43
0.2032
 10
183.5715
 20
25.995566
 10
185.8575
 20
25.995566
  0
LWPOLYLINE
  5
107
100
AcDbEntity
  8
ASSEMBLY_OUTLINES_TOP
100
AcDbPolyline
 90
        3
 70
         1
 10
178.0
 20
25.995566
 10
176.857
 20
25.424067
 10
176.857
 20
26.567066
  0
HATCH
  5
108
100
AcDbEntity
  8
ASSEMBLY_OUTLINES_TOP
100
AcDbHatch
 10
0.0
 20
0.0
 30
0.0
210
0.0
220
0.0
230
1.0
  2
SOLID
 70
         1
 71
         1
 91
        1
 92
        2
 72
         0
 73
         1
 93
        3
 10
178.0
 20
25.995566
 10
176.857
 20
25.424067000000001
 10
176.857
 20
26.567066000000001
 97
        1
330
107
 75
         0
 76
         1
 98
        1
 10
0.0
 20
0.0
  0
LWPOLYLINE
  5
109
100
AcDbEntity
  8
ASSEMBLY_OUTLINES_TOP
100
AcDbPolyline
 90
        3
 70
         1
 10
183.0
 20
25.995566
 10
184.143
 20
26.567066
 10
184.143
 20
25.424066
  0
HATCH
  5
10A
100
AcDbEntity
  8
ASSEMBLY_OUTLINES_TOP
100
AcDbHatch
 10
0.0
 20
0.0
 30
0.0
210
0.0
220
0.0
230
1.0
  2
SOLID
 70
         1
 71
         1
 91
        1
 92
        2
 72
         0
 73
         1
 93
        3
 10
183.0
 20
25.995566
 10
184.143
 20
26.567066000000001
 10
184.143
 20
25.424066
 97
        1
330
109
 75
         0
 76
         1
 98
        1
 10
0.0
 20
0.0
  0
LWPOLYLINE
  5
10B
100
AcDbEntity
  8
ASSEMBLY_OUTLINES_TOP
100
AcDbPolyline
 90
        4
 70
         1
 43
0.1
 10
9.9
 20
16.8
 10
9.9
 20
74.8
 10
77.5
 20
74.8
 10
77.5
 20
16.8
  0
LWPOLYLINE
  5
10C
100
AcDbEntity
  8
ASSEMBLY_OUTLINES_TOP
100
AcDbPolyline
 90
        2
 70
         0
 43
0.2
 10
92.0
 20
3.5
 10
92.0
 20
-6.5
  0
LWPOLYLINE
  5
10D
100
AcDbEntity
  8
ASSEMBLY_OUTLINES_TOP
100
AcDbPolyline
 90
        2
 70
         0
 43
0.2032
 10
92.0
 20
-7.008
 10
92.0
 20
-8.473114
  0
LWPOLYLINE
  5
10E
100
AcDbEntity
  8
ASSEMBLY_OUTLINES_TOP
100
AcDbPolyline
 90
        2
 70
         0
 43
0.2032
 10
173.0
 20
-4.508
 10
173.0
 20
-8.473114
  0
LWPOLYLINE
  5
10F
100
AcDbEntity
  8
ASSEMBLY_OUTLINES_TOP
100
AcDbPolyline
 90
        2
 70
         0
 43
0.2032
 10
92.5715
 20
-7.965114
 10
129.820745
 20
-7.965114
  0
LWPOLYLINE
  5
110
100
AcDbEntity
  8
ASSEMBLY_OUTLINES_TOP
100
AcDbPolyline
 90
        2
 70
         0
 43
0.2032
 10
135.179256
 20
-7.965114
 10
172.4285
 20
-7.965114
  0
LWPOLYLINE
  5
111
100
AcDbEntity
  8
ASSEMBLY_OUTLINES_TOP
100
AcDbPolyline
 90
        3
 70
         1
 10
92.0
 20
-7.965114
 10
93.143
 20
-7.393614
 10
93.143
 20
-8.536614
  0
HATCH
  5
112
100
AcDbEntity
  8
ASSEMBLY_OUTLINES_TOP
100
AcDbHatch
 10
0.0
 20
0.0
 30
0.0
210
0.0
220
0.0
230
1.0
  2
SOLID
 70
         1
 71
         1
 91
        1
 92
        2
 72
         0
 73
         1
 93
        3
 10
92.0
 20
-7.9651139999999998
 10
93.143000000000001
 20
-7.3936140000000004
 10
93.143000000000001
 20
-8.5366140000000001
 97
        1
330
111
 75
         0
 76
         1
 98
        1
 10
0.0
 20
0.0
  0
LWPOLYLINE
  5
113
100
AcDbEntity
  8
ASSEMBLY_OUTLINES_TOP
100
AcDbPolyline
 90
        3
 70
         1
 10
173.0
 20
-7.965114
 10
171.857
 20
-8.536613
 10
171.857
 20
-7.393614
  0
HATCH
  5
114
100
AcDbEntity
  8
ASSEMBLY_OUTLINES_TOP
100
AcDbHatch
 10
0.0
 20
0.0
 30
0.0
210
0.0
220
0.0
230
1.0
  2
SOLID
 70
         1
 71
         1
 91
        1
 92
        2
 72
         0
 73
         1
 93
        3
 10
173.0
 20
-7.9651139999999998
 10
171.857
 20
-8.5366129999999991
 10
171.857
 20
-7.3936140000000004
 97
        1
330
113
 75
         0
 76
         1
 98
        1
 10
0.0
 20
0.0
  0
LWPOLYLINE
  5
115
100
AcDbEntity
  8
ASSEMBLY_OUTLINES_TOP
100
AcDbPolyline
 90
        2
 70
         0
 43
0.2
 10
56.0
 20
4.0
 10
56.0
 20
-6.0
  0
LWPOLYLINE
  5
116
100
AcDbEntity
  8
ASSEMBLY_OUTLINES_TOP
100
AcDbPolyline
 90
        2
 70
         0
 43
0.2032
 10
8.0
 20
-4.508
 10
8.0
 20
-9.114976
  0
LWPOLYLINE
  5
117
100
AcDbEntity
  8
ASSEMBLY_OUTLINES_TOP
100
AcDbPolyline
 90
        2
 70
         0
 43
0.2032
 10
56.0
 20
-6.508
 10
56.0
 20
-9.114976
  0
LWPOLYLINE
  5
118
100
AcDbEntity
  8
ASSEMBLY_OUTLINES_TOP
100
AcDbPolyline
 90
        2
 70
         0
 43
0.2032
 10
8.5715
 20
-8.606976
 10
29.247402
 20
-8.606976
  0
LWPOLYLINE
  5
119
100
AcDbEntity
  8
ASSEMBLY_OUTLINES_TOP
100
AcDbPolyline
 90
        2
 70
         0
 43
0.2032
 10
34.752598
 20
-8.606976
 10
55.4285
 20
-8.606976
  0
LWPOLYLINE
  5
11A
100
AcDbEntity
  8
ASSEMBLY_OUTLINES_TOP
100
AcDbPolyline
 90
        3
 70
         1
 10
8.0
 20
-8.606976
 10
9.143
 20
-8.035476
 10
9.143
 20
-9.178476
  0
HATCH
  5
11B
100
AcDbEntity
  8
ASSEMBLY_OUTLINES_TOP
100
AcDbHatch
 10
0.0
 20
0.0
 30
0.0
210
0.0
220
0.0
230
1.0
  2
SOLID
 70
         1
 71
         1
 91
        1
 92
        2
 72
         0
 73
         1
 93
        3
 10
8.0
 20
-8.6069759999999995
 10
9.1430000000000007
 20
-8.0354759999999992
 10
9.1430000000000007
 20
-9.1784759999999999
 97
        1
330
11A
 75
         0
 76
         1
 98
        1
 10
0.0
 20
0.0
  0
LWPOLYLINE
  5
11C
100
AcDbEntity
  8
ASSEMBLY_OUTLINES_TOP
100
AcDbPolyline
 90
        3
 70
         1
 10
56.0
 20
-8.606976
 10
54.857
 20
-9.178475
 10
54.857
 20
-8.035476
  0
HATCH
  5
11D
100
AcDbEntity
  8
ASSEMBLY_OUTLINES_TOP
100
AcDbHatch
 10
0.0
 20
0.0
 30
0.0
210
0.0
220
0.0
230
1.0
  2
SOLID
 70
         1
 71
         1
 91
        1
 92
        2
 72
         0
 73
         1
 93
        3
 10
56.0
 20
-8.6069759999999995
 10
54.856999999999999
 20
-9.1784750000000006
 10
54.856999999999999
 20
-8.0354759999999992
 97
        1
330
11C
 75
         0
 76
         1
 98
        1
 10
0.0
 20
0.0
  0
LWPOLYLINE
  5
11E
100
AcDbEntity
  8
ASSEMBLY_OUTLINES_TOP
100
AcDbPolyline
 90
        2
 70
         0
 43
0.2032
 10
75.9
 20
96.458
 10
75.9
 20
107.211626
  0
LWPOLYLINE
  5
11F
100
AcDbEntity
  8
ASSEMBLY_OUTLINES_TOP
100
AcDbPolyline
 90
        2
 70
         0
 43
0.2032
 10
85.9
 20
96.458
 10
85.9
 20
107.211626
  0
LWPOLYLINE
  5
120
100
AcDbEntity
  8
ASSEMBLY_OUTLINES_TOP
100
AcDbPolyline
 90
        2
 70
         0
 43
0.2032
 10
75.3285
 20
106.703626
 10
73.0425
 20
106.703626
  0
LWPOLYLINE
  5
121
100
AcDbEntity
  8
ASSEMBLY_OUTLINES_TOP
100
AcDbPolyline
 90
        2
 70
         0
 43
0.2032
 10
86.4715
 20
106.703626
 10
88.7575
 20
106.703626
  0
LWPOLYLINE
  5
122
100
AcDbEntity
  8
ASSEMBLY_OUTLINES_TOP
100
AcDbPolyline
 90
        3
 70
         1
 10
75.9
 20
106.703626
 10
74.757
 20
106.132127
 10
74.757
 20
107.275126
  0
HATCH
  5
123
100
AcDbEntity
  8
ASSEMBLY_OUTLINES_TOP
100
AcDbHatch
 10
0.0
 20
0.0
 30
0.0
210
0.0
220
0.0
230
1.0
  2
SOLID
 70
         1
 71
         1
 91
        1
 92
        2
 72
         0
 73
         1
 93
        3
 10
75.900000000000006
 20
106.703626
 10
74.757000000000005
 20
106.132127
 10
74.757000000000005
 20
107.275126
 97
        1
330
122
 75
         0
 76
         1
 98
        1
 10
0.0
 20
0.0
  0
LWPOLYLINE
  5
124
100
AcDbEntity
  8
ASSEMBLY_OUTLINES_TOP
100
AcDbPolyline
 90
        3
 70
         1
 10
85.9
 20
106.703626
 10
87.043
 20
107.275126
 10
87.043
 20
106.132126
  0
HATCH
  5
125
100
AcDbEntity
  8
ASSEMBLY_OUTLINES_TOP
100
AcDbHatch
 10
0.0
 20
0.0
 30
0.0
210
0.0
220
0.0
230
1.0
  2
SOLID
 70
         1
 71
         1
 91
        1
 92
        2
 72
         0
 73
         1
 93
        3
 10
85.900000000000006
 20
106.703626
 10
87.043000000000006
 20
107.275126
 10
87.043000000000006
 20
106.132126
 97
        1
330
124
 75
         0
 76
         1
 98
        1
 10
0.0
 20
0.0
  0
LWPOLYLINE
  5
126
100
AcDbEntity
  8
ASSEMBLY_OUTLINES_TOP
100
AcDbPolyline
 90
        2
 70
         0
 43
0.2032
 10
98.4
 20
96.458
 10
98.4
 20
107.227318
  0
LWPOLYLINE
  5
127
100
AcDbEntity
  8
ASSEMBLY_OUTLINES_TOP
100
AcDbPolyline
 90
        2
 70
         0
 43
0.2032
 10
105.4
 20
96.558
 10
105.4
 20
107.227318
  0
LWPOLYLINE
  5
128
100
AcDbEntity
  8
ASSEMBLY_OUTLINES_TOP
100
AcDbPolyline
 90
        2
 70
         0
 43
0.2032
 10
97.8285
 20
106.719318
 10
95.5425
 20
106.719318
  0
LWPOLYLINE
  5
129
100
AcDbEntity
  8
ASSEMBLY_OUTLINES_TOP
100
AcDbPolyline
 90
        2
 70
         0
 43
0.2032
 10
105.9715
 20
106.719318
 10
108.2575
 20
106.719318
  0
LWPOLYLINE
  5
12A
100
AcDbEntity
  8
ASSEMBLY_OUTLINES_TOP
100
AcDbPolyline
 90
        3
 70
         1
 10
98.4
 20
106.719318
 10
97.257
 20
106.147819
 10
97.257
 20
107.290818
  0
HATCH
  5
12B
100
AcDbEntity
  8
ASSEMBLY_OUTLINES_TOP
100
AcDbHatch
 10
0.0
 20
0.0
 30
0.0
210
0.0
220
0.0
230
1.0
  2
SOLID
 70
         1
 71
         1
 91
        1
 92
        2
 72
         0
 73
         1
 93
        3
 10
98.400000000000006
 20
106.719318
 10
97.257000000000005
 20
106.147819
 10
97.257000000000005
 20
107.290818
 97
        1
330
12A
 75
         0
 76
         1
 98
        1
 10
0.0
 20
0.0
  0
LWPOLYLINE
  5
12C
100
AcDbEntity
  8
ASSEMBLY_OUTLINES_TOP
100
AcDbPolyline
 90
        3
 70
         1
 10
105.4
 20
106.719318
 10
106.543
 20
107.290818
 10
106.543
 20
106.147818
  0
HATCH
  5
12D
100
AcDbEntity
  8
ASSEMBLY_OUTLINES_TOP
100
AcDbHatch
 10
0.0
 20
0.0
 30
0.0
210
0.0
220
0.0
230
1.0
  2
SOLID
 70
         1
 71
         1
 91
        1
 92
        2
 72
         0
 73
         1
 93
        3
 10
105.40000000000001
 20
106.719318
 10
106.54300000000001
 20
107.290818
 10
106.54300000000001
 20
106.147818
 97
        1
330
12C
 75
         0
 76
         1
 98
        1
 10
0.0
 20
0.0
  0
TEXT
  5
12F
100
AcDbEntity
  8
ASSEMBLY_OUTLINES_TOP
100
AcDbText
 10
68.273896
 20
24.743078
 30
0.0
 40
1.27
  1
6mm
  7
VERIBEST_GERBER_1
 72
         1
 11
70.071581
 21
25.378078
 31
0.0
100
AcDbText
 73
         2
  0
TEXT
  5
130
100
AcDbEntity
  8
ASSEMBLY_OUTLINES_TOP
100
AcDbText
 10
71.853081
 20
22.080734
 30
0.0
 40
1.27
  1
6mm
 50
90.0
  7
VERIBEST_GERBER_1
 72
         1
 11
71.218081
 21
23.878419
 31
0.0
100
AcDbText
 73
         2
  0
TEXT
  5
131
100
AcDbEntity
  8
ASSEMBLY_OUTLINES_TOP
100
AcDbText
 10
-0.326104
 20
24.743643
 30
0.0
 40
1.27
  1
6mm
  7
VERIBEST_GERBER_1
 72
         1
 11
1.471581
 21
25.378643
 31
0.0
100
AcDbText
 73
         2
  0
TEXT
  5
132
100
AcDbEntity
  8
ASSEMBLY_OUTLINES_TOP
100
AcDbText
 10
17.905259
 20
22.080734
 30
0.0
 40
1.27
  1
6mm
 50
90.0
  7
VERIBEST_GERBER_1
 72
         1
 11
17.270259
 21
23.878419
 31
0.0
100
AcDbText
 73
         2
  0
TEXT
  5
133
100
AcDbEntity
  8
ASSEMBLY_OUTLINES_TOP
100
AcDbText
 10
171.747656
 20
34.599279
 30
0.0
 40
1.27
  1
60mm
 50
90.0
  7
VERIBEST_GERBER_1
 72
         1
 11
171.112656
 21
36.997039
 31
0.0
100
AcDbText
 73
         2
  0
TEXT
  5
134
100
AcDbEntity
  8
ASSEMBLY_OUTLINES_TOP
100
AcDbText
 10
87.572015
 20
99.365
 30
0.0
 40
1.27
  1
165mm
  7
VERIBEST_GERBER_1
 72
         1
 11
90.5
 21
100.0
 31
0.0
100
AcDbText
 73
         2
  0
TEXT
  5
135
100
AcDbEntity
  8
ASSEMBLY_OUTLINES_TOP
100
AcDbText
 10
165.236935
 20
103.043886
 30
0.0
 40
1.27
  1
10mm
  7
VERIBEST_GERBER_1
 72
         1
 11
167.564845
 21
103.678886
 31
0.0
100
AcDbText
 73
         2
  0
TEXT
  5
136
100
AcDbEntity
  8
ASSEMBLY_OUTLINES_TOP
100
AcDbText
 10
194.034999
 20
43.072016
 30
0.0
 40
1.27
  1
100mm
 50
90.0
  7
VERIBEST_GERBER_1
 72
         1
 11
193.399999
 21
46.000001
 31
0.0
100
AcDbText
 73
         2
  0
TEXT
  5
137
100
AcDbEntity
  8
ASSEMBLY_OUTLINES_TOP
100
AcDbText
 10
-1.583837
 20
100.894646
 30
0.0
 40
1.27
  1
4mm
  7
VERIBEST_GERBER_1
 72
         1
 11
0.213848
 21
101.529646
 31
0.0
100
AcDbText
 73
         2
  0
TEXT
  5
138
100
AcDbEntity
  8
ASSEMBLY_OUTLINES_TOP
100
AcDbText
 10
0.672091
 20
103.265
 30
0.0
 40
1.27
  1
10mm
  7
VERIBEST_GERBER_1
 72
         1
 11
3.000001
 21
103.9
 31
0.0
100
AcDbText
 73
         2
  0
TEXT
  5
139
100
AcDbEntity
  8
ASSEMBLY_OUTLINES_TOP
100
AcDbText
 10
-4.965
 20
99.080734
 30
0.0
 40
1.27
  1
4mm
 50
90.0
  7
VERIBEST_GERBER_1
 72
         1
 11
-5.6
 21
100.878419
 31
0.0
100
AcDbText
 73
         2
  0
TEXT
  5
13A
100
AcDbEntity
  8
ASSEMBLY_OUTLINES_TOP
100
AcDbText
 10
-7.965
 20
9.102241
 30
0.0
 40
1.27
  1
23mm
 50
90.0
  7
VERIBEST_GERBER_1
 72
         1
 11
-8.6
 21
11.500001
 31
0.0
100
AcDbText
 73
         2
  0
TEXT
  5
13B
100
AcDbEntity
  8
ASSEMBLY_OUTLINES_TOP
100
AcDbText
 10
-5.434839
 20
3.080734
 30
0.0
 40
1.27
  1
4mm
 50
90.0
  7
VERIBEST_GERBER_1
 72
         1
 11
-6.069839
 21
4.878419
 31
0.0
100
AcDbText
 73
         2
  0
TEXT
  5
13C
100
AcDbEntity
  8
ASSEMBLY_OUTLINES_TOP
100
AcDbText
 10
-8.676104
 20
-7.878837
 30
0.0
 40
1.27
  1
4mm
  7
VERIBEST_GERBER_1
 72
         1
 11
-6.878419
 21
-7.243837
 31
0.0
100
AcDbText
 73
         2
  0
TEXT
  5
13D
100
AcDbEntity
  8
ASSEMBLY_OUTLINES_TOP
100
AcDbText
 10
-7.902992
 20
55.102241
 30
0.0
 40
1.27
  1
23mm
 50
90.0
  7
VERIBEST_GERBER_1
 72
         1
 11
-8.537992
 21
57.500001
 31
0.0
100
AcDbText
 73
         2
  0
TEXT
  5
13E
100
AcDbEntity
  8
ASSEMBLY_OUTLINES_TOP
100
AcDbText
 10
-7.92971
 20
32.102241
 30
0.0
 40
1.27
  1
23mm
 50
90.0
  7
VERIBEST_GERBER_1
 72
         1
 11
-8.56471
 21
34.500001
 31
0.0
100
AcDbText
 73
         2
  0
TEXT
  5
13F
100
AcDbEntity
  8
ASSEMBLY_OUTLINES_TOP
100
AcDbText
 10
-8.676104
 20
18.665
 30
0.0
 40
1.27
  1
5mm
  7
VERIBEST_GERBER_1
 72
         1
 11
-6.878419
 21
19.3
 31
0.0
100
AcDbText
 73
         2
  0
TEXT
  5
140
100
AcDbEntity
  8
ASSEMBLY_OUTLINES_TOP
100
AcDbText
 10
186.135
 20
99.080734
 30
0.0
 40
1.27
  1
4mm
 50
90.0
  7
VERIBEST_GERBER_1
 72
         1
 11
185.5
 21
100.878419
 31
0.0
100
AcDbText
 73
         2
  0
TEXT
  5
141
100
AcDbEntity
  8
ASSEMBLY_OUTLINES_TOP
100
AcDbText
 10
190.18075
 20
78.102241
 30
0.0
 40
1.27
  1
23mm
 50
90.0
  7
VERIBEST_GERBER_1
 72
         1
 11
189.54575
 21
80.500001
 31
0.0
100
AcDbText
 73
         2
  0
TEXT
  5
142
100
AcDbEntity
  8
ASSEMBLY_OUTLINES_TOP
100
AcDbText
 10
172.323896
 20
107.294609
 30
0.0
 40
1.27
  1
4mm
  7
VERIBEST_GERBER_1
 72
         1
 11
174.121581
 21
107.929609
 31
0.0
100
AcDbText
 73
         2
  0
TEXT
  5
143
100
AcDbEntity
  8
ASSEMBLY_OUTLINES_TOP
100
AcDbText
 10
190.322432
 20
55.102241
 30
0.0
 40
1.27
  1
23mm
 50
90.0
  7
VERIBEST_GERBER_1
 72
         1
 11
189.687432
 21
57.500001
 31
0.0
100
AcDbText
 73
         2
  0
TEXT
  5
144
100
AcDbEntity
  8
ASSEMBLY_OUTLINES_TOP
100
AcDbText
 10
190.356458
 20
32.102241
 30
0.0
 40
1.27
  1
23mm
 50
90.0
  7
VERIBEST_GERBER_1
 72
         1
 11
189.721458
 21
34.500001
 31
0.0
100
AcDbText
 73
         2
  0
TEXT
  5
145
100
AcDbEntity
  8
ASSEMBLY_OUTLINES_TOP
100
AcDbText
 10
190.409012
 20
9.102241
 30
0.0
 40
1.27
  1
23mm
 50
90.0
  7
VERIBEST_GERBER_1
 72
         1
 11
189.774012
 21
11.500001
 31
0.0
100
AcDbText
 73
         2
  0
TEXT
  5
146
100
AcDbEntity
  8
ASSEMBLY_OUTLINES_TOP
100
AcDbText
 10
172.323896
 20
-11.443621
 30
0.0
 40
1.27
  1
4mm
  7
VERIBEST_GERBER_1
 72
         1
 11
174.121581
 21
-10.808621
 31
0.0
100
AcDbText
 73
         2
  0
TEXT
  5
147
100
AcDbEntity
  8
ASSEMBLY_OUTLINES_TOP
100
AcDbText
 10
187.994123
 20
3.080734
 30
0.0
 40
1.27
  1
4mm
 50
90.0
  7
VERIBEST_GERBER_1
 72
         1
 11
187.359123
 21
4.878419
 31
0.0
100
AcDbText
 73
         2
  0
TEXT
  5
148
100
AcDbEntity
  8
ASSEMBLY_OUTLINES_TOP
100
AcDbText
 10
178.502119
 20
48.956408
 30
0.0
 40
1.27
  1
5mm
  7
VERIBEST_GERBER_1
 72
         1
 11
180.299804
 21
49.591408
 31
0.0
100
AcDbText
 73
         2
  0
TEXT
  5
149
100
AcDbEntity
  8
ASSEMBLY_OUTLINES_TOP
100
AcDbText
 10
178.482883
 20
65.410733
 30
0.0
 40
1.27
  1
5mm
  7
VERIBEST_GERBER_1
 72
         1
 11
180.280568
 21
66.045733
 31
0.0
100
AcDbText
 73
         2
  0
TEXT
  5
14A
100
AcDbEntity
  8
ASSEMBLY_OUTLINES_TOP
100
AcDbText
 10
178.284343
 20
25.58462
 30
0.0
 40
1.27
  1
5mm
  7
VERIBEST_GERBER_1
 72
         1
 11
180.082028
 21
26.21962
 31
0.0
100
AcDbText
 73
         2
  0
TEXT
  5
14B
100
AcDbEntity
  8
ASSEMBLY_OUTLINES_TOP
100
AcDbText
 10
130.17209
 20
-8.600114
 30
0.0
 40
1.27
  1
81mm
  7
VERIBEST_GERBER_1
 72
         1
 11
132.5
 21
-7.965114
 31
0.0
100
AcDbText
 73
         2
  0
TEXT
  5
14C
100
AcDbEntity
  8
ASSEMBLY_OUTLINES_TOP
100
AcDbText
 10
29.60224
 20
-9.241976
 30
0.0
 40
1.27
  1
48mm
  7
VERIBEST_GERBER_1
 72
         1
 11
32.0
 21
-8.606976
 31
0.0
100
AcDbText
 73
         2
  0
TEXT
  5
14D
100
AcDbEntity
  8
ASSEMBLY_OUTLINES_TOP
100
AcDbText
 10
68.136935
 20
106.068626
 30
0.0
 40
1.27
  1
10mm
  7
VERIBEST_GERBER_1
 72
         1
 11
70.464845
 21
106.703626
 31
0.0
100
AcDbText
 73
         2
  0
TEXT
  5
14E
100
AcDbEntity
  8
ASSEMBLY_OUTLINES_TOP
100
AcDbText
 10
91.723896
 20
106.084318
 30
0.0
 40
1.27
  1
7mm
  7
VERIBEST_GERBER_1
 72
         1
 11
93.521581
 21
106.719318
 31
0.0
100
AcDbText
 73
         2
  0
LWPOLYLINE
  5
14F
100
AcDbEntity
  8
ASSEMBLY_OUTLINES_TOP
100
AcDbPolyline
 90
        4
 70
         1
 43
0.1
 10
66.4
 20
-1.25
 10
66.4
 20
0.05
 10
69.2
 20
0.05
 10
69.2
 20
-1.25
  0
LWPOLYLINE
  5
150
100
AcDbEntity
  8
ASSEMBLY_OUTLINES_TOP
100
AcDbPolyline
 90
        4
 70
         1
 43
0.1
 10
111.95
 20
4.05
 10
111.95
 20
6.95
 10
113.25
 20
6.95
 10
113.25
 20
4.05
  0
LWPOLYLINE
  5
151
100
AcDbEntity
  8
ASSEMBLY_OUTLINES_TOP
100
AcDbPolyline
 90
        4
 70
         1
 43
0.1
 10
112.4
 20
73.0
 10
112.4
 20
76.0
 10
113.8
 20
76.0
 10
113.8
 20
73.0
  0
LWPOLYLINE
  5
152
100
AcDbEntity
  8
ASSEMBLY_OUTLINES_TOP
100
AcDbPolyline
 90
        2
 70
         0
 43
0.1
 10
112.4
 20
75.9
 10
112.5
 20
76.0
  0
LWPOLYLINE
  5
153
100
AcDbEntity
  8
ASSEMBLY_OUTLINES_TOP
100
AcDbPolyline
 90
        2
 70
         0
 43
0.1
 10
112.4
 20
75.8
 10
112.6
 20
76.0
  0
LWPOLYLINE
  5
154
100
AcDbEntity
  8
ASSEMBLY_OUTLINES_TOP
100
AcDbPolyline
 90
        2
 70
         0
 43
0.1
 10
112.4
 20
75.7
 10
112.7
 20
76.0
  0
LWPOLYLINE
  5
155
100
AcDbEntity
  8
ASSEMBLY_OUTLINES_TOP
100
AcDbPolyline
 90
        2
 70
         0
 43
0.1
 10
112.4
 20
75.6
 10
112.8
 20
76.0
  0
LWPOLYLINE
  5
156
100
AcDbEntity
  8
ASSEMBLY_OUTLINES_TOP
100
AcDbPolyline
 90
        2
 70
         0
 43
0.1
 10
112.4
 20
75.5
 10
112.9
 20
76.0
  0
LWPOLYLINE
  5
157
100
AcDbEntity
  8
ASSEMBLY_OUTLINES_TOP
100
AcDbPolyline
 90
        2
 70
         0
 43
0.1
 10
112.4
 20
75.4
 10
113.0
 20
76.0
  0
LWPOLYLINE
  5
158
100
AcDbEntity
  8
ASSEMBLY_OUTLINES_TOP
100
AcDbPolyline
 90
        4
 70
         1
 43
0.1
 10
95.45
 20
22.65
 10
95.45
 20
23.95
 10
98.35
 20
23.95
 10
98.35
 20
22.65
  0
LWPOLYLINE
  5
159
100
AcDbEntity
  8
ASSEMBLY_OUTLINES_TOP
100
AcDbPolyline
 90
        4
 70
         1
 43
0.1
 10
132.6
 20
78.75
 10
132.6
 20
80.05
 10
135.4
 20
80.05
 10
135.4
 20
78.75
  0
LWPOLYLINE
  5
15A
100
AcDbEntity
  8
ASSEMBLY_OUTLINES_TOP
100
AcDbPolyline
 90
        4
 70
         1
 43
0.1
 10
116.4
 20
73.0
 10
116.4
 20
76.0
 10
117.8
 20
76.0
 10
117.8
 20
73.0
  0
LWPOLYLINE
  5
15B
100
AcDbEntity
  8
ASSEMBLY_OUTLINES_TOP
100
AcDbPolyline
 90
        2
 70
         0
 43
0.1
 10
116.4
 20
75.9
 10
116.5
 20
76.0
  0
LWPOLYLINE
  5
15C
100
AcDbEntity
  8
ASSEMBLY_OUTLINES_TOP
100
AcDbPolyline
 90
        2
 70
         0
 43
0.1
 10
116.4
 20
75.8
 10
116.6
 20
76.0
  0
LWPOLYLINE
  5
15D
100
AcDbEntity
  8
ASSEMBLY_OUTLINES_TOP
100
AcDbPolyline
 90
        2
 70
         0
 43
0.1
 10
116.4
 20
75.7
 10
116.7
 20
76.0
  0
LWPOLYLINE
  5
15E
100
AcDbEntity
  8
ASSEMBLY_OUTLINES_TOP
100
AcDbPolyline
 90
        2
 70
         0
 43
0.1
 10
116.4
 20
75.6
 10
116.8
 20
76.0
  0
LWPOLYLINE
  5
15F
100
AcDbEntity
  8
ASSEMBLY_OUTLINES_TOP
100
AcDbPolyline
 90
        2
 70
         0
 43
0.1
 10
116.4
 20
75.5
 10
116.9
 20
76.0
  0
LWPOLYLINE
  5
160
100
AcDbEntity
  8
ASSEMBLY_OUTLINES_TOP
100
AcDbPolyline
 90
        2
 70
         0
 43
0.1
 10
116.4
 20
75.4
 10
117.0
 20
76.0
  0
LWPOLYLINE
  5
161
100
AcDbEntity
  8
ASSEMBLY_OUTLINES_TOP
100
AcDbPolyline
 90
        4
 70
         1
 43
0.1
 10
164.95
 20
25.75
 10
164.95
 20
27.05
 10
167.85
 20
27.05
 10
167.85
 20
25.75
  0
LWPOLYLINE
  5
162
100
AcDbEntity
  8
ASSEMBLY_OUTLINES_TOP
100
AcDbPolyline
 90
        4
 70
         1
 43
0.1
 10
112.55
 20
77.05
 10
112.55
 20
78.35
 10
115.45
 20
78.35
 10
115.45
 20
77.05
  0
LWPOLYLINE
  5
163
100
AcDbEntity
  8
ASSEMBLY_OUTLINES_TOP
100
AcDbPolyline
 90
        4
 70
         1
 43
0.1
 10
168.85
 20
44.05
 10
168.85
 20
46.95
 10
170.15
 20
46.95
 10
170.15
 20
44.05
  0
LWPOLYLINE
  5
164
100
AcDbEntity
  8
ASSEMBLY_OUTLINES_TOP
100
AcDbPolyline
 90
        4
 70
         1
 43
0.1
 10
131.35
 20
75.35
 10
131.35
 20
78.25
 10
132.65
 20
78.25
 10
132.65
 20
75.35
  0
LWPOLYLINE
  5
165
100
AcDbEntity
  8
ASSEMBLY_OUTLINES_TOP
100
AcDbPolyline
 90
        4
 70
         1
 43
0.1
 10
95.45
 20
24.65
 10
95.45
 20
25.95
 10
98.35
 20
25.95
 10
98.35
 20
24.65
  0
LWPOLYLINE
  5
166
100
AcDbEntity
  8
ASSEMBLY_OUTLINES_TOP
100
AcDbPolyline
 90
        4
 70
         1
 43
0.1
 10
115.75
 20
77.05
 10
115.75
 20
78.35
 10
118.65
 20
78.35
 10
118.65
 20
77.05
  0
LWPOLYLINE
  5
167
100
AcDbEntity
  8
ASSEMBLY_OUTLINES_TOP
100
AcDbPolyline
 90
        4
 70
         1
 43
0.1
 10
170.45
 20
45.15
 10
170.45
 20
48.05
 10
171.75
 20
48.05
 10
171.75
 20
45.15
  0
LWPOLYLINE
  5
168
100
AcDbEntity
  8
ASSEMBLY_OUTLINES_TOP
100
AcDbPolyline
 90
        4
 70
         1
 10
109.0
 20
62.55
 10
109.0
 20
66.65
 10
129.0
 20
66.65
 10
129.0
 20
62.55
  0
LWPOLYLINE
  5
169
100
AcDbEntity
  8
ASSEMBLY_OUTLINES_TOP
100
AcDbPolyline
 90
        4
 70
         1
 43
0.1
 10
95.45
 20
28.35
 10
95.45
 20
29.65
 10
98.35
 20
29.65
 10
98.35
 20
28.35
  0
LWPOLYLINE
  5
16A
100
AcDbEntity
  8
ASSEMBLY_OUTLINES_TOP
100
AcDbPolyline
 90
        4
 70
         1
 43
0.1
 10
126.85
 20
75.35
 10
126.85
 20
78.25
 10
128.15
 20
78.25
 10
128.15
 20
75.35
  0
LWPOLYLINE
  5
16B
100
AcDbEntity
  8
ASSEMBLY_OUTLINES_TOP
100
AcDbPolyline
 90
        4
 70
         1
 43
0.1
 10
170.45
 20
41.95
 10
170.45
 20
44.85
 10
171.75
 20
44.85
 10
171.75
 20
41.95
  0
LWPOLYLINE
  5
16C
100
AcDbEntity
  8
ASSEMBLY_OUTLINES_TOP
100
AcDbPolyline
 90
        4
 70
         1
 43
0.1
 10
129.95
 20
75.35
 10
129.95
 20
78.25
 10
131.25
 20
78.25
 10
131.25
 20
75.35
  0
LWPOLYLINE
  5
16D
100
AcDbEntity
  8
ASSEMBLY_OUTLINES_TOP
100
AcDbPolyline
 90
        4
 70
         1
 43
0.1
 10
91.75
 20
22.65
 10
91.75
 20
23.95
 10
94.65
 20
23.95
 10
94.65
 20
22.65
  0
LWPOLYLINE
  5
16E
100
AcDbEntity
  8
ASSEMBLY_OUTLINES_TOP
100
AcDbPolyline
 90
        4
 70
         1
 43
0.1
 10
145.2
 20
37.4
 10
145.2
 20
43.4
 10
149.45
 20
43.4
 10
149.45
 20
37.4
  0
LWPOLYLINE
  5
16F
100
AcDbEntity
  8
ASSEMBLY_OUTLINES_TOP
100
AcDbPolyline
 90
        4
 70
         1
 43
0.1
 10
170.0
 20
37.55
 10
170.0
 20
40.85
 10
171.8
 20
40.85
 10
171.8
 20
37.55
  0
LWPOLYLINE
  5
170
100
AcDbEntity
  8
ASSEMBLY_OUTLINES_TOP
100
AcDbPolyline
 90
        4
 70
         1
 10
125.9
 20
82.3
 10
125.9
 20
94.4
 10
139.3
 20
94.4
 10
139.3
 20
82.3
  0
LWPOLYLINE
  5
171
100
AcDbEntity
  8
ASSEMBLY_OUTLINES_TOP
100
AcDbPolyline
 90
        4
 70
         1
 10
127.6
 20
94.4
 10
127.6
 20
101.4
 10
138.6
 20
101.4
 10
138.6
 20
94.4
  0
LWPOLYLINE
  5
172
100
AcDbEntity
  8
ASSEMBLY_OUTLINES_TOP
100
AcDbPolyline
 90
        4
 70
         1
 43
0.1
 10
91.75
 20
24.65
 10
91.75
 20
25.95
 10
94.65
 20
25.95
 10
94.65
 20
24.65
  0
LWPOLYLINE
  5
173
100
AcDbEntity
  8
ASSEMBLY_OUTLINES_TOP
100
AcDbPolyline
 90
        4
 70
         1
 43
0.1
 10
136.85
 20
75.35
 10
136.85
 20
78.25
 10
138.15
 20
78.25
 10
138.15
 20
75.35
  0
LWPOLYLINE
  5
174
100
AcDbEntity
  8
ASSEMBLY_OUTLINES_TOP
100
AcDbPolyline
 90
        4
 70
         1
 43
0.1
 10
168.1
 20
37.55
 10
168.1
 20
40.85
 10
169.9
 20
40.85
 10
169.9
 20
37.55
  0
LWPOLYLINE
  5
175
100
AcDbEntity
  8
ASSEMBLY_OUTLINES_TOP
100
AcDbPolyline
 90
        4
 70
         1
 43
0.1
 10
128.55
 20
75.35
 10
128.55
 20
78.25
 10
129.85
 20
78.25
 10
129.85
 20
75.35
  0
LWPOLYLINE
  5
176
100
AcDbEntity
  8
ASSEMBLY_OUTLINES_TOP
100
AcDbPolyline
 90
        4
 70
         1
 43
0.1
 10
91.75
 20
26.55
 10
91.75
 20
27.85
 10
94.65
 20
27.85
 10
94.65
 20
26.55
  0
LWPOLYLINE
  5
177
100
AcDbEntity
  8
ASSEMBLY_OUTLINES_TOP
100
AcDbPolyline
 90
        4
 70
         1
 43
0.1
 10
108.15
 20
10.35
 10
108.15
 20
11.65
 10
111.05
 20
11.65
 10
111.05
 20
10.35
  0
LWPOLYLINE
  5
178
100
AcDbEntity
  8
ASSEMBLY_OUTLINES_TOP
100
AcDbPolyline
 90
        8
 70
         1
 43
0.1
 10
166.45
 20
42.2
 10
163.15
 20
42.2
 42
0.4142135624
 10
162.15
 20
41.2
 10
162.15
 20
38.0
 42
0.4142135624
 10
163.15
 20
37.0
 10
166.45
 20
37.0
 42
0.4142135624
 10
167.45
 20
38.0
 10
167.45
 20
41.2
 42
0.4142135624
  0
LWPOLYLINE
  5
179
100
AcDbEntity
  8
ASSEMBLY_OUTLINES_TOP
100
AcDbPolyline
 90
        4
 70
         1
 43
0.1
 10
135.45
 20
75.35
 10
135.45
 20
78.25
 10
136.75
 20
78.25
 10
136.75
 20
75.35
  0
LWPOLYLINE
  5
17A
100
AcDbEntity
  8
ASSEMBLY_OUTLINES_TOP
100
AcDbPolyline
 90
        4
 70
         1
 43
0.1
 10
91.75
 20
28.35
 10
91.75
 20
29.65
 10
94.65
 20
29.65
 10
94.65
 20
28.35
  0
LWPOLYLINE
  5
17B
100
AcDbEntity
  8
ASSEMBLY_OUTLINES_TOP
100
AcDbPolyline
 90
        4
 70
         1
 43
0.1
 10
111.95
 20
7.25
 10
111.95
 20
10.15
 10
113.25
 20
10.15
 10
113.25
 20
7.25
  0
LWPOLYLINE
  5
17C
100
AcDbEntity
  8
ASSEMBLY_OUTLINES_TOP
100
AcDbPolyline
 90
        4
 70
         1
 43
0.1
 10
162.55
 20
43.8
 10
162.55
 20
46.6
 10
163.85
 20
46.6
 10
163.85
 20
43.8
  0
LWPOLYLINE
  5
17D
100
AcDbEntity
  8
ASSEMBLY_OUTLINES_TOP
100
AcDbPolyline
 90
        4
 70
         1
 43
0.1
 10
47.35
 20
8.45
 10
47.35
 20
11.35
 10
48.65
 20
11.35
 10
48.65
 20
8.45
  0
LWPOLYLINE
  5
17E
100
AcDbEntity
  8
ASSEMBLY_OUTLINES_TOP
100
AcDbPolyline
 90
        4
 70
         1
 10
159.03
 20
25.13
 10
159.03
 20
27.67
 10
164.11
 20
27.67
 10
164.11
 20
25.13
  0
LWPOLYLINE
  5
17F
100
AcDbEntity
  8
ASSEMBLY_OUTLINES_TOP
100
AcDbPolyline
 90
        4
 70
         1
 43
0.1
 10
164.4
 20
43.2
 10
164.4
 20
46.2
 10
167.4
 20
46.2
 10
167.4
 20
43.2
  0
LWPOLYLINE
  5
180
100
AcDbEntity
  8
ASSEMBLY_OUTLINES_TOP
100
AcDbPolyline
 90
        2
 70
         0
 43
0.1
 10
164.5
 20
43.2
 10
164.4
 20
43.3
  0
LWPOLYLINE
  5
181
100
AcDbEntity
  8
ASSEMBLY_OUTLINES_TOP
100
AcDbPolyline
 90
        2
 70
         0
 43
0.1
 10
164.6
 20
43.2
 10
164.4
 20
43.4
  0
LWPOLYLINE
  5
182
100
AcDbEntity
  8
ASSEMBLY_OUTLINES_TOP
100
AcDbPolyline
 90
        2
 70
         0
 43
0.1
 10
164.7
 20
43.2
 10
164.4
 20
43.5
  0
LWPOLYLINE
  5
183
100
AcDbEntity
  8
ASSEMBLY_OUTLINES_TOP
100
AcDbPolyline
 90
        2
 70
         0
 43
0.1
 10
164.8
 20
43.2
 10
164.4
 20
43.6
  0
LWPOLYLINE
  5
184
100
AcDbEntity
  8
ASSEMBLY_OUTLINES_TOP
100
AcDbPolyline
 90
        2
 70
         0
 43
0.1
 10
164.9
 20
43.2
 10
164.4
 20
43.7
  0
LWPOLYLINE
  5
185
100
AcDbEntity
  8
ASSEMBLY_OUTLINES_TOP
100
AcDbPolyline
 90
        2
 70
         0
 43
0.1
 10
165.0
 20
43.2
 10
164.4
 20
43.8
  0
LWPOLYLINE
  5
186
100
AcDbEntity
  8
ASSEMBLY_OUTLINES_TOP
100
AcDbPolyline
 90
        4
 70
         1
 43
0.1
 10
47.35
 20
11.9
 10
47.35
 20
14.7
 10
48.65
 20
14.7
 10
48.65
 20
11.9
  0
LWPOLYLINE
  5
187
100
AcDbEntity
  8
ASSEMBLY_OUTLINES_TOP
100
AcDbPolyline
 90
        4
 70
         1
 43
0.1
 10
124.35
 20
75.45
 10
124.35
 20
78.35
 10
125.65
 20
78.35
 10
125.65
 20
75.45
  0
LWPOLYLINE
  5
188
100
AcDbEntity
  8
ASSEMBLY_OUTLINES_TOP
100
AcDbPolyline
 90
        4
 70
         1
 43
0.1
 10
44.45
 20
16.55
 10
44.45
 20
17.85
 10
47.35
 20
17.85
 10
47.35
 20
16.55
  0
LWPOLYLINE
  5
189
100
AcDbEntity
  8
ASSEMBLY_OUTLINES_TOP
100
AcDbPolyline
 90
        4
 70
         1
 43
0.1
 10
63.8
 20
1.8
 10
63.8
 20
5.2
 10
70.9
 20
5.2
 10
70.9
 20
1.8
  0
LWPOLYLINE
  5
18A
100
AcDbEntity
  8
ASSEMBLY_OUTLINES_TOP
100
AcDbPolyline
 90
        4
 70
         1
 43
0.1
 10
122.85
 20
75.45
 10
122.85
 20
78.35
 10
124.15
 20
78.35
 10
124.15
 20
75.45
  0
LWPOLYLINE
  5
18B
100
AcDbEntity
  8
ASSEMBLY_OUTLINES_TOP
100
AcDbPolyline
 90
        4
 70
         1
 43
0.1
 10
114.95
 20
14.75
 10
114.95
 20
22.65
 10
119.45
 20
22.65
 10
119.45
 20
14.75
  0
LWPOLYLINE
  5
18C
100
AcDbEntity
  8
ASSEMBLY_OUTLINES_TOP
100
AcDbPolyline
 90
        2
 70
         1
 43
0.1
 10
115.45
 20
21.65
 42
-1.0
 10
116.45
 20
21.65
 42
-1.0
  0
LWPOLYLINE
  5
18D
100
AcDbEntity
  8
ASSEMBLY_OUTLINES_TOP
100
AcDbPolyline
 90
        4
 70
         1
 43
0.1
 10
39.95
 20
9.4
 10
39.95
 20
12.2
 10
41.25
 20
12.2
 10
41.25
 20
9.4
  0
LWPOLYLINE
  5
18E
100
AcDbEntity
  8
ASSEMBLY_OUTLINES_TOP
100
AcDbPolyline
 90
        4
 70
         1
 43
0.1
 10
122.05
 20
18.9
 10
122.05
 20
21.7
 10
123.35
 20
21.7
 10
123.35
 20
18.9
  0
LWPOLYLINE
  5
18F
100
AcDbEntity
  8
ASSEMBLY_OUTLINES_TOP
100
AcDbPolyline
 90
        4
 70
         1
 10
27.1
 20
0.35
 10
27.1
 20
4.45
 10
47.1
 20
4.45
 10
47.1
 20
0.35
  0
LWPOLYLINE
  5
190
100
AcDbEntity
  8
ASSEMBLY_OUTLINES_TOP
100
AcDbPolyline
 90
        4
 70
         1
 43
0.1
 10
118.15
 20
5.05
 10
118.15
 20
7.95
 10
119.45
 20
7.95
 10
119.45
 20
5.05
  0
LWPOLYLINE
  5
191
100
AcDbEntity
  8
ASSEMBLY_OUTLINES_TOP
100
AcDbPolyline
 90
        4
 70
         1
 43
0.1
 10
41.8
 20
9.7
 10
41.8
 20
14.2
 10
46.9
 20
14.2
 10
46.9
 20
9.7
  0
LWPOLYLINE
  5
192
100
AcDbEntity
  8
ASSEMBLY_OUTLINES_TOP
100
AcDbPolyline
 90
        2
 70
         1
 43
0.1
 10
42.3
 20
10.7
 42
-1.0
 10
43.3
 20
10.7
 42
-1.0
  0
LWPOLYLINE
  5
193
100
AcDbEntity
  8
ASSEMBLY_OUTLINES_TOP
100
AcDbPolyline
 90
        4
 70
         1
 43
0.1
 10
72.25
 20
5.15
 10
72.25
 20
8.05
 10
73.55
 20
8.05
 10
73.55
 20
5.15
  0
LWPOLYLINE
  5
194
100
AcDbEntity
  8
ASSEMBLY_OUTLINES_TOP
100
AcDbPolyline
 90
        4
 70
         1
 43
0.1
 10
114.55
 20
11.3
 10
114.55
 20
14.1
 10
115.85
 20
14.1
 10
115.85
 20
11.3
  0
LWPOLYLINE
  5
195
100
AcDbEntity
  8
ASSEMBLY_OUTLINES_TOP
100
AcDbPolyline
 90
        4
 70
         1
 43
0.1
 10
105.15
 20
14.3
 10
105.15
 20
16.1
 10
108.45
 20
16.1
 10
108.45
 20
14.3
  0
LWPOLYLINE
  5
196
100
AcDbEntity
  8
ASSEMBLY_OUTLINES_TOP
100
AcDbPolyline
 90
        5
 70
         1
 10
54.25
 20
1.850002
 10
56.0
 20
-0.649998
 10
57.75
 20
1.850002
 10
57.75
 20
3.850002
 10
54.25
 20
3.850002
  0
HATCH
  5
197
100
AcDbEntity
  8
ASSEMBLY_OUTLINES_TOP
100
AcDbHatch
 10
0.0
 20
0.0
 30
0.0
210
0.0
220
0.0
230
1.0
  2
SOLID
 70
         1
 71
         1
 91
        1
 92
        2
 72
         0
 73
         1
 93
        5
 10
54.25
 20
1.8500019999999999
 10
56.0
 20
-0.649998
 10
57.75
 20
1.8500019999999999
 10
57.75
 20
3.8500019999999999
 10
54.25
 20
3.8500019999999999
 97
        1
330
196
 75
         0
 76
         1
 98
        1
 10
0.0
 20
0.0
  0
LWPOLYLINE
  5
198
100
AcDbEntity
  8
ASSEMBLY_OUTLINES_TOP
100
AcDbPolyline
 90
        4
 70
         1
 43
0.1
 10
73.95
 20
5.15
 10
73.95
 20
8.05
 10
75.25
 20
8.05
 10
75.25
 20
5.15
  0
LWPOLYLINE
  5
199
100
AcDbEntity
  8
ASSEMBLY_OUTLINES_TOP
100
AcDbPolyline
 90
        8
 70
         1
 43
0.1
 10
110.85
 20
23.5
 10
107.55
 20
23.5
 42
0.4142135624
 10
106.55
 20
22.5
 10
106.55
 20
19.3
 42
0.4142135624
 10
107.55
 20
18.3
 10
110.85
 20
18.3
 42
0.4142135624
 10
111.85
 20
19.3
 10
111.85
 20
22.5
 42
0.4142135624
  0
LWPOLYLINE
  5
19A
100
AcDbEntity
  8
ASSEMBLY_OUTLINES_TOP
100
AcDbPolyline
 90
        4
 70
         1
 43
0.1
 10
112.65
 20
23.1
 10
112.65
 20
24.9
 10
115.95
 20
24.9
 10
115.95
 20
23.1
  0
LWPOLYLINE
  5
19B
100
AcDbEntity
  8
ASSEMBLY_OUTLINES_TOP
100
AcDbPolyline
 90
        4
 70
         1
 43
0.1
 10
105.15
 20
16.2
 10
105.15
 20
18.0
 10
108.45
 20
18.0
 10
108.45
 20
16.2
  0
LWPOLYLINE
  5
19C
100
AcDbEntity
  8
ASSEMBLY_OUTLINES_TOP
100
AcDbPolyline
 90
        4
 70
         1
 43
0.1
 10
122.0
 20
17.45
 10
122.0
 20
18.75
 10
124.8
 20
18.75
 10
124.8
 20
17.45
  0
LWPOLYLINE
  5
19D
100
AcDbEntity
  8
ASSEMBLY_OUTLINES_TOP
100
AcDbPolyline
 90
        4
 70
         1
 43
0.1
 10
108.65
 20
14.3
 10
108.65
 20
16.1
 10
111.95
 20
16.1
 10
111.95
 20
14.3
  0
LWPOLYLINE
  5
19E
100
AcDbEntity
  8
ASSEMBLY_OUTLINES_TOP
100
AcDbPolyline
 90
        4
 70
         1
 43
0.1
 10
117.65
 20
9.85
 10
117.65
 20
11.15
 10
120.55
 20
11.15
 10
120.55
 20
9.85
  0
LWPOLYLINE
  5
19F
100
AcDbEntity
  8
ASSEMBLY_OUTLINES_TOP
100
AcDbPolyline
 90
        4
 70
         1
 43
0.1
 10
117.7
 20
11.35
 10
117.7
 20
12.65
 10
120.5
 20
12.65
 10
120.5
 20
11.35
  0
LWPOLYLINE
  5
1A0
100
AcDbEntity
  8
ASSEMBLY_OUTLINES_TOP
100
AcDbPolyline
 90
        4
 70
         1
 43
0.1
 10
108.65
 20
16.2
 10
108.65
 20
18.0
 10
111.95
 20
18.0
 10
111.95
 20
16.2
  0
LWPOLYLINE
  5
1A1
100
AcDbEntity
  8
ASSEMBLY_OUTLINES_TOP
100
AcDbPolyline
 90
        4
 70
         1
 43
0.1
 10
120.45
 20
23.6
 10
120.45
 20
26.4
 10
121.75
 20
26.4
 10
121.75
 20
23.6
  0
LWPOLYLINE
  5
1A2
100
AcDbEntity
  8
ASSEMBLY_OUTLINES_TOP
100
AcDbPolyline
 90
        4
 70
         1
 43
0.1
 10
110.1
 20
12.25
 10
110.1
 20
13.55
 10
112.9
 20
13.55
 10
112.9
 20
12.25
  0
LWPOLYLINE
  5
1A3
100
AcDbEntity
  8
ASSEMBLY_OUTLINES_TOP
100
AcDbPolyline
 90
        4
 70
         1
 43
0.1
 10
123.55
 20
18.9
 10
123.55
 20
21.7
 10
124.85
 20
21.7
 10
124.85
 20
18.9
  0
LWPOLYLINE
  5
1A4
100
AcDbEntity
  8
ASSEMBLY_OUTLINES_TOP
100
AcDbPolyline
 90
        4
 70
         1
 43
0.1
 10
118.85
 20
23.55
 10
118.85
 20
26.45
 10
120.15
 20
26.45
 10
120.15
 20
23.55
  0
LWPOLYLINE
  5
1A5
100
AcDbEntity
  8
ASSEMBLY_OUTLINES_TOP
100
AcDbPolyline
 90
        4
 70
         1
 10
53.83
 20
88.03
 10
53.83
 20
90.57
 10
58.91
 20
90.57
 10
58.91
 20
88.03
  0
LWPOLYLINE
  5
1A6
100
AcDbEntity
  8
ASSEMBLY_OUTLINES_TOP
100
AcDbPolyline
 90
        4
 70
         1
 43
0.1
 10
111.15
 20
10.35
 10
111.15
 20
11.65
 10
114.05
 20
11.65
 10
114.05
 20
10.35
  0
LWPOLYLINE
  5
1A7
100
AcDbEntity
  8
ASSEMBLY_OUTLINES_TOP
100
AcDbPolyline
 90
        4
 70
         1
 43
0.1
 10
117.7
 20
12.85
 10
117.7
 20
14.15
 10
120.5
 20
14.15
 10
120.5
 20
12.85
  0
LWPOLYLINE
  5
1A8
100
AcDbEntity
  8
ASSEMBLY_OUTLINES_TOP
100
AcDbPolyline
 90
        4
 70
         1
 43
0.1
 10
120.85
 20
12.15
 10
120.85
 20
13.45
 10
123.75
 20
13.45
 10
123.75
 20
12.15
  0
LWPOLYLINE
  5
1A9
100
AcDbEntity
  8
ASSEMBLY_OUTLINES_TOP
100
AcDbPolyline
 90
        4
 70
         1
 43
0.1
 10
123.55
 20
14.3
 10
123.55
 20
17.1
 10
124.85
 20
17.1
 10
124.85
 20
14.3
  0
LWPOLYLINE
  5
1AA
100
AcDbEntity
  8
ASSEMBLY_OUTLINES_TOP
100
AcDbPolyline
 90
        4
 70
         1
 43
0.1
 10
108.6
 20
26.55
 10
108.6
 20
27.85
 10
111.4
 20
27.85
 10
111.4
 20
26.55
  0
LWPOLYLINE
  5
1AB
100
AcDbEntity
  8
ASSEMBLY_OUTLINES_TOP
100
AcDbPolyline
 90
        4
 70
         1
 43
0.1
 10
122.05
 20
14.3
 10
122.05
 20
17.1
 10
123.35
 20
17.1
 10
123.35
 20
14.3
  0
LWPOLYLINE
  5
1AC
100
AcDbEntity
  8
ASSEMBLY_OUTLINES_TOP
100
AcDbPolyline
 90
        4
 70
         1
 43
0.1
 10
126.2
 20
21.3
 10
126.2
 20
24.3
 10
127.6
 20
24.3
 10
127.6
 20
21.3
  0
LWPOLYLINE
  5
1AD
100
AcDbEntity
  8
ASSEMBLY_OUTLINES_TOP
100
AcDbPolyline
 90
        2
 70
         0
 43
0.1
 10
126.2
 20
24.2
 10
126.3
 20
24.3
  0
LWPOLYLINE
  5
1AE
100
AcDbEntity
  8
ASSEMBLY_OUTLINES_TOP
100
AcDbPolyline
 90
        2
 70
         0
 43
0.1
 10
126.2
 20
24.1
 10
126.4
 20
24.3
  0
LWPOLYLINE
  5
1AF
100
AcDbEntity
  8
ASSEMBLY_OUTLINES_TOP
100
AcDbPolyline
 90
        2
 70
         0
 43
0.1
 10
126.2
 20
24.0
 10
126.5
 20
24.3
  0
LWPOLYLINE
  5
1B0
100
AcDbEntity
  8
ASSEMBLY_OUTLINES_TOP
100
AcDbPolyline
 90
        2
 70
         0
 43
0.1
 10
126.2
 20
23.9
 10
126.6
 20
24.3
  0
LWPOLYLINE
  5
1B1
100
AcDbEntity
  8
ASSEMBLY_OUTLINES_TOP
100
AcDbPolyline
 90
        2
 70
         0
 43
0.1
 10
126.2
 20
23.8
 10
126.7
 20
24.3
  0
LWPOLYLINE
  5
1B2
100
AcDbEntity
  8
ASSEMBLY_OUTLINES_TOP
100
AcDbPolyline
 90
        2
 70
         0
 43
0.1
 10
126.2
 20
23.7
 10
126.8
 20
24.3
  0
LWPOLYLINE
  5
1B3
100
AcDbEntity
  8
ASSEMBLY_OUTLINES_TOP
100
AcDbPolyline
 90
        4
 70
         1
 43
0.1
 10
126.2
 20
18.0
 10
126.2
 20
21.0
 10
127.6
 20
21.0
 10
127.6
 20
18.0
  0
LWPOLYLINE
  5
1B4
100
AcDbEntity
  8
ASSEMBLY_OUTLINES_TOP
100
AcDbPolyline
 90
        2
 70
         0
 43
0.1
 10
127.6
 20
18.1
 10
127.5
 20
18.0
  0
LWPOLYLINE
  5
1B5
100
AcDbEntity
  8
ASSEMBLY_OUTLINES_TOP
100
AcDbPolyline
 90
        2
 70
         0
 43
0.1
 10
127.6
 20
18.2
 10
127.4
 20
18.0
  0
LWPOLYLINE
  5
1B6
100
AcDbEntity
  8
ASSEMBLY_OUTLINES_TOP
100
AcDbPolyline
 90
        2
 70
         0
 43
0.1
 10
127.6
 20
18.3
 10
127.3
 20
18.0
  0
LWPOLYLINE
  5
1B7
100
AcDbEntity
  8
ASSEMBLY_OUTLINES_TOP
100
AcDbPolyline
 90
        2
 70
         0
 43
0.1
 10
127.6
 20
18.4
 10
127.2
 20
18.0
  0
LWPOLYLINE
  5
1B8
100
AcDbEntity
  8
ASSEMBLY_OUTLINES_TOP
100
AcDbPolyline
 90
        2
 70
         0
 43
0.1
 10
127.6
 20
18.5
 10
127.1
 20
18.0
  0
LWPOLYLINE
  5
1B9
100
AcDbEntity
  8
ASSEMBLY_OUTLINES_TOP
100
AcDbPolyline
 90
        2
 70
         0
 43
0.1
 10
127.6
 20
18.6
 10
127.0
 20
18.0
  0
LWPOLYLINE
  5
1BA
100
AcDbEntity
  8
ASSEMBLY_OUTLINES_TOP
100
AcDbPolyline
 90
        4
 70
         1
 43
0.1
 10
120.85
 20
10.65
 10
120.85
 20
11.95
 10
123.75
 20
11.95
 10
123.75
 20
10.65
  0
LWPOLYLINE
  5
1BB
100
AcDbEntity
  8
ASSEMBLY_OUTLINES_TOP
100
AcDbPolyline
 90
        4
 70
         1
 43
0.1
 10
115.15
 20
26.45
 10
115.15
 20
29.35
 10
116.45
 20
29.35
 10
116.45
 20
26.45
  0
LWPOLYLINE
  5
1BC
100
AcDbEntity
  8
ASSEMBLY_OUTLINES_TOP
100
AcDbPolyline
 90
        4
 70
         1
 43
0.1
 10
111.75
 20
25.15
 10
111.75
 20
26.45
 10
114.65
 20
26.45
 10
114.65
 20
25.15
  0
LWPOLYLINE
  5
1BD
100
AcDbEntity
  8
ASSEMBLY_OUTLINES_TOP
100
AcDbPolyline
 90
        4
 70
         1
 43
0.1
 10
123.55
 20
21.95
 10
123.55
 20
24.85
 10
124.85
 20
24.85
 10
124.85
 20
21.95
  0
LWPOLYLINE
  5
1BE
100
AcDbEntity
  8
ASSEMBLY_OUTLINES_TOP
100
AcDbPolyline
 90
        4
 70
         1
 43
0.1
 10
122.1
 20
26.55
 10
122.1
 20
27.85
 10
124.9
 20
27.85
 10
124.9
 20
26.55
  0
LWPOLYLINE
  5
1BF
100
AcDbEntity
  8
ASSEMBLY_OUTLINES_TOP
100
AcDbPolyline
 90
        8
 70
         0
 10
88.15
 20
70.15
 42
-2.549150321
 10
88.15
 20
59.95
 10
88.15
 20
58.05
 10
86.15
 20
58.05
 10
86.15
 20
72.05
 10
88.15
 20
72.05
 10
88.15
 20
70.15
 10
88.15
 20
70.25
  0
LWPOLYLINE
  5
1C0
100
AcDbEntity
  8
ASSEMBLY_OUTLINES_TOP
100
AcDbPolyline
 90
        4
 70
         1
 43
0.1
 10
122.05
 20
21.95
 10
122.05
 20
24.85
 10
123.35
 20
24.85
 10
123.35
 20
21.95
  0
LWPOLYLINE
  5
1C1
100
AcDbEntity
  8
ASSEMBLY_OUTLINES_TOP
100
AcDbPolyline
 90
        4
 70
         1
 10
129.0
 20
62.55
 10
129.0
 20
66.65
 10
169.0
 20
66.65
 10
169.0
 20
62.55
  0
LWPOLYLINE
  5
1C2
100
AcDbEntity
  8
ASSEMBLY_OUTLINES_TOP
100
AcDbPolyline
 90
        4
 70
         1
 43
0.1
 10
122.05
 20
25.05
 10
122.05
 20
26.35
 10
124.95
 20
26.35
 10
124.95
 20
25.05
  0
LWPOLYLINE
  5
1C3
100
AcDbEntity
  8
ASSEMBLY_OUTLINES_TOP
100
AcDbPolyline
 90
        4
 70
         1
 43
0.1
 10
111.75
 20
26.65
 10
111.75
 20
27.95
 10
114.65
 20
27.95
 10
114.65
 20
26.65
  0
LWPOLYLINE
  5
1C4
100
AcDbEntity
  8
ASSEMBLY_OUTLINES_TOP
100
AcDbPolyline
 90
        4
 70
         1
 43
0.1
 10
122.1
 20
28.05
 10
122.1
 20
29.35
 10
124.9
 20
29.35
 10
124.9
 20
28.05
  0
LWPOLYLINE
  5
1C5
100
AcDbEntity
  8
ASSEMBLY_OUTLINES_TOP
100
AcDbPolyline
 90
        4
 70
         1
 43
0.1
 10
108.55
 20
25.05
 10
108.55
 20
26.35
 10
111.45
 20
26.35
 10
111.45
 20
25.05
  0
LWPOLYLINE
  5
1C6
100
AcDbEntity
  8
ASSEMBLY_OUTLINES_TOP
100
AcDbPolyline
 90
        4
 70
         1
 10
77.45
 20
1.3
 10
77.45
 20
6.3
 10
106.75
 20
6.3
 10
106.75
 20
1.3
  0
LWPOLYLINE
  5
1C7
100
AcDbEntity
  8
ASSEMBLY_OUTLINES_TOP
100
AcDbPolyline
 90
        4
 70
         1
 43
0.1
 10
111.75
 20
28.15
 10
111.75
 20
29.45
 10
114.65
 20
29.45
 10
114.65
 20
28.15
  0
LWPOLYLINE
  5
1C8
100
AcDbEntity
  8
ASSEMBLY_OUTLINES_TOP
100
AcDbPolyline
 90
        4
 70
         1
 43
0.1
 10
100.9
 20
14.8
 10
100.9
 20
20.4
 10
104.7
 20
20.4
 10
104.7
 20
14.8
  0
LWPOLYLINE
  5
1C9
100
AcDbEntity
  8
ASSEMBLY_OUTLINES_TOP
100
AcDbPolyline
 90
        2
 70
         0
 43
0.1
 10
104.7
 20
14.9
 10
100.9
 20
14.9
  0
LWPOLYLINE
  5
1CA
100
AcDbEntity
  8
ASSEMBLY_OUTLINES_TOP
100
AcDbPolyline
 90
        2
 70
         0
 43
0.1
 10
104.7
 20
15.0
 10
100.9
 20
15.0
  0
LWPOLYLINE
  5
1CB
100
AcDbEntity
  8
ASSEMBLY_OUTLINES_TOP
100
AcDbPolyline
 90
        2
 70
         0
 43
0.1
 10
104.7
 20
15.1
 10
100.9
 20
15.1
  0
LWPOLYLINE
  5
1CC
100
AcDbEntity
  8
ASSEMBLY_OUTLINES_TOP
100
AcDbPolyline
 90
        2
 70
         0
 43
0.1
 10
104.7
 20
15.2
 10
100.9
 20
15.2
  0
LWPOLYLINE
  5
1CD
100
AcDbEntity
  8
ASSEMBLY_OUTLINES_TOP
100
AcDbPolyline
 90
        2
 70
         0
 43
0.1
 10
104.7
 20
15.3
 10
100.9
 20
15.3
  0
LWPOLYLINE
  5
1CE
100
AcDbEntity
  8
ASSEMBLY_OUTLINES_TOP
100
AcDbPolyline
 90
        2
 70
         0
 43
0.1
 10
104.7
 20
15.4
 10
100.9
 20
15.4
  0
LWPOLYLINE
  5
1CF
100
AcDbEntity
  8
ASSEMBLY_OUTLINES_TOP
100
AcDbPolyline
 90
        2
 70
         0
 43
0.1
 10
104.7
 20
15.5
 10
100.9
 20
15.5
  0
LWPOLYLINE
  5
1D0
100
AcDbEntity
  8
ASSEMBLY_OUTLINES_TOP
100
AcDbPolyline
 90
        2
 70
         0
 43
0.1
 10
104.7
 20
15.6
 10
100.9
 20
15.6
  0
LWPOLYLINE
  5
1D1
100
AcDbEntity
  8
ASSEMBLY_OUTLINES_TOP
100
AcDbPolyline
 90
        4
 70
         1
 43
0.1
 10
116.05
 20
11.25
 10
116.05
 20
14.15
 10
117.35
 20
14.15
 10
117.35
 20
11.25
  0
LWPOLYLINE
  5
1D2
100
AcDbEntity
  8
ASSEMBLY_OUTLINES_TOP
100
AcDbPolyline
 90
        4
 70
         1
 43
0.1
 10
115.5
 20
5.0
 10
115.5
 20
8.0
 10
116.9
 20
8.0
 10
116.9
 20
5.0
  0
LWPOLYLINE
  5
1D3
100
AcDbEntity
  8
ASSEMBLY_OUTLINES_TOP
100
AcDbPolyline
 90
        2
 70
         0
 43
0.1
 10
116.9
 20
5.1
 10
116.8
 20
5.0
  0
LWPOLYLINE
  5
1D4
100
AcDbEntity
  8
ASSEMBLY_OUTLINES_TOP
100
AcDbPolyline
 90
        2
 70
         0
 43
0.1
 10
116.9
 20
5.2
 10
116.7
 20
5.0
  0
LWPOLYLINE
  5
1D5
100
AcDbEntity
  8
ASSEMBLY_OUTLINES_TOP
100
AcDbPolyline
 90
        2
 70
         0
 43
0.1
 10
116.9
 20
5.3
 10
116.6
 20
5.0
  0
LWPOLYLINE
  5
1D6
100
AcDbEntity
  8
ASSEMBLY_OUTLINES_TOP
100
AcDbPolyline
 90
        2
 70
         0
 43
0.1
 10
116.9
 20
5.4
 10
116.5
 20
5.0
  0
LWPOLYLINE
  5
1D7
100
AcDbEntity
  8
ASSEMBLY_OUTLINES_TOP
100
AcDbPolyline
 90
        2
 70
         0
 43
0.1
 10
116.9
 20
5.5
 10
116.4
 20
5.0
  0
LWPOLYLINE
  5
1D8
100
AcDbEntity
  8
ASSEMBLY_OUTLINES_TOP
100
AcDbPolyline
 90
        2
 70
         0
 43
0.1
 10
116.9
 20
5.6
 10
116.3
 20
5.0
  0
LWPOLYLINE
  5
1D9
100
AcDbEntity
  8
ASSEMBLY_OUTLINES_TOP
100
AcDbPolyline
 90
        4
 70
         1
 43
0.1
 10
160.0
 20
77.6
 10
160.0
 20
78.4
 10
161.2
 20
78.4
 10
161.2
 20
77.6
  0
LWPOLYLINE
  5
1DA
100
AcDbEntity
  8
ASSEMBLY_OUTLINES_TOP
100
AcDbPolyline
 90
        2
 70
         0
 43
0.1
 10
160.0
 20
77.6
 10
160.0
 20
78.4
  0
LWPOLYLINE
  5
1DB
100
AcDbEntity
  8
ASSEMBLY_OUTLINES_TOP
100
AcDbPolyline
 90
        2
 70
         0
 43
0.1
 10
160.1
 20
77.6
 10
160.1
 20
78.4
  0
LWPOLYLINE
  5
1DC
100
AcDbEntity
  8
ASSEMBLY_OUTLINES_TOP
100
AcDbPolyline
 90
        2
 70
         0
 43
0.1
 10
160.2
 20
77.6
 10
160.2
 20
78.4
  0
LWPOLYLINE
  5
1DD
100
AcDbEntity
  8
ASSEMBLY_OUTLINES_TOP
100
AcDbPolyline
 90
        2
 70
         0
 43
0.1
 10
160.3
 20
77.6
 10
160.3
 20
78.4
  0
LWPOLYLINE
  5
1DE
100
AcDbEntity
  8
ASSEMBLY_OUTLINES_TOP
100
AcDbPolyline
 90
        2
 70
         0
 43
0.1
 10
160.4
 20
77.6
 10
160.4
 20
78.4
  0
LWPOLYLINE
  5
1DF
100
AcDbEntity
  8
ASSEMBLY_OUTLINES_TOP
100
AcDbPolyline
 90
        2
 70
         0
 43
0.1
 10
160.5
 20
77.6
 10
160.5
 20
78.4
  0
LWPOLYLINE
  5
1E0
100
AcDbEntity
  8
ASSEMBLY_OUTLINES_TOP
100
AcDbPolyline
 90
        8
 70
         1
 10
161.7
 20
95.2
 10
161.7
 20
82.2
 42
0.4142135624
 10
162.7
 20
81.2
 10
169.7
 20
81.2
 42
0.4142135624
 10
170.7
 20
82.2
 10
170.7
 20
95.2
 42
0.4142135624
 10
169.7
 20
96.2
 10
162.7
 20
96.2
 42
0.4142135624
  0
LWPOLYLINE
  5
1E1
100
AcDbEntity
  8
ASSEMBLY_OUTLINES_TOP
100
AcDbPolyline
 90
        4
 70
         1
 43
0.1
 10
142.23
 20
75.0
 10
142.23
 20
96.0
 10
158.49
 20
96.0
 10
158.49
 20
75.0
  0
LWPOLYLINE
  5
1E2
100
AcDbEntity
  8
ASSEMBLY_OUTLINES_TOP
100
AcDbPolyline
 90
        4
 70
         1
 10
129.0
 20
2.55
 10
129.0
 20
6.65
 10
169.0
 20
6.65
 10
169.0
 20
2.55
  0
LWPOLYLINE
  5
1E3
100
AcDbEntity
  8
ASSEMBLY_OUTLINES_TOP
100
AcDbPolyline
 90
        4
 70
         1
 43
0.1
 10
60.35
 20
88.35
 10
60.35
 20
89.65
 10
63.25
 20
89.65
 10
63.25
 20
88.35
  0
LWPOLYLINE
  5
1E4
100
AcDbEntity
  8
ASSEMBLY_OUTLINES_TOP
100
AcDbPolyline
 90
        4
 70
         1
 43
0.1
 10
159.15
 20
79.05
 10
159.15
 20
80.35
 10
162.05
 20
80.35
 10
162.05
 20
79.05
  0
LWPOLYLINE
  5
1E5
100
AcDbEntity
  8
ASSEMBLY_OUTLINES_TOP
100
AcDbPolyline
 90
        4
 70
         1
 43
0.1
 10
68.2
 20
86.75
 10
68.2
 20
95.95
 10
75.9
 20
95.95
 10
75.9
 20
86.75
  0
LWPOLYLINE
  5
1E6
100
AcDbEntity
  8
ASSEMBLY_OUTLINES_TOP
100
AcDbPolyline
 90
        8
 70
         1
 10
75.9
 20
95.95
 10
75.9
 20
94.3
 10
77.5
 20
94.3
 10
77.5
 20
86.3
 10
66.6
 20
86.3
 10
66.6
 20
94.3
 10
68.15
 20
94.3
 10
68.15
 20
95.95
  0
LWPOLYLINE
  5
1E7
100
AcDbEntity
  8
ASSEMBLY_OUTLINES_TOP
100
AcDbPolyline
 90
        4
 70
         1
 43
0.1
 10
169.45
 20
15.55
 10
169.45
 20
16.85
 10
172.35
 20
16.85
 10
172.35
 20
15.55
  0
LWPOLYLINE
  5
1E8
100
AcDbEntity
  8
ASSEMBLY_OUTLINES_TOP
100
AcDbPolyline
 90
        4
 70
         1
 43
0.1
 10
85.9
 20
81.95
 10
85.9
 20
95.95
 10
98.4
 20
95.95
 10
98.4
 20
81.95
  0
LWPOLYLINE
  5
1E9
100
AcDbEntity
  8
ASSEMBLY_OUTLINES_TOP
100
AcDbPolyline
 90
        4
 70
         1
 43
0.1
 10
8.45
 20
53.151564
 10
8.45
 20
79.051564
 10
78.8
 20
79.051564
 10
78.8
 20
53.151564
  0
LWPOLYLINE
  5
1EA
100
AcDbEntity
  8
ASSEMBLY_OUTLINES_TOP
100
AcDbPolyline
 90
        4
 70
         1
 43
0.1
 10
60.85
 20
9.15
 10
60.85
 20
10.45
 10
63.75
 20
10.45
 10
63.75
 20
9.15
  0
LWPOLYLINE
  5
1EB
100
AcDbEntity
  8
ASSEMBLY_OUTLINES_TOP
100
AcDbPolyline
 90
        4
 70
         1
 43
0.1
 10
119.15
 20
75.45
 10
119.15
 20
78.35
 10
120.45
 20
78.35
 10
120.45
 20
75.45
  0
LWPOLYLINE
  5
1EC
100
AcDbEntity
  8
ASSEMBLY_OUTLINES_TOP
100
AcDbPolyline
 90
        4
 70
         1
 43
0.1
 10
60.85
 20
11.05
 10
60.85
 20
12.35
 10
63.75
 20
12.35
 10
63.75
 20
11.05
  0
LWPOLYLINE
  5
1ED
100
AcDbEntity
  8
ASSEMBLY_OUTLINES_TOP
100
AcDbPolyline
 90
        4
 70
         1
 10
105.4
 20
83.9
 10
105.4
 20
96.05
 10
120.4
 20
96.05
 10
120.4
 20
83.9
  0
LWPOLYLINE
  5
1EE
100
AcDbEntity
  8
ASSEMBLY_OUTLINES_TOP
100
AcDbPolyline
 90
        4
 70
         1
 43
0.1
 10
120.65
 20
75.45
 10
120.65
 20
78.35
 10
121.95
 20
78.35
 10
121.95
 20
75.45
  0
LWPOLYLINE
  5
1EF
100
AcDbEntity
  8
ASSEMBLY_OUTLINES_TOP
100
AcDbPolyline
 90
        4
 70
         1
 43
0.1
 10
149.0
 20
70.95
 10
149.0
 20
72.25
 10
151.8
 20
72.25
 10
151.8
 20
70.95
  0
TEXT
  5
1F1
100
AcDbEntity
  8
ASSEMBLY_REF_DES_TOP
100
AcDbText
 10
67.0818
 20
-0.94545
 30
0.0
 40
0.7
  1
C26
  7
GOST_TYPE_B
 72
         1
 11
67.8
 21
-0.6
 31
0.0
100
AcDbText
 73
         2
  0
TEXT
  5
1F2
100
AcDbEntity
  8
ASSEMBLY_REF_DES_TOP
100
AcDbText
 10
112.30455
 20
6.2025
 30
0.0
 40
0.7
  1
R50
 50
270.0
  7
GOST_TYPE_B
 72
         1
 11
112.65
 21
5.45
 31
0.0
100
AcDbText
 73
         2
  0
TEXT
  5
1F3
100
AcDbEntity
  8
ASSEMBLY_REF_DES_TOP
100
AcDbText
 10
112.75455
 20
75.25215
 30
0.0
 40
0.7
  1
VT1
 50
270.0
  7
GOST_TYPE_B
 72
         1
 11
113.1
 21
74.5
 31
0.0
100
AcDbText
 73
         2
  0
TEXT
  5
1F4
100
AcDbEntity
  8
ASSEMBLY_REF_DES_TOP
100
AcDbText
 10
96.19785
 20
23.00455
 30
0.0
 40
0.7
  1
R32
  7
GOST_TYPE_B
 72
         1
 11
96.95
 21
23.35
 31
0.0
100
AcDbText
 73
         2
  0
TEXT
  5
1F5
100
AcDbEntity
  8
ASSEMBLY_REF_DES_TOP
100
AcDbText
 10
133.5898
 20
79.05455
 30
0.0
 40
0.7
  1
C1
  7
GOST_TYPE_B
 72
         1
 11
134.0
 21
79.4
 31
0.0
100
AcDbText
 73
         2
  0
TEXT
  5
1F6
100
AcDbEntity
  8
ASSEMBLY_REF_DES_TOP
100
AcDbText
 10
116.75455
 20
75.32075
 30
0.0
 40
0.7
  1
VT2
 50
270.0
  7
GOST_TYPE_B
 72
         1
 11
117.1
 21
74.5
 31
0.0
100
AcDbText
 73
         2
  0
TEXT
  5
1F7
100
AcDbEntity
  8
ASSEMBLY_REF_DES_TOP
100
AcDbText
 10
165.6639
 20
26.10455
 30
0.0
 40
0.7
  1
R24
  7
GOST_TYPE_B
 72
         1
 11
166.45
 21
26.45
 31
0.0
100
AcDbText
 73
         2
  0
TEXT
  5
1F8
100
AcDbEntity
  8
ASSEMBLY_REF_DES_TOP
100
AcDbText
 10
113.43725
 20
77.30455
 30
0.0
 40
0.7
  1
R3
  7
GOST_TYPE_B
 72
         1
 11
113.95
 21
77.65
 31
0.0
100
AcDbText
 73
         2
  0
TEXT
  5
1F9
100
AcDbEntity
  8
ASSEMBLY_REF_DES_TOP
100
AcDbText
 10
169.20455
 20
46.1339
 30
0.0
 40
0.7
  1
R16
 50
270.0
  7
GOST_TYPE_B
 72
         1
 11
169.55
 21
45.45
 31
0.0
100
AcDbText
 73
         2
  0
TEXT
  5
1FA
100
AcDbEntity
  8
ASSEMBLY_REF_DES_TOP
100
AcDbText
 10
131.70455
 20
77.4339
 30
0.0
 40
0.7
  1
R12
 50
270.0
  7
GOST_TYPE_B
 72
         1
 11
132.05
 21
76.75
 31
0.0
100
AcDbText
 73
         2
  0
TEXT
  5
1FB
100
AcDbEntity
  8
ASSEMBLY_REF_DES_TOP
100
AcDbText
 10
96.19785
 20
25.00455
 30
0.0
 40
0.7
  1
R26
  7
GOST_TYPE_B
 72
         1
 11
96.95
 21
25.35
 31
0.0
100
AcDbText
 73
         2
  0
TEXT
  5
1FC
100
AcDbEntity
  8
ASSEMBLY_REF_DES_TOP
100
AcDbText
 10
116.7033
 20
77.40455
 30
0.0
 40
0.7
  1
R4
  7
GOST_TYPE_B
 72
         1
 11
117.25
 21
77.75
 31
0.0
100
AcDbText
 73
         2
  0
TEXT
  5
1FD
100
AcDbEntity
  8
ASSEMBLY_REF_DES_TOP
100
AcDbText
 10
170.70455
 20
47.3339
 30
0.0
 40
0.7
  1
R15
 50
270.0
  7
GOST_TYPE_B
 72
         1
 11
171.05
 21
46.65
 31
0.0
100
AcDbText
 73
         2
  0
TEXT
  5
1FE
100
AcDbEntity
  8
ASSEMBLY_REF_DES_TOP
100
AcDbText
 10
118.987
 20
64.15
 30
0.0
 40
1.0
  1
X7
  7
GOST_TYPE_B
 72
         2
 11
120.55
 21
64.15
 31
0.0
100
AcDbText
 73
         1
  0
TEXT
  5
1FF
100
AcDbEntity
  8
ASSEMBLY_REF_DES_TOP
100
AcDbText
 10
96.26645
 20
28.70455
 30
0.0
 40
0.7
  1
R19
  7
GOST_TYPE_B
 72
         1
 11
96.95
 21
29.05
 31
0.0
100
AcDbText
 73
         2
  0
TEXT
  5
200
100
AcDbEntity
  8
ASSEMBLY_REF_DES_TOP
100
AcDbText
 10
127.20455
 20
77.2631
 30
0.0
 40
0.7
  1
R9
 50
270.0
  7
GOST_TYPE_B
 72
         1
 11
127.55
 21
76.75
 31
0.0
100
AcDbText
 73
         2
  0
TEXT
  5
201
100
AcDbEntity
  8
ASSEMBLY_REF_DES_TOP
100
AcDbText
 10
170.70455
 20
44.1339
 30
0.0
 40
0.7
  1
R17
 50
270.0
  7
GOST_TYPE_B
 72
         1
 11
171.05
 21
43.45
 31
0.0
100
AcDbText
 73
         2
  0
TEXT
  5
202
100
AcDbEntity
  8
ASSEMBLY_REF_DES_TOP
100
AcDbText
 10
130.30455
 20
77.3653
 30
0.0
 40
0.7
  1
R11
 50
270.0
  7
GOST_TYPE_B
 72
         1
 11
130.65
 21
76.75
 31
0.0
100
AcDbText
 73
         2
  0
TEXT
  5
203
100
AcDbEntity
  8
ASSEMBLY_REF_DES_TOP
100
AcDbText
 10
92.56645
 20
23.00455
 30
0.0
 40
0.7
  1
R31
  7
GOST_TYPE_B
 72
         1
 11
93.25
 21
23.35
 31
0.0
100
AcDbText
 73
         2
  0
TEXT
  5
204
100
AcDbEntity
  8
ASSEMBLY_REF_DES_TOP
100
AcDbText
 10
142.6065
 20
41.0815
 30
0.0
 40
1.0
  1
X9
 50
270.0
  7
GOST_TYPE_B
 72
         1
 11
143.1
 21
40.3
 31
0.0
100
AcDbText
 73
         2
  0
TEXT
  5
205
100
AcDbEntity
  8
ASSEMBLY_REF_DES_TOP
100
AcDbText
 10
170.65325
 20
39.542
 30
0.0
 40
0.5
  1
C5
 50
270.0
  7
GOST_TYPE_B
 72
         1
 11
170.9
 21
39.2
 31
0.0
100
AcDbText
 73
         2
  0
TEXT
  5
206
100
AcDbEntity
  8
ASSEMBLY_REF_DES_TOP
100
AcDbText
 10
131.8185
 20
86.6565
 30
0.0
 40
1.0
  1
X3
  7
GOST_TYPE_B
 72
         1
 11
132.6
 21
87.15
 31
0.0
100
AcDbText
 73
         2
  0
TEXT
  5
207
100
AcDbEntity
  8
ASSEMBLY_REF_DES_TOP
100
AcDbText
 10
92.49785
 20
25.00455
 30
0.0
 40
0.7
  1
R25
  7
GOST_TYPE_B
 72
         1
 11
93.25
 21
25.35
 31
0.0
100
AcDbText
 73
         2
  0
TEXT
  5
208
100
AcDbEntity
  8
ASSEMBLY_REF_DES_TOP
100
AcDbText
 10
137.20455
 20
77.4682
 30
0.0
 40
0.7
  1
R14
 50
270.0
  7
GOST_TYPE_B
 72
         1
 11
137.55
 21
76.75
 31
0.0
100
AcDbText
 73
         2
  0
TEXT
  5
209
100
AcDbEntity
  8
ASSEMBLY_REF_DES_TOP
100
AcDbText
 10
168.75325
 20
39.5665
 30
0.0
 40
0.5
  1
C4
 50
270.0
  7
GOST_TYPE_B
 72
         1
 11
169.0
 21
39.2
 31
0.0
100
AcDbText
 73
         2
  0
TEXT
  5
20A
100
AcDbEntity
  8
ASSEMBLY_REF_DES_TOP
100
AcDbText
 10
128.90455
 20
77.4339
 30
0.0
 40
0.7
  1
R10
 50
270.0
  7
GOST_TYPE_B
 72
         1
 11
129.25
 21
76.75
 31
0.0
100
AcDbText
 73
         2
  0
TEXT
  5
20B
100
AcDbEntity
  8
ASSEMBLY_REF_DES_TOP
100
AcDbText
 10
92.56645
 20
26.90455
 30
0.0
 40
0.7
  1
R21
  7
GOST_TYPE_B
 72
         1
 11
93.25
 21
27.25
 31
0.0
100
AcDbText
 73
         2
  0
TEXT
  5
20C
100
AcDbEntity
  8
ASSEMBLY_REF_DES_TOP
100
AcDbText
 10
108.7639
 20
10.60455
 30
0.0
 40
0.7
  1
R40
  7
GOST_TYPE_B
 72
         1
 11
109.55
 21
10.95
 31
0.0
100
AcDbText
 73
         2
  0
TEXT
  5
20D
100
AcDbEntity
  8
ASSEMBLY_REF_DES_TOP
100
AcDbText
 10
164.3565
 20
40.136
 30
0.0
 40
1.0
  1
L1
 50
270.0
  7
GOST_TYPE_B
 72
         1
 11
164.85
 21
39.55
 31
0.0
100
AcDbText
 73
         2
  0
TEXT
  5
20E
100
AcDbEntity
  8
ASSEMBLY_REF_DES_TOP
100
AcDbText
 10
135.80455
 20
77.4339
 30
0.0
 40
0.7
  1
R13
 50
270.0
  7
GOST_TYPE_B
 72
         1
 11
136.15
 21
76.75
 31
0.0
100
AcDbText
 73
         2
  0
TEXT
  5
20F
100
AcDbEntity
  8
ASSEMBLY_REF_DES_TOP
100
AcDbText
 10
92.5325
 20
28.70455
 30
0.0
 40
0.7
  1
R18
  7
GOST_TYPE_B
 72
         1
 11
93.25
 21
29.05
 31
0.0
100
AcDbText
 73
         2
  0
TEXT
  5
210
100
AcDbEntity
  8
ASSEMBLY_REF_DES_TOP
100
AcDbText
 10
112.30455
 20
9.4368
 30
0.0
 40
0.7
  1
R46
 50
270.0
  7
GOST_TYPE_B
 72
         1
 11
112.65
 21
8.65
 31
0.0
100
AcDbText
 73
         2
  0
TEXT
  5
211
100
AcDbEntity
  8
ASSEMBLY_REF_DES_TOP
100
AcDbText
 10
162.85455
 20
45.6788
 30
0.0
 40
0.7
  1
C3
 50
270.0
  7
GOST_TYPE_B
 72
         1
 11
163.2
 21
45.2
 31
0.0
100
AcDbText
 73
         2
  0
TEXT
  5
212
100
AcDbEntity
  8
ASSEMBLY_REF_DES_TOP
100
AcDbText
 10
47.3065
 20
11.273
 30
0.0
 40
1.0
  1
R44
 50
270.0
  7
GOST_TYPE_B
 72
         1
 11
47.8
 21
10.1
 31
0.0
100
AcDbText
 73
         2
  0
TEXT
  5
213
100
AcDbEntity
  8
ASSEMBLY_REF_DES_TOP
100
AcDbText
 10
160.915
 20
25.8565
 30
0.0
 40
1.0
  1
J2
  7
GOST_TYPE_B
 72
         1
 11
161.55
 21
26.35
 31
0.0
100
AcDbText
 73
         2
  0
TEXT
  5
214
100
AcDbEntity
  8
ASSEMBLY_REF_DES_TOP
100
AcDbText
 10
165.0565
 20
45.8245
 30
0.0
 40
1.0
  1
DA1
 50
270.0
  7
GOST_TYPE_B
 72
         1
 11
165.55
 21
44.75
 31
0.0
100
AcDbText
 73
         2
  0
TEXT
  5
215
100
AcDbEntity
  8
ASSEMBLY_REF_DES_TOP
100
AcDbText
 10
47.5065
 20
14.326
 30
0.0
 40
1.0
  1
C20
 50
270.0
  7
GOST_TYPE_B
 72
         1
 11
48.0
 21
13.3
 31
0.0
100
AcDbText
 73
         2
  0
TEXT
  5
216
100
AcDbEntity
  8
ASSEMBLY_REF_DES_TOP
100
AcDbText
 10
124.60455
 20
77.4974
 30
0.0
 40
0.7
  1
R8
 50
270.0
  7
GOST_TYPE_B
 72
         1
 11
124.95
 21
76.95
 31
0.0
100
AcDbText
 73
         2
  0
TEXT
  5
217
100
AcDbEntity
  8
ASSEMBLY_REF_DES_TOP
100
AcDbText
 10
44.7255
 20
16.7065
 30
0.0
 40
1.0
  1
R35
  7
GOST_TYPE_B
 72
         1
 11
45.8
 21
17.2
 31
0.0
100
AcDbText
 73
         2
  0
TEXT
  5
218
100
AcDbEntity
  8
ASSEMBLY_REF_DES_TOP
100
AcDbText
 10
66.3245
 20
3.0065
 30
0.0
 40
1.0
  1
X12
  7
GOST_TYPE_B
 72
         1
 11
67.35
 21
3.5
 31
0.0
100
AcDbText
 73
         2
  0
TEXT
  5
219
100
AcDbEntity
  8
ASSEMBLY_REF_DES_TOP
100
AcDbText
 10
123.20455
 20
77.3631
 30
0.0
 40
0.7
  1
R7
 50
270.0
  7
GOST_TYPE_B
 72
         1
 11
123.55
 21
76.85
 31
0.0
100
AcDbText
 73
         2
  0
TEXT
  5
21A
100
AcDbEntity
  8
ASSEMBLY_REF_DES_TOP
100
AcDbText
 10
116.7065
 20
19.8725
 30
0.0
 40
1.0
  1
DA2
 50
270.0
  7
GOST_TYPE_B
 72
         1
 11
117.2
 21
18.7
 31
0.0
100
AcDbText
 73
         2
  0
TEXT
  5
21B
100
AcDbEntity
  8
ASSEMBLY_REF_DES_TOP
100
AcDbText
 10
40.1065
 20
11.875
 30
0.0
 40
1.0
  1
C24
 50
270.0
  7
GOST_TYPE_B
 72
         1
 11
40.6
 21
10.8
 31
0.0
100
AcDbText
 73
         2
  0
TEXT
  5
21C
100
AcDbEntity
  8
ASSEMBLY_REF_DES_TOP
100
AcDbText
 10
122.2065
 20
21.13
 30
0.0
 40
1.0
  1
C11
 50
270.0
  7
GOST_TYPE_B
 72
         1
 11
122.7
 21
20.3
 31
0.0
100
AcDbText
 73
         2
  0
TEXT
  5
21D
100
AcDbEntity
  8
ASSEMBLY_REF_DES_TOP
100
AcDbText
 10
36.795
 20
1.95
 30
0.0
 40
1.0
  1
X11
  7
GOST_TYPE_B
 72
         2
 11
38.65
 21
1.95
 31
0.0
100
AcDbText
 73
         1
  0
TEXT
  5
21E
100
AcDbEntity
  8
ASSEMBLY_REF_DES_TOP
100
AcDbText
 10
118.50455
 20
7.2368
 30
0.0
 40
0.7
  1
R49
 50
270.0
  7
GOST_TYPE_B
 72
         1
 11
118.85
 21
6.45
 31
0.0
100
AcDbText
 73
         2
  0
TEXT
  5
21F
100
AcDbEntity
  8
ASSEMBLY_REF_DES_TOP
100
AcDbText
 10
43.8065
 20
12.926
 30
0.0
 40
1.0
  1
DD1
 50
270.0
  7
GOST_TYPE_B
 72
         1
 11
44.3
 21
11.9
 31
0.0
100
AcDbText
 73
         2
  0
TEXT
  5
220
100
AcDbEntity
  8
ASSEMBLY_REF_DES_TOP
100
AcDbText
 10
72.60455
 20
7.3368
 30
0.0
 40
0.7
  1
R47
 50
270.0
  7
GOST_TYPE_B
 72
         1
 11
72.95
 21
6.55
 31
0.0
100
AcDbText
 73
         2
  0
TEXT
  5
221
100
AcDbEntity
  8
ASSEMBLY_REF_DES_TOP
100
AcDbText
 10
114.95325
 20
13.213
 30
0.0
 40
0.5
  1
C22
 50
270.0
  7
GOST_TYPE_B
 72
         1
 11
115.2
 21
12.7
 31
0.0
100
AcDbText
 73
         2
  0
TEXT
  5
222
100
AcDbEntity
  8
ASSEMBLY_REF_DES_TOP
100
AcDbText
 10
106.336
 20
14.95325
 30
0.0
 40
0.5
  1
C16
  7
GOST_TYPE_B
 72
         1
 11
106.8
 21
15.2
 31
0.0
100
AcDbText
 73
         2
  0
TEXT
  5
223
100
AcDbEntity
  8
ASSEMBLY_REF_DES_TOP
100
AcDbText
 10
52.952
 20
6.300002
 30
0.0
 40
1.0
  1
X14
  7
GOST_TYPE_B
 72
         2
 11
55.1
 21
6.300002
 31
0.0
100
AcDbText
 73
         1
  0
TEXT
  5
224
100
AcDbEntity
  8
ASSEMBLY_REF_DES_TOP
100
AcDbText
 10
74.30455
 20
7.3711
 30
0.0
 40
0.7
  1
R48
 50
270.0
  7
GOST_TYPE_B
 72
         1
 11
74.65
 21
6.55
 31
0.0
100
AcDbText
 73
         2
  0
TEXT
  5
225
100
AcDbEntity
  8
ASSEMBLY_REF_DES_TOP
100
AcDbText
 10
108.7565
 20
21.534
 30
0.0
 40
1.0
  1
L2
 50
270.0
  7
GOST_TYPE_B
 72
         1
 11
109.25
 21
20.85
 31
0.0
100
AcDbText
 73
         2
  0
TEXT
  5
226
100
AcDbEntity
  8
ASSEMBLY_REF_DES_TOP
100
AcDbText
 10
113.836
 20
23.75325
 30
0.0
 40
0.5
  1
C10
  7
GOST_TYPE_B
 72
         1
 11
114.3
 21
24.0
 31
0.0
100
AcDbText
 73
         2
  0
TEXT
  5
227
100
AcDbEntity
  8
ASSEMBLY_REF_DES_TOP
100
AcDbText
 10
106.31175
 20
16.85325
 30
0.0
 40
0.5
  1
C14
  7
GOST_TYPE_B
 72
         1
 11
106.8
 21
17.1
 31
0.0
100
AcDbText
 73
         2
  0
TEXT
  5
228
100
AcDbEntity
  8
ASSEMBLY_REF_DES_TOP
100
AcDbText
 10
122.7504
 20
17.75455
 30
0.0
 40
0.7
  1
C13
  7
GOST_TYPE_B
 72
         1
 11
123.4
 21
18.1
 31
0.0
100
AcDbText
 73
         2
  0
TEXT
  5
229
100
AcDbEntity
  8
ASSEMBLY_REF_DES_TOP
100
AcDbText
 10
109.836
 20
14.95325
 30
0.0
 40
0.5
  1
C17
  7
GOST_TYPE_B
 72
         1
 11
110.3
 21
15.2
 31
0.0
100
AcDbText
 73
         2
  0
TEXT
  5
22A
100
AcDbEntity
  8
ASSEMBLY_REF_DES_TOP
100
AcDbText
 10
118.3639
 20
10.20455
 30
0.0
 40
0.7
  1
R42
  7
GOST_TYPE_B
 72
         1
 11
119.15
 21
10.55
 31
0.0
100
AcDbText
 73
         2
  0
TEXT
  5
22B
100
AcDbEntity
  8
ASSEMBLY_REF_DES_TOP
100
AcDbText
 10
118.074
 20
11.5065
 30
0.0
 40
1.0
  1
C25
  7
GOST_TYPE_B
 72
         1
 11
119.1
 21
12.0
 31
0.0
100
AcDbText
 73
         2
  0
TEXT
  5
22C
100
AcDbEntity
  8
ASSEMBLY_REF_DES_TOP
100
AcDbText
 10
109.836
 20
16.85325
 30
0.0
 40
0.5
  1
C15
  7
GOST_TYPE_B
 72
         1
 11
110.3
 21
17.1
 31
0.0
100
AcDbText
 73
         2
  0
TEXT
  5
22D
100
AcDbEntity
  8
ASSEMBLY_REF_DES_TOP
100
AcDbText
 10
120.85325
 20
25.342
 30
0.0
 40
0.5
  1
C9
 50
270.0
  7
GOST_TYPE_B
 72
         1
 11
121.1
 21
25.0
 31
0.0
100
AcDbText
 73
         2
  0
TEXT
  5
22E
100
AcDbEntity
  8
ASSEMBLY_REF_DES_TOP
100
AcDbText
 10
110.8504
 20
12.55455
 30
0.0
 40
0.7
  1
C21
  7
GOST_TYPE_B
 72
         1
 11
111.5
 21
12.9
 31
0.0
100
AcDbText
 73
         2
  0
TEXT
  5
22F
100
AcDbEntity
  8
ASSEMBLY_REF_DES_TOP
100
AcDbText
 10
123.85455
 20
20.9496
 30
0.0
 40
0.7
  1
C12
 50
270.0
  7
GOST_TYPE_B
 72
         1
 11
124.2
 21
20.3
 31
0.0
100
AcDbText
 73
         2
  0
TEXT
  5
230
100
AcDbEntity
  8
ASSEMBLY_REF_DES_TOP
100
AcDbText
 10
119.20455
 20
25.7025
 30
0.0
 40
0.7
  1
R29
 50
270.0
  7
GOST_TYPE_B
 72
         1
 11
119.55
 21
24.95
 31
0.0
100
AcDbText
 73
         2
  0
TEXT
  5
231
100
AcDbEntity
  8
ASSEMBLY_REF_DES_TOP
100
AcDbText
 10
55.813
 20
88.7565
 30
0.0
 40
1.0
  1
J1
  7
GOST_TYPE_B
 72
         1
 11
56.35
 21
89.25
 31
0.0
100
AcDbText
 73
         2
  0
TEXT
  5
232
100
AcDbEntity
  8
ASSEMBLY_REF_DES_TOP
100
AcDbText
 10
111.8325
 20
10.60455
 30
0.0
 40
0.7
  1
R41
  7
GOST_TYPE_B
 72
         1
 11
112.55
 21
10.95
 31
0.0
100
AcDbText
 73
         2
  0
TEXT
  5
233
100
AcDbEntity
  8
ASSEMBLY_REF_DES_TOP
100
AcDbText
 10
118.3818
 20
13.15455
 30
0.0
 40
0.7
  1
C23
  7
GOST_TYPE_B
 72
         1
 11
119.1
 21
13.5
 31
0.0
100
AcDbText
 73
         2
  0
TEXT
  5
234
100
AcDbEntity
  8
ASSEMBLY_REF_DES_TOP
100
AcDbText
 10
121.4639
 20
12.40455
 30
0.0
 40
0.7
  1
R38
  7
GOST_TYPE_B
 72
         1
 11
122.25
 21
12.75
 31
0.0
100
AcDbText
 73
         2
  0
TEXT
  5
235
100
AcDbEntity
  8
ASSEMBLY_REF_DES_TOP
100
AcDbText
 10
123.85455
 20
16.3496
 30
0.0
 40
0.7
  1
C19
 50
270.0
  7
GOST_TYPE_B
 72
         1
 11
124.2
 21
15.7
 31
0.0
100
AcDbText
 73
         2
  0
TEXT
  5
236
100
AcDbEntity
  8
ASSEMBLY_REF_DES_TOP
100
AcDbText
 10
109.5212
 20
26.85455
 30
0.0
 40
0.7
  1
C7
  7
GOST_TYPE_B
 72
         1
 11
110.0
 21
27.2
 31
0.0
100
AcDbText
 73
         2
  0
TEXT
  5
237
100
AcDbEntity
  8
ASSEMBLY_REF_DES_TOP
100
AcDbText
 10
122.35455
 20
16.3839
 30
0.0
 40
0.7
  1
C18
 50
270.0
  7
GOST_TYPE_B
 72
         1
 11
122.7
 21
15.7
 31
0.0
100
AcDbText
 73
         2
  0
TEXT
  5
238
100
AcDbEntity
  8
ASSEMBLY_REF_DES_TOP
100
AcDbText
 10
126.55455
 20
23.62075
 30
0.0
 40
0.7
  1
VD2
 50
270.0
  7
GOST_TYPE_B
 72
         1
 11
126.9
 21
22.8
 31
0.0
100
AcDbText
 73
         2
  0
TEXT
  5
239
100
AcDbEntity
  8
ASSEMBLY_REF_DES_TOP
100
AcDbText
 10
126.55455
 20
20.32075
 30
0.0
 40
0.7
  1
VD3
 50
270.0
  7
GOST_TYPE_B
 72
         1
 11
126.9
 21
19.5
 31
0.0
100
AcDbText
 73
         2
  0
TEXT
  5
23A
100
AcDbEntity
  8
ASSEMBLY_REF_DES_TOP
100
AcDbText
 10
121.5639
 20
11.00455
 30
0.0
 40
0.7
  1
R43
  7
GOST_TYPE_B
 72
         1
 11
122.35
 21
11.35
 31
0.0
100
AcDbText
 73
         2
  0
TEXT
  5
23B
100
AcDbEntity
  8
ASSEMBLY_REF_DES_TOP
100
AcDbText
 10
115.40455
 20
28.7025
 30
0.0
 40
0.7
  1
R23
 50
270.0
  7
GOST_TYPE_B
 72
         1
 11
115.75
 21
27.95
 31
0.0
100
AcDbText
 73
         2
  0
TEXT
  5
23C
100
AcDbEntity
  8
ASSEMBLY_REF_DES_TOP
100
AcDbText
 10
112.3639
 20
25.40455
 30
0.0
 40
0.7
  1
R28
  7
GOST_TYPE_B
 72
         1
 11
113.15
 21
25.75
 31
0.0
100
AcDbText
 73
         2
  0
TEXT
  5
23D
100
AcDbEntity
  8
ASSEMBLY_REF_DES_TOP
100
AcDbText
 10
123.80455
 20
24.2368
 30
0.0
 40
0.7
  1
R34
 50
270.0
  7
GOST_TYPE_B
 72
         1
 11
124.15
 21
23.45
 31
0.0
100
AcDbText
 73
         2
  0
TEXT
  5
23E
100
AcDbEntity
  8
ASSEMBLY_REF_DES_TOP
100
AcDbText
 10
122.7675
 20
26.7065
 30
0.0
 40
1.0
  1
C8
  7
GOST_TYPE_B
 72
         1
 11
123.5
 21
27.2
 31
0.0
100
AcDbText
 73
         2
  0
TEXT
  5
23F
100
AcDbEntity
  8
ASSEMBLY_REF_DES_TOP
100
AcDbText
 10
93.297906
 20
66.98548
 30
0.0
 40
1.524
  1
Bat1
 50
270.0
  7
GOST_TYPE_B
 72
         1
 11
94.05
 21
65.05
 31
0.0
100
AcDbText
 73
         2
  0
TEXT
  5
240
100
AcDbEntity
  8
ASSEMBLY_REF_DES_TOP
100
AcDbText
 10
122.30455
 20
24.2025
 30
0.0
 40
0.7
  1
R33
 50
270.0
  7
GOST_TYPE_B
 72
         1
 11
122.65
 21
23.45
 31
0.0
100
AcDbText
 73
         2
  0
TEXT
  5
241
100
AcDbEntity
  8
ASSEMBLY_REF_DES_TOP
100
AcDbText
 10
148.64
 20
63.9
 30
0.0
 40
1.0
  1
X8
  7
GOST_TYPE_B
 72
         2
 11
150.3
 21
63.9
 31
0.0
100
AcDbText
 73
         1
  0
TEXT
  5
242
100
AcDbEntity
  8
ASSEMBLY_REF_DES_TOP
100
AcDbText
 10
122.79785
 20
25.40455
 30
0.0
 40
0.7
  1
R30
  7
GOST_TYPE_B
 72
         1
 11
123.55
 21
25.75
 31
0.0
100
AcDbText
 73
         2
  0
TEXT
  5
243
100
AcDbEntity
  8
ASSEMBLY_REF_DES_TOP
100
AcDbText
 10
112.39785
 20
26.90455
 30
0.0
 40
0.7
  1
R22
  7
GOST_TYPE_B
 72
         1
 11
113.15
 21
27.25
 31
0.0
100
AcDbText
 73
         2
  0
TEXT
  5
244
100
AcDbEntity
  8
ASSEMBLY_REF_DES_TOP
100
AcDbText
 10
122.7814
 20
28.1719
 30
0.0
 40
1.0
  1
C6
  7
GOST_TYPE_B
 72
         1
 11
123.4654
 21
28.6654
 31
0.0
100
AcDbText
 73
         2
  0
TEXT
  5
245
100
AcDbEntity
  8
ASSEMBLY_REF_DES_TOP
100
AcDbText
 10
109.19785
 20
25.30455
 30
0.0
 40
0.7
  1
R27
  7
GOST_TYPE_B
 72
         1
 11
109.95
 21
25.65
 31
0.0
100
AcDbText
 73
         2
  0
TEXT
  5
246
100
AcDbEntity
  8
ASSEMBLY_REF_DES_TOP
100
AcDbText
 10
91.78215
 20
2.35455
 30
0.0
 40
0.7
  1
X13
  7
GOST_TYPE_B
 72
         1
 11
92.5
 21
2.7
 31
0.0
100
AcDbText
 73
         2
  0
TEXT
  5
247
100
AcDbEntity
  8
ASSEMBLY_REF_DES_TOP
100
AcDbText
 10
112.39785
 20
28.40455
 30
0.0
 40
0.7
  1
R20
  7
GOST_TYPE_B
 72
         1
 11
113.15
 21
28.75
 31
0.0
100
AcDbText
 73
         2
  0
TEXT
  5
249
100
AcDbEntity
  8
ASSEMBLY_REF_DES_TOP
100
AcDbText
 10
102.05
 20
19.72625
 30
0.0
 40
1.5
  1
VD4
 50
270.0
  7
VERIBEST_GERBER_0
 72
         1
 11
102.8
 21
17.6
 31
0.0
100
AcDbText
 73
         2
  0
TEXT
  5
24A
100
AcDbEntity
  8
ASSEMBLY_REF_DES_TOP
100
AcDbText
 10
116.30455
 20
13.5025
 30
0.0
 40
0.7
  1
R37
 50
270.0
  7
GOST_TYPE_B
 72
         1
 11
116.65
 21
12.75
 31
0.0
100
AcDbText
 73
         2
  0
TEXT
  5
24B
100
AcDbEntity
  8
ASSEMBLY_REF_DES_TOP
100
AcDbText
 10
115.85455
 20
7.32075
 30
0.0
 40
0.7
  1
VT3
 50
270.0
  7
GOST_TYPE_B
 72
         1
 11
116.2
 21
6.5
 31
0.0
100
AcDbText
 73
         2
  0
TEXT
  5
24C
100
AcDbEntity
  8
ASSEMBLY_REF_DES_TOP
100
AcDbText
 10
160.063
 20
77.75325
 30
0.0
 40
0.5
  1
VD1
  7
GOST_TYPE_B
 72
         1
 11
160.6
 21
78.0
 31
0.0
100
AcDbText
 73
         2
  0
TEXT
  5
24D
100
AcDbEntity
  8
ASSEMBLY_REF_DES_TOP
100
AcDbText
 10
167.713
 20
90.95
 30
0.0
 40
1.0
  1
X4
 50
270.0
  7
GOST_TYPE_B
 11
168.7
 21
90.95
 31
0.0
100
AcDbText
 73
         3
  0
TEXT
  5
24E
100
AcDbEntity
  8
ASSEMBLY_REF_DES_TOP
100
AcDbText
 10
153.9155
 20
70.6065
 30
0.0
 40
1.0
  1
T1
  7
GOST_TYPE_B
 72
         1
 11
154.55
 21
71.1
 31
0.0
100
AcDbText
 73
         2
  0
TEXT
  5
24F
100
AcDbEntity
  8
ASSEMBLY_REF_DES_TOP
100
AcDbText
 10
148.249
 20
3.9
 30
0.0
 40
1.0
  1
X10
  7
GOST_TYPE_B
 72
         2
 11
150.3
 21
3.9
 31
0.0
100
AcDbText
 73
         1
  0
TEXT
  5
250
100
AcDbEntity
  8
ASSEMBLY_REF_DES_TOP
100
AcDbText
 10
61.30585
 20
88.60455
 30
0.0
 40
0.7
  1
R1
  7
GOST_TYPE_B
 72
         1
 11
61.75
 21
88.95
 31
0.0
100
AcDbText
 73
         2
  0
TEXT
  5
251
100
AcDbEntity
  8
ASSEMBLY_REF_DES_TOP
100
AcDbText
 10
160.13725
 20
79.40455
 30
0.0
 40
0.7
  1
R2
  7
GOST_TYPE_B
 72
         1
 11
160.65
 21
79.75
 31
0.0
100
AcDbText
 73
         2
  0
TEXT
  5
253
100
AcDbEntity
  8
ASSEMBLY_REF_DES_TOP
100
AcDbText
 10
71.95805
 20
91.4788
 30
0.0
 40
0.7
  1
X1
 50
270.0
  7
GOST_D
 72
         1
 11
72.3
 21
91.0
 31
0.0
100
AcDbText
 73
         2
  0
TEXT
  5
254
100
AcDbEntity
  8
ASSEMBLY_REF_DES_TOP
100
AcDbText
 10
170.19785
 20
15.90455
 30
0.0
 40
0.7
  1
R36
  7
GOST_TYPE_B
 72
         1
 11
170.95
 21
16.25
 31
0.0
100
AcDbText
 73
         2
  0
TEXT
  5
255
100
AcDbEntity
  8
ASSEMBLY_REF_DES_TOP
100
AcDbText
 10
91.3685
 20
83.5565
 30
0.0
 40
1.0
  1
X5
  7
GOST_TYPE_B
 72
         1
 11
92.15
 21
84.05
 31
0.0
100
AcDbText
 73
         2
  0
TEXT
  5
256
100
AcDbEntity
  8
ASSEMBLY_REF_DES_TOP
100
AcDbText
 10
41.2185
 20
74.258064
 30
0.0
 40
1.0
  1
X6
  7
GOST_TYPE_B
 72
         1
 11
42.0
 21
74.751564
 31
0.0
100
AcDbText
 73
         2
  0
TEXT
  5
257
100
AcDbEntity
  8
ASSEMBLY_REF_DES_TOP
100
AcDbText
 10
61.5639
 20
9.50455
 30
0.0
 40
0.7
  1
R45
  7
GOST_TYPE_B
 72
         1
 11
62.35
 21
9.85
 31
0.0
100
AcDbText
 73
         2
  0
TEXT
  5
258
100
AcDbEntity
  8
ASSEMBLY_REF_DES_TOP
100
AcDbText
 10
119.50455
 20
77.3631
 30
0.0
 40
0.7
  1
R5
 50
270.0
  7
GOST_TYPE_B
 72
         1
 11
119.85
 21
76.85
 31
0.0
100
AcDbText
 73
         2
  0
TEXT
  5
259
100
AcDbEntity
  8
ASSEMBLY_REF_DES_TOP
100
AcDbText
 10
61.59785
 20
11.40455
 30
0.0
 40
0.7
  1
R39
  7
GOST_TYPE_B
 72
         1
 11
62.35
 21
11.75
 31
0.0
100
AcDbText
 73
         2
  0
TEXT
  5
25A
100
AcDbEntity
  8
ASSEMBLY_REF_DES_TOP
100
AcDbText
 10
112.3685
 20
89.0065
 30
0.0
 40
1.0
  1
X2
  7
GOST_TYPE_B
 72
         1
 11
113.15
 21
89.5
 31
0.0
100
AcDbText
 73
         2
  0
TEXT
  5
25B
100
AcDbEntity
  8
ASSEMBLY_REF_DES_TOP
100
AcDbText
 10
121.00455
 20
77.3631
 30
0.0
 40
0.7
  1
R6
 50
270.0
  7
GOST_TYPE_B
 72
         1
 11
121.35
 21
76.85
 31
0.0
100
AcDbText
 73
         2
  0
TEXT
  5
25C
100
AcDbEntity
  8
ASSEMBLY_REF_DES_TOP
100
AcDbText
 10
149.9212
 20
71.25455
 30
0.0
 40
0.7
  1
C2
  7
GOST_TYPE_B
 72
         1
 11
150.4
 21
71.6
 31
0.0
100
AcDbText
 73
         2
  0
LWPOLYLINE
  5
25D
100
AcDbEntity
  8
BOARD_OUTLINE
100
AcDbPolyline
 90
        4
 70
         1
 43
0.2
 10
-2.0
 20
-4.0
 10
-2.0
 20
96.0
 10
183.0
 20
96.0
 10
183.0
 20
-4.0
  0
CIRCLE
  5
25E
100
AcDbEntity
  8
MOUNTING_HOLES_LAYER_TOP
100
AcDbCircle
 10
80.95
 20
19.0
 30
0.0
 40
1.35
  0
HATCH
  5
25F
100
AcDbEntity
  8
MOUNTING_HOLES_LAYER_TOP
100
AcDbHatch
 10
0.0
 20
0.0
 30
0.0
210
0.0
220
0.0
230
1.0
  2
SOLID
 70
         1
 71
         1
 91
        1
 92
        1
 93
        1
 72
         2
 10
80.950000000000003
 20
19.0
 40
1.3500000000000001
 50
0.0
 51
360.0
 73
         1
 97
        1
330
25E
 75
         0
 76
         1
 98
        1
 10
0.0
 20
0.0
  0
CIRCLE
  5
260
100
AcDbEntity
  8
MOUNTING_HOLES_LAYER_TOP
100
AcDbCircle
 10
74.95
 20
19.0
 30
0.0
 40
1.35
  0
HATCH
  5
261
100
AcDbEntity
  8
MOUNTING_HOLES_LAYER_TOP
100
AcDbHatch
 10
0.0
 20
0.0
 30
0.0
210
0.0
220
0.0
230
1.0
  2
SOLID
 70
         1
 71
         1
 91
        1
 92
        1
 93
        1
 72
         2
 10
74.950000000000003
 20
19.0
 40
1.3500000000000001
 50
0.0
 51
360.0
 73
         1
 97
        1
330
260
 75
         0
 76
         1
 98
        1
 10
0.0
 20
0.0
  0
CIRCLE
  5
262
100
AcDbEntity
  8
MOUNTING_HOLES_LAYER_TOP
100
AcDbCircle
 10
74.95
 20
13.0
 30
0.0
 40
1.35
  0
HATCH
  5
263
100
AcDbEntity
  8
MOUNTING_HOLES_LAYER_TOP
100
AcDbHatch
 10
0.0
 20
0.0
 30
0.0
210
0.0
220
0.0
230
1.0
  2
SOLID
 70
         1
 71
         1
 91
        1
 92
        1
 93
        1
 72
         2
 10
74.950000000000003
 20
13.0
 40
1.3500000000000001
 50
0.0
 51
360.0
 73
         1
 97
        1
330
262
 75
         0
 76
         1
 98
        1
 10
0.0
 20
0.0
  0
CIRCLE
  5
264
100
AcDbEntity
  8
MOUNTING_HOLES_LAYER_TOP
100
AcDbCircle
 10
6.35
 20
19.0
 30
0.0
 40
1.35
  0
HATCH
  5
265
100
AcDbEntity
  8
MOUNTING_HOLES_LAYER_TOP
100
AcDbHatch
 10
0.0
 20
0.0
 30
0.0
210
0.0
220
0.0
230
1.0
  2
SOLID
 70
         1
 71
         1
 91
        1
 92
        1
 93
        1
 72
         2
 10
6.3499999999999996
 20
19.0
 40
1.3500000000000001
 50
0.0
 51
360.0
 73
         1
 97
        1
330
264
 75
         0
 76
         1
 98
        1
 10
0.0
 20
0.0
  0
CIRCLE
  5
266
100
AcDbEntity
  8
MOUNTING_HOLES_LAYER_TOP
100
AcDbCircle
 10
12.35
 20
13.0
 30
0.0
 40
1.35
  0
HATCH
  5
267
100
AcDbEntity
  8
MOUNTING_HOLES_LAYER_TOP
100
AcDbHatch
 10
0.0
 20
0.0
 30
0.0
210
0.0
220
0.0
230
1.0
  2
SOLID
 70
         1
 71
         1
 91
        1
 92
        1
 93
        1
 72
         2
 10
12.35
 20
13.0
 40
1.3500000000000001
 50
0.0
 51
360.0
 73
         1
 97
        1
330
266
 75
         0
 76
         1
 98
        1
 10
0.0
 20
0.0
  0
CIRCLE
  5
268
100
AcDbEntity
  8
MOUNTING_HOLES_LAYER_TOP
100
AcDbCircle
 10
12.35
 20
19.0
 30
0.0
 40
1.35
  0
HATCH
  5
269
100
AcDbEntity
  8
MOUNTING_HOLES_LAYER_TOP
100
AcDbHatch
 10
0.0
 20
0.0
 30
0.0
210
0.0
220
0.0
230
1.0
  2
SOLID
 70
         1
 71
         1
 91
        1
 92
        1
 93
        1
 72
         2
 10
12.35
 20
19.0
 40
1.3500000000000001
 50
0.0
 51
360.0
 73
         1
 97
        1
330
268
 75
         0
 76
         1
 98
        1
 10
0.0
 20
0.0
  0
CIRCLE
  5
26A
100
AcDbEntity
  8
MOUNTING_HOLES_LAYER_TOP
100
AcDbCircle
 10
11.85
 20
27.5
 30
0.0
 40
1.35
  0
HATCH
  5
26B
100
AcDbEntity
  8
MOUNTING_HOLES_LAYER_TOP
100
AcDbHatch
 10
0.0
 20
0.0
 30
0.0
210
0.0
220
0.0
230
1.0
  2
SOLID
 70
         1
 71
         1
 91
        1
 92
        1
 93
        1
 72
         2
 10
11.85
 20
27.5
 40
1.3500000000000001
 50
0.0
 51
360.0
 73
         1
 97
        1
330
26A
 75
         0
 76
         1
 98
        1
 10
0.0
 20
0.0
  0
CIRCLE
  5
26C
100
AcDbEntity
  8
MOUNTING_HOLES_LAYER_TOP
100
AcDbCircle
 10
2.0
 20
92.0
 30
0.0
 40
1.5
  0
HATCH
  5
26D
100
AcDbEntity
  8
MOUNTING_HOLES_LAYER_TOP
100
AcDbHatch
 10
0.0
 20
0.0
 30
0.0
210
0.0
220
0.0
230
1.0
  2
SOLID
 70
         1
 71
         1
 91
        1
 92
        1
 93
        1
 72
         2
 10
2.0
 20
92.0
 40
1.5
 50
0.0
 51
360.0
 73
         1
 97
        1
330
26C
 75
         0
 76
         1
 98
        1
 10
0.0
 20
0.0
  0
CIRCLE
  5
26E
100
AcDbEntity
  8
MOUNTING_HOLES_LAYER_TOP
100
AcDbCircle
 10
2.0
 20
0.0
 30
0.0
 40
1.5
  0
HATCH
  5
26F
100
AcDbEntity
  8
MOUNTING_HOLES_LAYER_TOP
100
AcDbHatch
 10
0.0
 20
0.0
 30
0.0
210
0.0
220
0.0
230
1.0
  2
SOLID
 70
         1
 71
         1
 91
        1
 92
        1
 93
        1
 72
         2
 10
2.0
 20
0.0
 40
1.5
 50
0.0
 51
360.0
 73
         1
 97
        1
330
26E
 75
         0
 76
         1
 98
        1
 10
0.0
 20
0.0
  0
CIRCLE
  5
270
100
AcDbEntity
  8
MOUNTING_HOLES_LAYER_TOP
100
AcDbCircle
 10
3.0
 20
69.0
 30
0.0
 40
1.5
  0
HATCH
  5
271
100
AcDbEntity
  8
MOUNTING_HOLES_LAYER_TOP
100
AcDbHatch
 10
0.0
 20
0.0
 30
0.0
210
0.0
220
0.0
230
1.0
  2
SOLID
 70
         1
 71
         1
 91
        1
 92
        1
 93
        1
 72
         2
 10
3.0
 20
69.0
 40
1.5
 50
0.0
 51
360.0
 73
         1
 97
        1
330
270
 75
         0
 76
         1
 98
        1
 10
0.0
 20
0.0
  0
CIRCLE
  5
272
100
AcDbEntity
  8
MOUNTING_HOLES_LAYER_TOP
100
AcDbCircle
 10
3.0
 20
46.0
 30
0.0
 40
1.5
  0
HATCH
  5
273
100
AcDbEntity
  8
MOUNTING_HOLES_LAYER_TOP
100
AcDbHatch
 10
0.0
 20
0.0
 30
0.0
210
0.0
220
0.0
230
1.0
  2
SOLID
 70
         1
 71
         1
 91
        1
 92
        1
 93
        1
 72
         2
 10
3.0
 20
46.0
 40
1.5
 50
0.0
 51
360.0
 73
         1
 97
        1
330
272
 75
         0
 76
         1
 98
        1
 10
0.0
 20
0.0
  0
CIRCLE
  5
274
100
AcDbEntity
  8
MOUNTING_HOLES_LAYER_TOP
100
AcDbCircle
 10
3.0
 20
23.0
 30
0.0
 40
1.5
  0
HATCH
  5
275
100
AcDbEntity
  8
MOUNTING_HOLES_LAYER_TOP
100
AcDbHatch
 10
0.0
 20
0.0
 30
0.0
210
0.0
220
0.0
230
1.0
  2
SOLID
 70
         1
 71
         1
 91
        1
 92
        1
 93
        1
 72
         2
 10
3.0
 20
23.0
 40
1.5
 50
0.0
 51
360.0
 73
         1
 97
        1
330
274
 75
         0
 76
         1
 98
        1
 10
0.0
 20
0.0
  0
CIRCLE
  5
276
100
AcDbEntity
  8
MOUNTING_HOLES_LAYER_TOP
100
AcDbCircle
 10
179.0
 20
92.0
 30
0.0
 40
1.5
  0
HATCH
  5
277
100
AcDbEntity
  8
MOUNTING_HOLES_LAYER_TOP
100
AcDbHatch
 10
0.0
 20
0.0
 30
0.0
210
0.0
220
0.0
230
1.0
  2
SOLID
 70
         1
 71
         1
 91
        1
 92
        1
 93
        1
 72
         2
 10
179.0
 20
92.0
 40
1.5
 50
0.0
 51
360.0
 73
         1
 97
        1
330
276
 75
         0
 76
         1
 98
        1
 10
0.0
 20
0.0
  0
CIRCLE
  5
278
100
AcDbEntity
  8
MOUNTING_HOLES_LAYER_TOP
100
AcDbCircle
 10
178.0
 20
69.0
 30
0.0
 40
1.5
  0
HATCH
  5
279
100
AcDbEntity
  8
MOUNTING_HOLES_LAYER_TOP
100
AcDbHatch
 10
0.0
 20
0.0
 30
0.0
210
0.0
220
0.0
230
1.0
  2
SOLID
 70
         1
 71
         1
 91
        1
 92
        1
 93
        1
 72
         2
 10
178.0
 20
69.0
 40
1.5
 50
0.0
 51
360.0
 73
         1
 97
        1
330
278
 75
         0
 76
         1
 98
        1
 10
0.0
 20
0.0
  0
CIRCLE
  5
27A
100
AcDbEntity
  8
MOUNTING_HOLES_LAYER_TOP
100
AcDbCircle
 10
178.0
 20
46.0
 30
0.0
 40
1.5
  0
HATCH
  5
27B
100
AcDbEntity
  8
MOUNTING_HOLES_LAYER_TOP
100
AcDbHatch
 10
0.0
 20
0.0
 30
0.0
210
0.0
220
0.0
230
1.0
  2
SOLID
 70
         1
 71
         1
 91
        1
 92
        1
 93
        1
 72
         2
 10
178.0
 20
46.0
 40
1.5
 50
0.0
 51
360.0
 73
         1
 97
        1
330
27A
 75
         0
 76
         1
 98
        1
 10
0.0
 20
0.0
  0
CIRCLE
  5
27C
100
AcDbEntity
  8
MOUNTING_HOLES_LAYER_TOP
100
AcDbCircle
 10
178.0
 20
23.0
 30
0.0
 40
1.5
  0
HATCH
  5
27D
100
AcDbEntity
  8
MOUNTING_HOLES_LAYER_TOP
100
AcDbHatch
 10
0.0
 20
0.0
 30
0.0
210
0.0
220
0.0
230
1.0
  2
SOLID
 70
         1
 71
         1
 91
        1
 92
        1
 93
        1
 72
         2
 10
178.0
 20
23.0
 40
1.5
 50
0.0
 51
360.0
 73
         1
 97
        1
330
27C
 75
         0
 76
         1
 98
        1
 10
0.0
 20
0.0
  0
CIRCLE
  5
27E
100
AcDbEntity
  8
MOUNTING_HOLES_LAYER_TOP
100
AcDbCircle
 10
179.0
 20
0.0
 30
0.0
 40
1.5
  0
HATCH
  5
27F
100
AcDbEntity
  8
MOUNTING_HOLES_LAYER_TOP
100
AcDbHatch
 10
0.0
 20
0.0
 30
0.0
210
0.0
220
0.0
230
1.0
  2
SOLID
 70
         1
 71
         1
 91
        1
 92
        1
 93
        1
 72
         2
 10
179.0
 20
0.0
 40
1.5
 50
0.0
 51
360.0
 73
         1
 97
        1
330
27E
 75
         0
 76
         1
 98
        1
 10
0.0
 20
0.0
  0
CIRCLE
  5
280
100
AcDbEntity
  8
MOUNTING_HOLES_LAYER_TOP
100
AcDbCircle
 10
137.6
 20
84.9
 30
0.0
 40
0.75
  0
HATCH
  5
281
100
AcDbEntity
  8
MOUNTING_HOLES_LAYER_TOP
100
AcDbHatch
 10
0.0
 20
0.0
 30
0.0
210
0.0
220
0.0
230
1.0
  2
SOLID
 70
         1
 71
         1
 91
        1
 92
        1
 93
        1
 72
         2
 10
137.59999999999999
 20
84.900000000000006
 40
0.75
 50
0.0
 51
360.0
 73
         1
 97
        1
330
280
 75
         0
 76
         1
 98
        1
 10
0.0
 20
0.0
  0
CIRCLE
  5
282
100
AcDbEntity
  8
MOUNTING_HOLES_LAYER_TOP
100
AcDbCircle
 10
127.6
 20
84.9
 30
0.0
 40
0.75
  0
HATCH
  5
283
100
AcDbEntity
  8
MOUNTING_HOLES_LAYER_TOP
100
AcDbHatch
 10
0.0
 20
0.0
 30
0.0
210
0.0
220
0.0
230
1.0
  2
SOLID
 70
         1
 71
         1
 91
        1
 92
        1
 93
        1
 72
         2
 10
127.59999999999999
 20
84.900000000000006
 40
0.75
 50
0.0
 51
360.0
 73
         1
 97
        1
330
282
 75
         0
 76
         1
 98
        1
 10
0.0
 20
0.0
  0
CIRCLE
  5
284
100
AcDbEntity
  8
MOUNTING_HOLES_LAYER_TOP
100
AcDbCircle
 10
89.8
 20
65.05
 30
0.0
 40
0.75
  0
HATCH
  5
285
100
AcDbEntity
  8
MOUNTING_HOLES_LAYER_TOP
100
AcDbHatch
 10
0.0
 20
0.0
 30
0.0
210
0.0
220
0.0
230
1.0
  2
SOLID
 70
         1
 71
         1
 91
        1
 92
        1
 93
        1
 72
         2
 10
89.799999999999997
 20
65.049999999999997
 40
0.75
 50
0.0
 51
360.0
 73
         1
 97
        1
330
284
 75
         0
 76
         1
 98
        1
 10
0.0
 20
0.0
  0
CIRCLE
  5
286
100
AcDbEntity
  8
MOUNTING_HOLES_LAYER_TOP
100
AcDbCircle
 10
97.3
 20
65.05
 30
0.0
 40
0.75
  0
HATCH
  5
287
100
AcDbEntity
  8
MOUNTING_HOLES_LAYER_TOP
100
AcDbHatch
 10
0.0
 20
0.0
 30
0.0
210
0.0
220
0.0
230
1.0
  2
SOLID
 70
         1
 71
         1
 91
        1
 92
        1
 93
        1
 72
         2
 10
97.299999999999997
 20
65.049999999999997
 40
0.75
 50
0.0
 51
360.0
 73
         1
 97
        1
330
286
 75
         0
 76
         1
 98
        1
 10
0.0
 20
0.0
  0
CIRCLE
  5
288
100
AcDbEntity
  8
MOUNTING_HOLES_LAYER_TOP
100
AcDbCircle
 10
156.07
 20
85.21
 30
0.0
 40
1.65
  0
HATCH
  5
289
100
AcDbEntity
  8
MOUNTING_HOLES_LAYER_TOP
100
AcDbHatch
 10
0.0
 20
0.0
 30
0.0
210
0.0
220
0.0
230
1.0
  2
SOLID
 70
         1
 71
         1
 91
        1
 92
        1
 93
        1
 72
         2
 10
156.06999999999999
 20
85.209999999999994
 40
1.6499999999999999
 50
0.0
 51
360.0
 73
         1
 97
        1
330
288
 75
         0
 76
         1
 98
        1
 10
0.0
 20
0.0
  0
CIRCLE
  5
28A
100
AcDbEntity
  8
MOUNTING_HOLES_LAYER_TOP
100
AcDbCircle
 10
144.64
 20
85.21
 30
0.0
 40
1.65
  0
HATCH
  5
28B
100
AcDbEntity
  8
MOUNTING_HOLES_LAYER_TOP
100
AcDbHatch
 10
0.0
 20
0.0
 30
0.0
210
0.0
220
0.0
230
1.0
  2
SOLID
 70
         1
 71
         1
 91
        1
 92
        1
 93
        1
 72
         2
 10
144.63999999999999
 20
85.209999999999994
 40
1.6499999999999999
 50
0.0
 51
360.0
 73
         1
 97
        1
330
28A
 75
         0
 76
         1
 98
        1
 10
0.0
 20
0.0
  0
CIRCLE
  5
28C
100
AcDbEntity
  8
MOUNTING_HOLES_LAYER_TOP
100
AcDbCircle
 10
94.65
 20
86.05
 30
0.0
 40
0.8
  0
HATCH
  5
28D
100
AcDbEntity
  8
MOUNTING_HOLES_LAYER_TOP
100
AcDbHatch
 10
0.0
 20
0.0
 30
0.0
210
0.0
220
0.0
230
1.0
  2
SOLID
 70
         1
 71
         1
 91
        1
 92
        1
 93
        1
 72
         2
 10
94.650000000000006
 20
86.049999999999997
 40
0.8
 50
0.0
 51
360.0
 73
         1
 97
        1
330
28C
 75
         0
 76
         1
 98
        1
 10
0.0
 20
0.0
  0
CIRCLE
  5
28E
100
AcDbEntity
  8
MOUNTING_HOLES_LAYER_TOP
100
AcDbCircle
 10
89.65
 20
86.05
 30
0.0
 40
0.8
  0
HATCH
  5
28F
100
AcDbEntity
  8
MOUNTING_HOLES_LAYER_TOP
100
AcDbHatch
 10
0.0
 20
0.0
 30
0.0
210
0.0
220
0.0
230
1.0
  2
SOLID
 70
         1
 71
         1
 91
        1
 92
        1
 93
        1
 72
         2
 10
89.650000000000006
 20
86.049999999999997
 40
0.8
 50
0.0
 51
360.0
 73
         1
 97
        1
330
28E
 75
         0
 76
         1
 98
        1
 10
0.0
 20
0.0
  0
CIRCLE
  5
290
100
AcDbEntity
  8
MOUNTING_HOLES_LAYER_TOP
100
AcDbCircle
 10
10.25
 20
74.501564
 30
0.0
 40
0.55
  0
HATCH
  5
291
100
AcDbEntity
  8
MOUNTING_HOLES_LAYER_TOP
100
AcDbHatch
 10
0.0
 20
0.0
 30
0.0
210
0.0
220
0.0
230
1.0
  2
SOLID
 70
         1
 71
         1
 91
        1
 92
        1
 93
        1
 72
         2
 10
10.25
 20
74.501564000000002
 40
0.55
 50
0.0
 51
360.0
 73
         1
 97
        1
330
290
 75
         0
 76
         1
 98
        1
 10
0.0
 20
0.0
  0
CIRCLE
  5
292
100
AcDbEntity
  8
MOUNTING_HOLES_LAYER_TOP
100
AcDbCircle
 10
77.05
 20
74.501564
 30
0.0
 40
0.8
  0
HATCH
  5
293
100
AcDbEntity
  8
MOUNTING_HOLES_LAYER_TOP
100
AcDbHatch
 10
0.0
 20
0.0
 30
0.0
210
0.0
220
0.0
230
1.0
  2
SOLID
 70
         1
 71
         1
 91
        1
 92
        1
 93
        1
 72
         2
 10
77.049999999999997
 20
74.501564000000002
 40
0.8
 50
0.0
 51
360.0
 73
         1
 97
        1
330
292
 75
         0
 76
         1
 98
        1
 10
0.0
 20
0.0
  0
CIRCLE
  5
294
100
AcDbEntity
  8
MOUNTING_HOLES_LAYER_TOP
100
AcDbCircle
 10
108.4
 20
91.72
 30
0.0
 40
0.65
  0
HATCH
  5
295
100
AcDbEntity
  8
MOUNTING_HOLES_LAYER_TOP
100
AcDbHatch
 10
0.0
 20
0.0
 30
0.0
210
0.0
220
0.0
230
1.0
  2
SOLID
 70
         1
 71
         1
 91
        1
 92
        1
 93
        1
 72
         2
 10
108.40000000000001
 20
91.719999999999999
 40
0.65
 50
0.0
 51
360.0
 73
         1
 97
        1
330
294
 75
         0
 76
         1
 98
        1
 10
0.0
 20
0.0
  0
CIRCLE
  5
296
100
AcDbEntity
  8
MOUNTING_HOLES_LAYER_TOP
100
AcDbCircle
 10
117.4
 20
91.72
 30
0.0
 40
0.65
  0
HATCH
  5
297
100
AcDbEntity
  8
MOUNTING_HOLES_LAYER_TOP
100
AcDbHatch
 10
0.0
 20
0.0
 30
0.0
210
0.0
220
0.0
230
1.0
  2
SOLID
 70
         1
 71
         1
 91
        1
 92
        1
 93
        1
 72
         2
 10
117.40000000000001
 20
91.719999999999999
 40
0.65
 50
0.0
 51
360.0
 73
         1
 97
        1
330
296
 75
         0
 76
         1
 98
        1
 10
0.0
 20
0.0
  0
CIRCLE
  5
298
100
AcDbEntity
  8
PART_HOLES_LAYER_TOP
100
AcDbCircle
 10
160.3
 20
26.4
 30
0.0
 40
0.45
  0
HATCH
  5
299
100
AcDbEntity
  8
PART_HOLES_LAYER_TOP
100
AcDbHatch
 10
0.0
 20
0.0
 30
0.0
210
0.0
220
0.0
230
1.0
  2
SOLID
 70
         1
 71
         1
 91
        1
 92
        1
 93
        1
 72
         2
 10
160.30000000000001
 20
26.399999999999999
 40
0.45
 50
0.0
 51
360.0
 73
         1
 97
        1
330
298
 75
         0
 76
         1
 98
        1
 10
0.0
 20
0.0
  0
CIRCLE
  5
29A
100
AcDbEntity
  8
PART_HOLES_LAYER_TOP
100
AcDbCircle
 10
162.84
 20
26.4
 30
0.0
 40
0.45
  0
HATCH
  5
29B
100
AcDbEntity
  8
PART_HOLES_LAYER_TOP
100
AcDbHatch
 10
0.0
 20
0.0
 30
0.0
210
0.0
220
0.0
230
1.0
  2
SOLID
 70
         1
 71
         1
 91
        1
 92
        1
 93
        1
 72
         2
 10
162.84
 20
26.399999999999999
 40
0.45
 50
0.0
 51
360.0
 73
         1
 97
        1
330
29A
 75
         0
 76
         1
 98
        1
 10
0.0
 20
0.0
  0
CIRCLE
  5
29C
100
AcDbEntity
  8
PART_HOLES_LAYER_TOP
100
AcDbCircle
 10
55.1
 20
89.3
 30
0.0
 40
0.45
  0
HATCH
  5
29D
100
AcDbEntity
  8
PART_HOLES_LAYER_TOP
100
AcDbHatch
 10
0.0
 20
0.0
 30
0.0
210
0.0
220
0.0
230
1.0
  2
SOLID
 70
         1
 71
         1
 91
        1
 92
        1
 93
        1
 72
         2
 10
55.100000000000001
 20
89.299999999999997
 40
0.45
 50
0.0
 51
360.0
 73
         1
 97
        1
330
29C
 75
         0
 76
         1
 98
        1
 10
0.0
 20
0.0
  0
CIRCLE
  5
29E
100
AcDbEntity
  8
PART_HOLES_LAYER_TOP
100
AcDbCircle
 10
57.64
 20
89.3
 30
0.0
 40
0.45
  0
HATCH
  5
29F
100
AcDbEntity
  8
PART_HOLES_LAYER_TOP
100
AcDbHatch
 10
0.0
 20
0.0
 30
0.0
210
0.0
220
0.0
230
1.0
  2
SOLID
 70
         1
 71
         1
 91
        1
 92
        1
 93
        1
 72
         2
 10
57.640000000000001
 20
89.299999999999997
 40
0.45
 50
0.0
 51
360.0
 73
         1
 97
        1
330
29E
 75
         0
 76
         1
 98
        1
 10
0.0
 20
0.0
  0
CIRCLE
  5
2A0
100
AcDbEntity
  8
PART_HOLES_LAYER_TOP
100
AcDbCircle
 10
166.2
 20
91.2
 30
0.0
 40
0.8
  0
HATCH
  5
2A1
100
AcDbEntity
  8
PART_HOLES_LAYER_TOP
100
AcDbHatch
 10
0.0
 20
0.0
 30
0.0
210
0.0
220
0.0
230
1.0
  2
SOLID
 70
         1
 71
         1
 91
        1
 92
        1
 93
        1
 72
         2
 10
166.19999999999999
 20
91.200000000000003
 40
0.8
 50
0.0
 51
360.0
 73
         1
 97
        1
330
2A0
 75
         0
 76
         1
 98
        1
 10
0.0
 20
0.0
  0
CIRCLE
  5
2A2
100
AcDbEntity
  8
PART_HOLES_LAYER_TOP
100
AcDbCircle
 10
166.2
 20
86.7
 30
0.0
 40
0.9
  0
HATCH
  5
2A3
100
AcDbEntity
  8
PART_HOLES_LAYER_TOP
100
AcDbHatch
 10
0.0
 20
0.0
 30
0.0
210
0.0
220
0.0
230
1.0
  2
SOLID
 70
         1
 71
         1
 91
        1
 92
        1
 93
        1
 72
         2
 10
166.19999999999999
 20
86.700000000000003
 40
0.9
 50
0.0
 51
360.0
 73
         1
 97
        1
330
2A2
 75
         0
 76
         1
 98
        1
 10
0.0
 20
0.0
  0
CIRCLE
  5
2A4
100
AcDbEntity
  8
PART_HOLES_LAYER_TOP
100
AcDbCircle
 10
69.85
 20
90.05
 30
0.0
 40
0.45
  0
HATCH
  5
2A5
100
AcDbEntity
  8
PART_HOLES_LAYER_TOP
100
AcDbHatch
 10
0.0
 20
0.0
 30
0.0
210
0.0
220
0.0
230
1.0
  2
SOLID
 70
         1
 71
         1
 91
        1
 92
        1
 93
        1
 72
         2
 10
69.849999999999994
 20
90.049999999999997
 40
0.45
 50
0.0
 51
360.0
 73
         1
 97
        1
330
2A4
 75
         0
 76
         1
 98
        1
 10
0.0
 20
0.0
  0
CIRCLE
  5
2A6
100
AcDbEntity
  8
PART_HOLES_LAYER_TOP
100
AcDbCircle
 10
74.25
 20
90.05
 30
0.0
 40
0.45
  0
HATCH
  5
2A7
100
AcDbEntity
  8
PART_HOLES_LAYER_TOP
100
AcDbHatch
 10
0.0
 20
0.0
 30
0.0
210
0.0
220
0.0
230
1.0
  2
SOLID
 70
         1
 71
         1
 91
        1
 92
        1
 93
        1
 72
         2
 10
74.25
 20
90.049999999999997
 40
0.45
 50
0.0
 51
360.0
 73
         1
 97
        1
330
2A6
 75
         0
 76
         1
 98
        1
 10
0.0
 20
0.0
  0
LWPOLYLINE
  5
2A8
100
AcDbEntity
  8
SOLDERMASK_PADS_TOP
100
AcDbPolyline
 90
        4
 70
         1
 10
66.55
 20
-1.075
 10
66.55
 20
-0.125
 10
67.45
 20
-0.125
 10
67.45
 20
-1.075
  0
LWPOLYLINE
  5
2A9
100
AcDbEntity
  8
SOLDERMASK_PADS_TOP
100
AcDbPolyline
 90
        4
 70
         1
 10
68.15
 20
-1.075
 10
68.15
 20
-0.125
 10
69.05
 20
-0.125
 10
69.05
 20
-1.075
  0
LWPOLYLINE
  5
2AA
100
AcDbEntity
  8
SOLDERMASK_PADS_TOP
100
AcDbPolyline
 90
        4
 70
         1
 10
112.1
 20
5.825
 10
112.1
 20
6.775
 10
113.1
 20
6.775
 10
113.1
 20
5.825
  0
LWPOLYLINE
  5
2AB
100
AcDbEntity
  8
SOLDERMASK_PADS_TOP
100
AcDbPolyline
 90
        4
 70
         1
 10
112.1
 20
4.225
 10
112.1
 20
5.175
 10
113.1
 20
5.175
 10
113.1
 20
4.225
  0
LWPOLYLINE
  5
2AC
100
AcDbEntity
  8
SOLDERMASK_PADS_TOP
100
AcDbPolyline
 90
        4
 70
         1
 10
112.425
 20
75.75
 42
-1.0
 10
112.425
 20
75.15
 10
111.775
 20
75.15
 42
-1.0
 10
111.775
 20
75.75
  0
LWPOLYLINE
  5
2AD
100
AcDbEntity
  8
SOLDERMASK_PADS_TOP
100
AcDbPolyline
 90
        4
 70
         1
 10
112.425
 20
73.85
 42
-1.0
 10
112.425
 20
73.25
 10
111.775
 20
73.25
 42
-1.0
 10
111.775
 20
73.85
  0
LWPOLYLINE
  5
2AE
100
AcDbEntity
  8
SOLDERMASK_PADS_TOP
100
AcDbPolyline
 90
        4
 70
         1
 10
114.425
 20
74.8
 42
-1.0
 10
114.425
 20
74.2
 10
113.775
 20
74.2
 42
-1.0
 10
113.775
 20
74.8
  0
LWPOLYLINE
  5
2AF
100
AcDbEntity
  8
SOLDERMASK_PADS_TOP
100
AcDbPolyline
 90
        4
 70
         1
 10
95.625
 20
22.8
 10
95.625
 20
23.8
 10
96.575
 20
23.8
 10
96.575
 20
22.8
  0
LWPOLYLINE
  5
2B0
100
AcDbEntity
  8
SOLDERMASK_PADS_TOP
100
AcDbPolyline
 90
        4
 70
         1
 10
97.225
 20
22.8
 10
97.225
 20
23.8
 10
98.175
 20
23.8
 10
98.175
 20
22.8
  0
CIRCLE
  5
2B1
100
AcDbEntity
  8
SOLDERMASK_PADS_TOP
100
AcDbCircle
 10
6.002482
 20
2.198188
 30
0.0
 40
0.5
  0
LWPOLYLINE
  5
2B2
100
AcDbEntity
  8
SOLDERMASK_PADS_TOP
100
AcDbPolyline
 90
        4
 70
         1
 10
132.75
 20
78.925
 10
132.75
 20
79.875
 10
133.65
 20
79.875
 10
133.65
 20
78.925
  0
LWPOLYLINE
  5
2B3
100
AcDbEntity
  8
SOLDERMASK_PADS_TOP
100
AcDbPolyline
 90
        4
 70
         1
 10
134.35
 20
78.925
 10
134.35
 20
79.875
 10
135.25
 20
79.875
 10
135.25
 20
78.925
  0
LWPOLYLINE
  5
2B4
100
AcDbEntity
  8
SOLDERMASK_PADS_TOP
100
AcDbPolyline
 90
        4
 70
         1
 10
116.425
 20
75.75
 42
-1.0
 10
116.425
 20
75.15
 10
115.775
 20
75.15
 42
-1.0
 10
115.775
 20
75.75
  0
LWPOLYLINE
  5
2B5
100
AcDbEntity
  8
SOLDERMASK_PADS_TOP
100
AcDbPolyline
 90
        4
 70
         1
 10
116.425
 20
73.85
 42
-1.0
 10
116.425
 20
73.25
 10
115.775
 20
73.25
 42
-1.0
 10
115.775
 20
73.85
  0
LWPOLYLINE
  5
2B6
100
AcDbEntity
  8
SOLDERMASK_PADS_TOP
100
AcDbPolyline
 90
        4
 70
         1
 10
118.425
 20
74.8
 42
-1.0
 10
118.425
 20
74.2
 10
117.775
 20
74.2
 42
-1.0
 10
117.775
 20
74.8
  0
LWPOLYLINE
  5
2B7
100
AcDbEntity
  8
SOLDERMASK_PADS_TOP
100
AcDbPolyline
 90
        4
 70
         1
 10
165.125
 20
25.9
 10
165.125
 20
26.9
 10
166.075
 20
26.9
 10
166.075
 20
25.9
  0
LWPOLYLINE
  5
2B8
100
AcDbEntity
  8
SOLDERMASK_PADS_TOP
100
AcDbPolyline
 90
        4
 70
         1
 10
166.725
 20
25.9
 10
166.725
 20
26.9
 10
167.675
 20
26.9
 10
167.675
 20
25.9
  0
LWPOLYLINE
  5
2B9
100
AcDbEntity
  8
SOLDERMASK_PADS_TOP
100
AcDbPolyline
 90
        4
 70
         1
 10
114.325
 20
77.2
 10
114.325
 20
78.2
 10
115.275
 20
78.2
 10
115.275
 20
77.2
  0
LWPOLYLINE
  5
2BA
100
AcDbEntity
  8
SOLDERMASK_PADS_TOP
100
AcDbPolyline
 90
        4
 70
         1
 10
112.725
 20
77.2
 10
112.725
 20
78.2
 10
113.675
 20
78.2
 10
113.675
 20
77.2
  0
LWPOLYLINE
  5
2BB
100
AcDbEntity
  8
SOLDERMASK_PADS_TOP
100
AcDbPolyline
 90
        4
 70
         1
 10
169.0
 20
45.825
 10
169.0
 20
46.775
 10
170.0
 20
46.775
 10
170.0
 20
45.825
  0
LWPOLYLINE
  5
2BC
100
AcDbEntity
  8
SOLDERMASK_PADS_TOP
100
AcDbPolyline
 90
        4
 70
         1
 10
169.0
 20
44.225
 10
169.0
 20
45.175
 10
170.0
 20
45.175
 10
170.0
 20
44.225
  0
LWPOLYLINE
  5
2BD
100
AcDbEntity
  8
SOLDERMASK_PADS_TOP
100
AcDbPolyline
 90
        4
 70
         1
 10
131.5
 20
77.125
 10
131.5
 20
78.075
 10
132.5
 20
78.075
 10
132.5
 20
77.125
  0
LWPOLYLINE
  5
2BE
100
AcDbEntity
  8
SOLDERMASK_PADS_TOP
100
AcDbPolyline
 90
        4
 70
         1
 10
131.5
 20
75.525
 10
131.5
 20
76.475
 10
132.5
 20
76.475
 10
132.5
 20
75.525
  0
LWPOLYLINE
  5
2BF
100
AcDbEntity
  8
SOLDERMASK_PADS_TOP
100
AcDbPolyline
 90
        4
 70
         1
 10
95.625
 20
24.8
 10
95.625
 20
25.8
 10
96.575
 20
25.8
 10
96.575
 20
24.8
  0
LWPOLYLINE
  5
2C0
100
AcDbEntity
  8
SOLDERMASK_PADS_TOP
100
AcDbPolyline
 90
        4
 70
         1
 10
97.225
 20
24.8
 10
97.225
 20
25.8
 10
98.175
 20
25.8
 10
98.175
 20
24.8
  0
LWPOLYLINE
  5
2C1
100
AcDbEntity
  8
SOLDERMASK_PADS_TOP
100
AcDbPolyline
 90
        4
 70
         1
 10
115.925
 20
77.2
 10
115.925
 20
78.2
 10
116.875
 20
78.2
 10
116.875
 20
77.2
  0
LWPOLYLINE
  5
2C2
100
AcDbEntity
  8
SOLDERMASK_PADS_TOP
100
AcDbPolyline
 90
        4
 70
         1
 10
117.525
 20
77.2
 10
117.525
 20
78.2
 10
118.475
 20
78.2
 10
118.475
 20
77.2
  0
LWPOLYLINE
  5
2C3
100
AcDbEntity
  8
SOLDERMASK_PADS_TOP
100
AcDbPolyline
 90
        4
 70
         1
 10
170.6
 20
45.325
 10
170.6
 20
46.275
 10
171.6
 20
46.275
 10
171.6
 20
45.325
  0
LWPOLYLINE
  5
2C4
100
AcDbEntity
  8
SOLDERMASK_PADS_TOP
100
AcDbPolyline
 90
        4
 70
         1
 10
170.6
 20
46.925
 10
170.6
 20
47.875
 10
171.6
 20
47.875
 10
171.6
 20
46.925
  0
LWPOLYLINE
  5
2C5
100
AcDbEntity
  8
SOLDERMASK_PADS_TOP
100
AcDbPolyline
 90
        4
 70
         1
 10
109.55
 20
63.6
 42
-1.0
 10
110.45
 20
63.6
 10
110.45
 20
61.5
 42
-1.0
 10
109.55
 20
61.5
  0
LWPOLYLINE
  5
2C6
100
AcDbEntity
  8
SOLDERMASK_PADS_TOP
100
AcDbPolyline
 90
        4
 70
         1
 10
109.55
 20
67.8
 42
-1.0
 10
110.45
 20
67.8
 10
110.45
 20
65.7
 42
-1.0
 10
109.55
 20
65.7
  0
LWPOLYLINE
  5
2C7
100
AcDbEntity
  8
SOLDERMASK_PADS_TOP
100
AcDbPolyline
 90
        4
 70
         1
 10
111.55
 20
63.6
 42
-1.0
 10
112.45
 20
63.6
 10
112.45
 20
61.5
 42
-1.0
 10
111.55
 20
61.5
  0
LWPOLYLINE
  5
2C8
100
AcDbEntity
  8
SOLDERMASK_PADS_TOP
100
AcDbPolyline
 90
        4
 70
         1
 10
111.55
 20
67.8
 42
-1.0
 10
112.45
 20
67.8
 10
112.45
 20
65.7
 42
-1.0
 10
111.55
 20
65.7
  0
LWPOLYLINE
  5
2C9
100
AcDbEntity
  8
SOLDERMASK_PADS_TOP
100
AcDbPolyline
 90
        4
 70
         1
 10
113.55
 20
63.6
 42
-1.0
 10
114.45
 20
63.6
 10
114.45
 20
61.5
 42
-1.0
 10
113.55
 20
61.5
  0
LWPOLYLINE
  5
2CA
100
AcDbEntity
  8
SOLDERMASK_PADS_TOP
100
AcDbPolyline
 90
        4
 70
         1
 10
113.55
 20
67.8
 42
-1.0
 10
114.45
 20
67.8
 10
114.45
 20
65.7
 42
-1.0
 10
113.55
 20
65.7
  0
LWPOLYLINE
  5
2CB
100
AcDbEntity
  8
SOLDERMASK_PADS_TOP
100
AcDbPolyline
 90
        4
 70
         1
 10
115.55
 20
63.6
 42
-1.0
 10
116.45
 20
63.6
 10
116.45
 20
61.5
 42
-1.0
 10
115.55
 20
61.5
  0
LWPOLYLINE
  5
2CC
100
AcDbEntity
  8
SOLDERMASK_PADS_TOP
100
AcDbPolyline
 90
        4
 70
         1
 10
115.55
 20
67.8
 42
-1.0
 10
116.45
 20
67.8
 10
116.45
 20
65.7
 42
-1.0
 10
115.55
 20
65.7
  0
LWPOLYLINE
  5
2CD
100
AcDbEntity
  8
SOLDERMASK_PADS_TOP
100
AcDbPolyline
 90
        4
 70
         1
 10
117.55
 20
63.6
 42
-1.0
 10
118.45
 20
63.6
 10
118.45
 20
61.5
 42
-1.0
 10
117.55
 20
61.5
  0
LWPOLYLINE
  5
2CE
100
AcDbEntity
  8
SOLDERMASK_PADS_TOP
100
AcDbPolyline
 90
        4
 70
         1
 10
117.55
 20
67.8
 42
-1.0
 10
118.45
 20
67.8
 10
118.45
 20
65.7
 42
-1.0
 10
117.55
 20
65.7
  0
LWPOLYLINE
  5
2CF
100
AcDbEntity
  8
SOLDERMASK_PADS_TOP
100
AcDbPolyline
 90
        4
 70
         1
 10
119.55
 20
63.6
 42
-1.0
 10
120.45
 20
63.6
 10
120.45
 20
61.5
 42
-1.0
 10
119.55
 20
61.5
  0
LWPOLYLINE
  5
2D0
100
AcDbEntity
  8
SOLDERMASK_PADS_TOP
100
AcDbPolyline
 90
        4
 70
         1
 10
119.55
 20
67.8
 42
-1.0
 10
120.45
 20
67.8
 10
120.45
 20
65.7
 42
-1.0
 10
119.55
 20
65.7
  0
LWPOLYLINE
  5
2D1
100
AcDbEntity
  8
SOLDERMASK_PADS_TOP
100
AcDbPolyline
 90
        4
 70
         1
 10
121.55
 20
63.6
 42
-1.0
 10
122.45
 20
63.6
 10
122.45
 20
61.5
 42
-1.0
 10
121.55
 20
61.5
  0
LWPOLYLINE
  5
2D2
100
AcDbEntity
  8
SOLDERMASK_PADS_TOP
100
AcDbPolyline
 90
        4
 70
         1
 10
121.55
 20
67.8
 42
-1.0
 10
122.45
 20
67.8
 10
122.45
 20
65.7
 42
-1.0
 10
121.55
 20
65.7
  0
LWPOLYLINE
  5
2D3
100
AcDbEntity
  8
SOLDERMASK_PADS_TOP
100
AcDbPolyline
 90
        4
 70
         1
 10
123.55
 20
63.6
 42
-1.0
 10
124.45
 20
63.6
 10
124.45
 20
61.5
 42
-1.0
 10
123.55
 20
61.5
  0
LWPOLYLINE
  5
2D4
100
AcDbEntity
  8
SOLDERMASK_PADS_TOP
100
AcDbPolyline
 90
        4
 70
         1
 10
123.55
 20
67.8
 42
-1.0
 10
124.45
 20
67.8
 10
124.45
 20
65.7
 42
-1.0
 10
123.55
 20
65.7
  0
LWPOLYLINE
  5
2D5
100
AcDbEntity
  8
SOLDERMASK_PADS_TOP
100
AcDbPolyline
 90
        4
 70
         1
 10
125.55
 20
63.6
 42
-1.0
 10
126.45
 20
63.6
 10
126.45
 20
61.5
 42
-1.0
 10
125.55
 20
61.5
  0
LWPOLYLINE
  5
2D6
100
AcDbEntity
  8
SOLDERMASK_PADS_TOP
100
AcDbPolyline
 90
        4
 70
         1
 10
125.55
 20
67.8
 42
-1.0
 10
126.45
 20
67.8
 10
126.45
 20
65.7
 42
-1.0
 10
125.55
 20
65.7
  0
LWPOLYLINE
  5
2D7
100
AcDbEntity
  8
SOLDERMASK_PADS_TOP
100
AcDbPolyline
 90
        4
 70
         1
 10
127.55
 20
63.6
 42
-1.0
 10
128.45
 20
63.6
 10
128.45
 20
61.5
 42
-1.0
 10
127.55
 20
61.5
  0
LWPOLYLINE
  5
2D8
100
AcDbEntity
  8
SOLDERMASK_PADS_TOP
100
AcDbPolyline
 90
        4
 70
         1
 10
127.55
 20
67.8
 42
-1.0
 10
128.45
 20
67.8
 10
128.45
 20
65.7
 42
-1.0
 10
127.55
 20
65.7
  0
LWPOLYLINE
  5
2D9
100
AcDbEntity
  8
SOLDERMASK_PADS_TOP
100
AcDbPolyline
 90
        4
 70
         1
 10
95.625
 20
28.5
 10
95.625
 20
29.5
 10
96.575
 20
29.5
 10
96.575
 20
28.5
  0
LWPOLYLINE
  5
2DA
100
AcDbEntity
  8
SOLDERMASK_PADS_TOP
100
AcDbPolyline
 90
        4
 70
         1
 10
97.225
 20
28.5
 10
97.225
 20
29.5
 10
98.175
 20
29.5
 10
98.175
 20
28.5
  0
LWPOLYLINE
  5
2DB
100
AcDbEntity
  8
SOLDERMASK_PADS_TOP
100
AcDbPolyline
 90
        4
 70
         1
 10
127.0
 20
77.125
 10
127.0
 20
78.075
 10
128.0
 20
78.075
 10
128.0
 20
77.125
  0
LWPOLYLINE
  5
2DC
100
AcDbEntity
  8
SOLDERMASK_PADS_TOP
100
AcDbPolyline
 90
        4
 70
         1
 10
127.0
 20
75.525
 10
127.0
 20
76.475
 10
128.0
 20
76.475
 10
128.0
 20
75.525
  0
LWPOLYLINE
  5
2DD
100
AcDbEntity
  8
SOLDERMASK_PADS_TOP
100
AcDbPolyline
 90
        4
 70
         1
 10
170.6
 20
42.125
 10
170.6
 20
43.075
 10
171.6
 20
43.075
 10
171.6
 20
42.125
  0
LWPOLYLINE
  5
2DE
100
AcDbEntity
  8
SOLDERMASK_PADS_TOP
100
AcDbPolyline
 90
        4
 70
         1
 10
170.6
 20
43.725
 10
170.6
 20
44.675
 10
171.6
 20
44.675
 10
171.6
 20
43.725
  0
LWPOLYLINE
  5
2DF
100
AcDbEntity
  8
SOLDERMASK_PADS_TOP
100
AcDbPolyline
 90
        4
 70
         1
 10
130.1
 20
77.125
 10
130.1
 20
78.075
 10
131.1
 20
78.075
 10
131.1
 20
77.125
  0
LWPOLYLINE
  5
2E0
100
AcDbEntity
  8
SOLDERMASK_PADS_TOP
100
AcDbPolyline
 90
        4
 70
         1
 10
130.1
 20
75.525
 10
130.1
 20
76.475
 10
131.1
 20
76.475
 10
131.1
 20
75.525
  0
LWPOLYLINE
  5
2E1
100
AcDbEntity
  8
SOLDERMASK_PADS_TOP
100
AcDbPolyline
 90
        4
 70
         1
 10
91.925
 20
22.8
 10
91.925
 20
23.8
 10
92.875
 20
23.8
 10
92.875
 20
22.8
  0
LWPOLYLINE
  5
2E2
100
AcDbEntity
  8
SOLDERMASK_PADS_TOP
100
AcDbPolyline
 90
        4
 70
         1
 10
93.525
 20
22.8
 10
93.525
 20
23.8
 10
94.475
 20
23.8
 10
94.475
 20
22.8
  0
LWPOLYLINE
  5
2E3
100
AcDbEntity
  8
SOLDERMASK_PADS_TOP
100
AcDbPolyline
 90
        4
 70
         1
 10
147.7
 20
36.975
 10
147.7
 20
38.225
 10
149.5
 20
38.225
 10
149.5
 20
36.975
  0
LWPOLYLINE
  5
2E4
100
AcDbEntity
  8
SOLDERMASK_PADS_TOP
100
AcDbPolyline
 90
        4
 70
         1
 10
147.7
 20
42.575
 10
147.7
 20
43.825
 10
149.5
 20
43.825
 10
149.5
 20
42.575
  0
LWPOLYLINE
  5
2E5
100
AcDbEntity
  8
SOLDERMASK_PADS_TOP
100
AcDbPolyline
 90
        4
 70
         1
 10
145.25
 20
42.2
 42
-1.0
 10
145.25
 20
41.6
 10
144.35
 20
41.6
 42
-1.0
 10
144.35
 20
42.2
  0
LWPOLYLINE
  5
2E6
100
AcDbEntity
  8
SOLDERMASK_PADS_TOP
100
AcDbPolyline
 90
        4
 70
         1
 10
145.25
 20
41.2
 42
-1.0
 10
145.25
 20
40.6
 10
144.35
 20
40.6
 42
-1.0
 10
144.35
 20
41.2
  0
LWPOLYLINE
  5
2E7
100
AcDbEntity
  8
SOLDERMASK_PADS_TOP
100
AcDbPolyline
 90
        4
 70
         1
 10
145.25
 20
40.2
 42
-1.0
 10
145.25
 20
39.6
 10
144.35
 20
39.6
 42
-1.0
 10
144.35
 20
40.2
  0
LWPOLYLINE
  5
2E8
100
AcDbEntity
  8
SOLDERMASK_PADS_TOP
100
AcDbPolyline
 90
        4
 70
         1
 10
145.25
 20
39.2
 42
-1.0
 10
145.25
 20
38.6
 10
144.35
 20
38.6
 42
-1.0
 10
144.35
 20
39.2
  0
LWPOLYLINE
  5
2E9
100
AcDbEntity
  8
SOLDERMASK_PADS_TOP
100
AcDbPolyline
 90
        4
 70
         1
 10
170.175
 20
39.525
 10
170.175
 20
40.675
 10
171.625
 20
40.675
 10
171.625
 20
39.525
  0
LWPOLYLINE
  5
2EA
100
AcDbEntity
  8
SOLDERMASK_PADS_TOP
100
AcDbPolyline
 90
        4
 70
         1
 10
170.175
 20
37.725
 10
170.175
 20
38.875
 10
171.625
 20
38.875
 10
171.625
 20
37.725
  0
LWPOLYLINE
  5
2EB
100
AcDbEntity
  8
SOLDERMASK_PADS_TOP
100
AcDbPolyline
 90
        4
 70
         1
 10
124.7
 20
88.7
 10
124.7
 20
90.7
 10
125.9
 20
90.7
 10
125.9
 20
88.7
  0
LWPOLYLINE
  5
2EC
100
AcDbEntity
  8
SOLDERMASK_PADS_TOP
100
AcDbPolyline
 90
        4
 70
         1
 10
139.3
 20
88.7
 10
139.3
 20
90.7
 10
140.5
 20
90.7
 10
140.5
 20
88.7
  0
LWPOLYLINE
  5
2ED
100
AcDbEntity
  8
SOLDERMASK_PADS_TOP
100
AcDbPolyline
 90
        4
 70
         1
 10
137.7
 20
81.15
 42
-1.0
 10
137.0
 20
81.15
 10
137.0
 20
82.45
 42
-1.0
 10
137.7
 20
82.45
  0
LWPOLYLINE
  5
2EE
100
AcDbEntity
  8
SOLDERMASK_PADS_TOP
100
AcDbPolyline
 90
        4
 70
         1
 10
136.6
 20
81.15
 42
-1.0
 10
135.9
 20
81.15
 10
135.9
 20
82.45
 42
-1.0
 10
136.6
 20
82.45
  0
LWPOLYLINE
  5
2EF
100
AcDbEntity
  8
SOLDERMASK_PADS_TOP
100
AcDbPolyline
 90
        4
 70
         1
 10
135.5
 20
81.15
 42
-1.0
 10
134.8
 20
81.15
 10
134.8
 20
82.45
 42
-1.0
 10
135.5
 20
82.45
  0
LWPOLYLINE
  5
2F0
100
AcDbEntity
  8
SOLDERMASK_PADS_TOP
100
AcDbPolyline
 90
        4
 70
         1
 10
134.4
 20
81.15
 42
-1.0
 10
133.7
 20
81.15
 10
133.7
 20
82.45
 42
-1.0
 10
134.4
 20
82.45
  0
LWPOLYLINE
  5
2F1
100
AcDbEntity
  8
SOLDERMASK_PADS_TOP
100
AcDbPolyline
 90
        4
 70
         1
 10
133.3
 20
81.15
 42
-1.0
 10
132.6
 20
81.15
 10
132.6
 20
82.45
 42
-1.0
 10
133.3
 20
82.45
  0
LWPOLYLINE
  5
2F2
100
AcDbEntity
  8
SOLDERMASK_PADS_TOP
100
AcDbPolyline
 90
        4
 70
         1
 10
132.2
 20
81.15
 42
-1.0
 10
131.5
 20
81.15
 10
131.5
 20
82.45
 42
-1.0
 10
132.2
 20
82.45
  0
LWPOLYLINE
  5
2F3
100
AcDbEntity
  8
SOLDERMASK_PADS_TOP
100
AcDbPolyline
 90
        4
 70
         1
 10
131.1
 20
81.15
 42
-1.0
 10
130.4
 20
81.15
 10
130.4
 20
82.45
 42
-1.0
 10
131.1
 20
82.45
  0
LWPOLYLINE
  5
2F4
100
AcDbEntity
  8
SOLDERMASK_PADS_TOP
100
AcDbPolyline
 90
        4
 70
         1
 10
130.0
 20
81.15
 42
-1.0
 10
129.3
 20
81.15
 10
129.3
 20
82.45
 42
-1.0
 10
130.0
 20
82.45
  0
LWPOLYLINE
  5
2F5
100
AcDbEntity
  8
SOLDERMASK_PADS_TOP
100
AcDbPolyline
 90
        4
 70
         1
 10
128.825
 20
81.225
 42
-1.0
 10
127.975
 20
81.225
 10
127.975
 20
82.375
 42
-1.0
 10
128.825
 20
82.375
  0
LWPOLYLINE
  5
2F6
100
AcDbEntity
  8
SOLDERMASK_PADS_TOP
100
AcDbPolyline
 90
        4
 70
         1
 10
127.575
 20
81.225
 42
-1.0
 10
126.725
 20
81.225
 10
126.725
 20
82.375
 42
-1.0
 10
127.575
 20
82.375
  0
LWPOLYLINE
  5
2F7
100
AcDbEntity
  8
SOLDERMASK_PADS_TOP
100
AcDbPolyline
 90
        4
 70
         1
 10
91.925
 20
24.8
 10
91.925
 20
25.8
 10
92.875
 20
25.8
 10
92.875
 20
24.8
  0
LWPOLYLINE
  5
2F8
100
AcDbEntity
  8
SOLDERMASK_PADS_TOP
100
AcDbPolyline
 90
        4
 70
         1
 10
93.525
 20
24.8
 10
93.525
 20
25.8
 10
94.475
 20
25.8
 10
94.475
 20
24.8
  0
LWPOLYLINE
  5
2F9
100
AcDbEntity
  8
SOLDERMASK_PADS_TOP
100
AcDbPolyline
 90
        4
 70
         1
 10
137.0
 20
77.125
 10
137.0
 20
78.075
 10
138.0
 20
78.075
 10
138.0
 20
77.125
  0
LWPOLYLINE
  5
2FA
100
AcDbEntity
  8
SOLDERMASK_PADS_TOP
100
AcDbPolyline
 90
        4
 70
         1
 10
137.0
 20
75.525
 10
137.0
 20
76.475
 10
138.0
 20
76.475
 10
138.0
 20
75.525
  0
LWPOLYLINE
  5
2FB
100
AcDbEntity
  8
SOLDERMASK_PADS_TOP
100
AcDbPolyline
 90
        4
 70
         1
 10
168.275
 20
39.525
 10
168.275
 20
40.675
 10
169.725
 20
40.675
 10
169.725
 20
39.525
  0
LWPOLYLINE
  5
2FC
100
AcDbEntity
  8
SOLDERMASK_PADS_TOP
100
AcDbPolyline
 90
        4
 70
         1
 10
168.275
 20
37.725
 10
168.275
 20
38.875
 10
169.725
 20
38.875
 10
169.725
 20
37.725
  0
LWPOLYLINE
  5
2FD
100
AcDbEntity
  8
SOLDERMASK_PADS_TOP
100
AcDbPolyline
 90
        4
 70
         1
 10
128.7
 20
77.125
 10
128.7
 20
78.075
 10
129.7
 20
78.075
 10
129.7
 20
77.125
  0
LWPOLYLINE
  5
2FE
100
AcDbEntity
  8
SOLDERMASK_PADS_TOP
100
AcDbPolyline
 90
        4
 70
         1
 10
128.7
 20
75.525
 10
128.7
 20
76.475
 10
129.7
 20
76.475
 10
129.7
 20
75.525
  0
LWPOLYLINE
  5
2FF
100
AcDbEntity
  8
SOLDERMASK_PADS_TOP
100
AcDbPolyline
 90
        4
 70
         1
 10
91.925
 20
26.7
 10
91.925
 20
27.7
 10
92.875
 20
27.7
 10
92.875
 20
26.7
  0
LWPOLYLINE
  5
300
100
AcDbEntity
  8
SOLDERMASK_PADS_TOP
100
AcDbPolyline
 90
        4
 70
         1
 10
93.525
 20
26.7
 10
93.525
 20
27.7
 10
94.475
 20
27.7
 10
94.475
 20
26.7
  0
LWPOLYLINE
  5
301
100
AcDbEntity
  8
SOLDERMASK_PADS_TOP
100
AcDbPolyline
 90
        4
 70
         1
 10
109.925
 20
10.5
 10
109.925
 20
11.5
 10
110.875
 20
11.5
 10
110.875
 20
10.5
  0
LWPOLYLINE
  5
302
100
AcDbEntity
  8
SOLDERMASK_PADS_TOP
100
AcDbPolyline
 90
        4
 70
         1
 10
108.325
 20
10.5
 10
108.325
 20
11.5
 10
109.275
 20
11.5
 10
109.275
 20
10.5
  0
LWPOLYLINE
  5
303
100
AcDbEntity
  8
SOLDERMASK_PADS_TOP
100
AcDbPolyline
 90
        4
 70
         1
 10
162.15
 20
40.35
 10
162.15
 20
42.25
 10
167.45
 20
42.25
 10
167.45
 20
40.35
  0
LWPOLYLINE
  5
304
100
AcDbEntity
  8
SOLDERMASK_PADS_TOP
100
AcDbPolyline
 90
        4
 70
         1
 10
162.15
 20
36.95
 10
162.15
 20
38.85
 10
167.45
 20
38.85
 10
167.45
 20
36.95
  0
LWPOLYLINE
  5
305
100
AcDbEntity
  8
SOLDERMASK_PADS_TOP
100
AcDbPolyline
 90
        4
 70
         1
 10
135.6
 20
77.125
 10
135.6
 20
78.075
 10
136.6
 20
78.075
 10
136.6
 20
77.125
  0
LWPOLYLINE
  5
306
100
AcDbEntity
  8
SOLDERMASK_PADS_TOP
100
AcDbPolyline
 90
        4
 70
         1
 10
135.6
 20
75.525
 10
135.6
 20
76.475
 10
136.6
 20
76.475
 10
136.6
 20
75.525
  0
LWPOLYLINE
  5
307
100
AcDbEntity
  8
SOLDERMASK_PADS_TOP
100
AcDbPolyline
 90
        4
 70
         1
 10
91.925
 20
28.5
 10
91.925
 20
29.5
 10
92.875
 20
29.5
 10
92.875
 20
28.5
  0
LWPOLYLINE
  5
308
100
AcDbEntity
  8
SOLDERMASK_PADS_TOP
100
AcDbPolyline
 90
        4
 70
         1
 10
93.525
 20
28.5
 10
93.525
 20
29.5
 10
94.475
 20
29.5
 10
94.475
 20
28.5
  0
LWPOLYLINE
  5
309
100
AcDbEntity
  8
SOLDERMASK_PADS_TOP
100
AcDbPolyline
 90
        4
 70
         1
 10
112.1
 20
9.025
 10
112.1
 20
9.975
 10
113.1
 20
9.975
 10
113.1
 20
9.025
  0
LWPOLYLINE
  5
30A
100
AcDbEntity
  8
SOLDERMASK_PADS_TOP
100
AcDbPolyline
 90
        4
 70
         1
 10
112.1
 20
7.425
 10
112.1
 20
8.375
 10
113.1
 20
8.375
 10
113.1
 20
7.425
  0
LWPOLYLINE
  5
30B
100
AcDbEntity
  8
SOLDERMASK_PADS_TOP
100
AcDbPolyline
 90
        4
 70
         1
 10
162.725
 20
45.55
 10
162.725
 20
46.45
 10
163.675
 20
46.45
 10
163.675
 20
45.55
  0
LWPOLYLINE
  5
30C
100
AcDbEntity
  8
SOLDERMASK_PADS_TOP
100
AcDbPolyline
 90
        4
 70
         1
 10
162.725
 20
43.95
 10
162.725
 20
44.85
 10
163.675
 20
44.85
 10
163.675
 20
43.95
  0
LWPOLYLINE
  5
30D
100
AcDbEntity
  8
SOLDERMASK_PADS_TOP
100
AcDbPolyline
 90
        4
 70
         1
 10
47.5
 20
10.225
 10
47.5
 20
11.175
 10
48.5
 20
11.175
 10
48.5
 20
10.225
  0
LWPOLYLINE
  5
30E
100
AcDbEntity
  8
SOLDERMASK_PADS_TOP
100
AcDbPolyline
 90
        4
 70
         1
 10
47.5
 20
8.625
 10
47.5
 20
9.575
 10
48.5
 20
9.575
 10
48.5
 20
8.625
  0
LWPOLYLINE
  5
30F
100
AcDbEntity
  8
SOLDERMASK_PADS_TOP
100
AcDbPolyline
 90
        4
 70
         1
 10
159.6
 20
25.7
 10
159.6
 20
27.1
 10
161.0
 20
27.1
 10
161.0
 20
25.7
  0
CIRCLE
  5
310
100
AcDbEntity
  8
SOLDERMASK_PADS_TOP
100
AcDbCircle
 10
162.84
 20
26.4
 30
0.0
 40
0.7
  0
LWPOLYLINE
  5
311
100
AcDbEntity
  8
SOLDERMASK_PADS_TOP
100
AcDbPolyline
 90
        4
 70
         1
 10
164.6
 20
43.8
 10
164.6
 20
45.6
 10
167.2
 20
45.6
 10
167.2
 20
43.8
  0
LWPOLYLINE
  5
312
100
AcDbEntity
  8
SOLDERMASK_PADS_TOP
100
AcDbPolyline
 90
        4
 70
         1
 10
166.25
 20
46.375
 42
-1.0
 10
166.55
 20
46.375
 10
166.55
 20
46.025
 42
-1.0
 10
166.25
 20
46.025
  0
LWPOLYLINE
  5
313
100
AcDbEntity
  8
SOLDERMASK_PADS_TOP
100
AcDbPolyline
 90
        4
 70
         1
 10
165.75
 20
46.375
 42
-1.0
 10
166.05
 20
46.375
 10
166.05
 20
46.025
 42
-1.0
 10
165.75
 20
46.025
  0
LWPOLYLINE
  5
314
100
AcDbEntity
  8
SOLDERMASK_PADS_TOP
100
AcDbPolyline
 90
        4
 70
         1
 10
165.25
 20
46.375
 42
-1.0
 10
165.55
 20
46.375
 10
165.55
 20
46.025
 42
-1.0
 10
165.25
 20
46.025
  0
LWPOLYLINE
  5
315
100
AcDbEntity
  8
SOLDERMASK_PADS_TOP
100
AcDbPolyline
 90
        4
 70
         1
 10
164.75
 20
46.375
 42
-1.0
 10
165.05
 20
46.375
 10
165.05
 20
46.025
 42
-1.0
 10
164.75
 20
46.025
  0
LWPOLYLINE
  5
316
100
AcDbEntity
  8
SOLDERMASK_PADS_TOP
100
AcDbPolyline
 90
        4
 70
         1
 10
166.75
 20
46.375
 42
-1.0
 10
167.05
 20
46.375
 10
167.05
 20
46.025
 42
-1.0
 10
166.75
 20
46.025
  0
LWPOLYLINE
  5
317
100
AcDbEntity
  8
SOLDERMASK_PADS_TOP
100
AcDbPolyline
 90
        4
 70
         1
 10
164.75
 20
43.375
 42
-1.0
 10
165.05
 20
43.375
 10
165.05
 20
43.025
 42
-1.0
 10
164.75
 20
43.025
  0
LWPOLYLINE
  5
318
100
AcDbEntity
  8
SOLDERMASK_PADS_TOP
100
AcDbPolyline
 90
        4
 70
         1
 10
165.25
 20
43.375
 42
-1.0
 10
165.55
 20
43.375
 10
165.55
 20
43.025
 42
-1.0
 10
165.25
 20
43.025
  0
LWPOLYLINE
  5
319
100
AcDbEntity
  8
SOLDERMASK_PADS_TOP
100
AcDbPolyline
 90
        4
 70
         1
 10
165.75
 20
43.375
 42
-1.0
 10
166.05
 20
43.375
 10
166.05
 20
43.025
 42
-1.0
 10
165.75
 20
43.025
  0
LWPOLYLINE
  5
31A
100
AcDbEntity
  8
SOLDERMASK_PADS_TOP
100
AcDbPolyline
 90
        4
 70
         1
 10
166.25
 20
43.375
 42
-1.0
 10
166.55
 20
43.375
 10
166.55
 20
43.025
 42
-1.0
 10
166.25
 20
43.025
  0
LWPOLYLINE
  5
31B
100
AcDbEntity
  8
SOLDERMASK_PADS_TOP
100
AcDbPolyline
 90
        4
 70
         1
 10
166.75
 20
43.375
 42
-1.0
 10
167.05
 20
43.375
 10
167.05
 20
43.025
 42
-1.0
 10
166.75
 20
43.025
  0
CIRCLE
  5
31C
100
AcDbEntity
  8
SOLDERMASK_PADS_TOP
100
AcDbCircle
 10
175.502482
 20
93.898188
 30
0.0
 40
0.5
  0
LWPOLYLINE
  5
31D
100
AcDbEntity
  8
SOLDERMASK_PADS_TOP
100
AcDbPolyline
 90
        4
 70
         1
 10
47.525
 20
12.05
 10
47.525
 20
12.95
 10
48.475
 20
12.95
 10
48.475
 20
12.05
  0
LWPOLYLINE
  5
31E
100
AcDbEntity
  8
SOLDERMASK_PADS_TOP
100
AcDbPolyline
 90
        4
 70
         1
 10
47.525
 20
13.65
 10
47.525
 20
14.55
 10
48.475
 20
14.55
 10
48.475
 20
13.65
  0
LWPOLYLINE
  5
31F
100
AcDbEntity
  8
SOLDERMASK_PADS_TOP
100
AcDbPolyline
 90
        4
 70
         1
 10
124.5
 20
75.625
 10
124.5
 20
76.575
 10
125.5
 20
76.575
 10
125.5
 20
75.625
  0
LWPOLYLINE
  5
320
100
AcDbEntity
  8
SOLDERMASK_PADS_TOP
100
AcDbPolyline
 90
        4
 70
         1
 10
124.5
 20
77.225
 10
124.5
 20
78.175
 10
125.5
 20
78.175
 10
125.5
 20
77.225
  0
LWPOLYLINE
  5
321
100
AcDbEntity
  8
SOLDERMASK_PADS_TOP
100
AcDbPolyline
 90
        4
 70
         1
 10
46.225
 20
16.7
 10
46.225
 20
17.7
 10
47.175
 20
17.7
 10
47.175
 20
16.7
  0
LWPOLYLINE
  5
322
100
AcDbEntity
  8
SOLDERMASK_PADS_TOP
100
AcDbPolyline
 90
        4
 70
         1
 10
44.625
 20
16.7
 10
44.625
 20
17.7
 10
45.575
 20
17.7
 10
45.575
 20
16.7
  0
LWPOLYLINE
  5
323
100
AcDbEntity
  8
SOLDERMASK_PADS_TOP
100
AcDbPolyline
 90
        4
 70
         1
 10
63.4
 20
3.2
 10
63.4
 20
5.2
 10
65.4
 20
5.2
 10
65.4
 20
3.2
  0
LWPOLYLINE
  5
324
100
AcDbEntity
  8
SOLDERMASK_PADS_TOP
100
AcDbPolyline
 90
        4
 70
         1
 10
69.3
 20
3.2
 10
69.3
 20
5.2
 10
71.3
 20
5.2
 10
71.3
 20
3.2
  0
LWPOLYLINE
  5
325
100
AcDbEntity
  8
SOLDERMASK_PADS_TOP
100
AcDbPolyline
 90
        4
 70
         1
 10
66.25235
 20
1.271929
 42
-1.0
 10
65.95235
 20
1.271929
 10
65.95235
 20
2.521929
 42
-1.0
 10
66.25235
 20
2.521929
  0
LWPOLYLINE
  5
326
100
AcDbEntity
  8
SOLDERMASK_PADS_TOP
100
AcDbPolyline
 90
        4
 70
         1
 10
66.75235
 20
1.271929
 42
-1.0
 10
66.45235
 20
1.271929
 10
66.45235
 20
2.521929
 42
-1.0
 10
66.75235
 20
2.521929
  0
LWPOLYLINE
  5
327
100
AcDbEntity
  8
SOLDERMASK_PADS_TOP
100
AcDbPolyline
 90
        4
 70
         1
 10
67.25235
 20
1.271929
 42
-1.0
 10
66.95235
 20
1.271929
 10
66.95235
 20
2.521929
 42
-1.0
 10
67.25235
 20
2.521929
  0
LWPOLYLINE
  5
328
100
AcDbEntity
  8
SOLDERMASK_PADS_TOP
100
AcDbPolyline
 90
        4
 70
         1
 10
67.75235
 20
1.271929
 42
-1.0
 10
67.45235
 20
1.271929
 10
67.45235
 20
2.521929
 42
-1.0
 10
67.75235
 20
2.521929
  0
LWPOLYLINE
  5
329
100
AcDbEntity
  8
SOLDERMASK_PADS_TOP
100
AcDbPolyline
 90
        4
 70
         1
 10
68.25235
 20
1.271929
 42
-1.0
 10
67.95235
 20
1.271929
 10
67.95235
 20
2.521929
 42
-1.0
 10
68.25235
 20
2.521929
  0
LWPOLYLINE
  5
32A
100
AcDbEntity
  8
SOLDERMASK_PADS_TOP
100
AcDbPolyline
 90
        4
 70
         1
 10
68.75235
 20
1.271929
 42
-1.0
 10
68.45235
 20
1.271929
 10
68.45235
 20
2.521929
 42
-1.0
 10
68.75235
 20
2.521929
  0
LWPOLYLINE
  5
32B
100
AcDbEntity
  8
SOLDERMASK_PADS_TOP
100
AcDbPolyline
 90
        4
 70
         1
 10
123.0
 20
77.225
 10
123.0
 20
78.175
 10
124.0
 20
78.175
 10
124.0
 20
77.225
  0
LWPOLYLINE
  5
32C
100
AcDbEntity
  8
SOLDERMASK_PADS_TOP
100
AcDbPolyline
 90
        4
 70
         1
 10
123.0
 20
75.625
 10
123.0
 20
76.575
 10
124.0
 20
76.575
 10
124.0
 20
75.625
  0
LWPOLYLINE
  5
32D
100
AcDbEntity
  8
SOLDERMASK_PADS_TOP
100
AcDbPolyline
 90
        4
 70
         1
 10
114.85
 20
22.5
 42
-1.0
 10
114.85
 20
22.05
 10
113.75
 20
22.05
 42
-1.0
 10
113.75
 20
22.5
  0
LWPOLYLINE
  5
32E
100
AcDbEntity
  8
SOLDERMASK_PADS_TOP
100
AcDbPolyline
 90
        4
 70
         1
 10
114.85
 20
21.85
 42
-1.0
 10
114.85
 20
21.4
 10
113.75
 20
21.4
 42
-1.0
 10
113.75
 20
21.85
  0
LWPOLYLINE
  5
32F
100
AcDbEntity
  8
SOLDERMASK_PADS_TOP
100
AcDbPolyline
 90
        4
 70
         1
 10
114.85
 20
21.2
 42
-1.0
 10
114.85
 20
20.75
 10
113.75
 20
20.75
 42
-1.0
 10
113.75
 20
21.2
  0
LWPOLYLINE
  5
330
100
AcDbEntity
  8
SOLDERMASK_PADS_TOP
100
AcDbPolyline
 90
        4
 70
         1
 10
114.85
 20
20.55
 42
-1.0
 10
114.85
 20
20.1
 10
113.75
 20
20.1
 42
-1.0
 10
113.75
 20
20.55
  0
LWPOLYLINE
  5
331
100
AcDbEntity
  8
SOLDERMASK_PADS_TOP
100
AcDbPolyline
 90
        4
 70
         1
 10
114.85
 20
19.9
 42
-1.0
 10
114.85
 20
19.45
 10
113.75
 20
19.45
 42
-1.0
 10
113.75
 20
19.9
  0
LWPOLYLINE
  5
332
100
AcDbEntity
  8
SOLDERMASK_PADS_TOP
100
AcDbPolyline
 90
        4
 70
         1
 10
114.85
 20
19.25
 42
-1.0
 10
114.85
 20
18.8
 10
113.75
 20
18.8
 42
-1.0
 10
113.75
 20
19.25
  0
LWPOLYLINE
  5
333
100
AcDbEntity
  8
SOLDERMASK_PADS_TOP
100
AcDbPolyline
 90
        4
 70
         1
 10
114.85
 20
18.6
 42
-1.0
 10
114.85
 20
18.15
 10
113.75
 20
18.15
 42
-1.0
 10
113.75
 20
18.6
  0
LWPOLYLINE
  5
334
100
AcDbEntity
  8
SOLDERMASK_PADS_TOP
100
AcDbPolyline
 90
        4
 70
         1
 10
114.85
 20
17.95
 42
-1.0
 10
114.85
 20
17.5
 10
113.75
 20
17.5
 42
-1.0
 10
113.75
 20
17.95
  0
LWPOLYLINE
  5
335
100
AcDbEntity
  8
SOLDERMASK_PADS_TOP
100
AcDbPolyline
 90
        4
 70
         1
 10
114.85
 20
17.3
 42
-1.0
 10
114.85
 20
16.85
 10
113.75
 20
16.85
 42
-1.0
 10
113.75
 20
17.3
  0
LWPOLYLINE
  5
336
100
AcDbEntity
  8
SOLDERMASK_PADS_TOP
100
AcDbPolyline
 90
        4
 70
         1
 10
114.85
 20
16.65
 42
-1.0
 10
114.85
 20
16.2
 10
113.75
 20
16.2
 42
-1.0
 10
113.75
 20
16.65
  0
LWPOLYLINE
  5
337
100
AcDbEntity
  8
SOLDERMASK_PADS_TOP
100
AcDbPolyline
 90
        4
 70
         1
 10
114.85
 20
16.0
 42
-1.0
 10
114.85
 20
15.55
 10
113.75
 20
15.55
 42
-1.0
 10
113.75
 20
16.0
  0
LWPOLYLINE
  5
338
100
AcDbEntity
  8
SOLDERMASK_PADS_TOP
100
AcDbPolyline
 90
        4
 70
         1
 10
114.85
 20
15.35
 42
-1.0
 10
114.85
 20
14.9
 10
113.75
 20
14.9
 42
-1.0
 10
113.75
 20
15.35
  0
LWPOLYLINE
  5
339
100
AcDbEntity
  8
SOLDERMASK_PADS_TOP
100
AcDbPolyline
 90
        4
 70
         1
 10
120.65
 20
15.35
 42
-1.0
 10
120.65
 20
14.9
 10
119.55
 20
14.9
 42
-1.0
 10
119.55
 20
15.35
  0
LWPOLYLINE
  5
33A
100
AcDbEntity
  8
SOLDERMASK_PADS_TOP
100
AcDbPolyline
 90
        4
 70
         1
 10
120.65
 20
16.0
 42
-1.0
 10
120.65
 20
15.55
 10
119.55
 20
15.55
 42
-1.0
 10
119.55
 20
16.0
  0
LWPOLYLINE
  5
33B
100
AcDbEntity
  8
SOLDERMASK_PADS_TOP
100
AcDbPolyline
 90
        4
 70
         1
 10
120.65
 20
16.65
 42
-1.0
 10
120.65
 20
16.2
 10
119.55
 20
16.2
 42
-1.0
 10
119.55
 20
16.65
  0
LWPOLYLINE
  5
33C
100
AcDbEntity
  8
SOLDERMASK_PADS_TOP
100
AcDbPolyline
 90
        4
 70
         1
 10
120.65
 20
17.3
 42
-1.0
 10
120.65
 20
16.85
 10
119.55
 20
16.85
 42
-1.0
 10
119.55
 20
17.3
  0
LWPOLYLINE
  5
33D
100
AcDbEntity
  8
SOLDERMASK_PADS_TOP
100
AcDbPolyline
 90
        4
 70
         1
 10
120.65
 20
17.95
 42
-1.0
 10
120.65
 20
17.5
 10
119.55
 20
17.5
 42
-1.0
 10
119.55
 20
17.95
  0
LWPOLYLINE
  5
33E
100
AcDbEntity
  8
SOLDERMASK_PADS_TOP
100
AcDbPolyline
 90
        4
 70
         1
 10
120.65
 20
18.6
 42
-1.0
 10
120.65
 20
18.15
 10
119.55
 20
18.15
 42
-1.0
 10
119.55
 20
18.6
  0
LWPOLYLINE
  5
33F
100
AcDbEntity
  8
SOLDERMASK_PADS_TOP
100
AcDbPolyline
 90
        4
 70
         1
 10
120.65
 20
19.25
 42
-1.0
 10
120.65
 20
18.8
 10
119.55
 20
18.8
 42
-1.0
 10
119.55
 20
19.25
  0
LWPOLYLINE
  5
340
100
AcDbEntity
  8
SOLDERMASK_PADS_TOP
100
AcDbPolyline
 90
        4
 70
         1
 10
120.65
 20
19.9
 42
-1.0
 10
120.65
 20
19.45
 10
119.55
 20
19.45
 42
-1.0
 10
119.55
 20
19.9
  0
LWPOLYLINE
  5
341
100
AcDbEntity
  8
SOLDERMASK_PADS_TOP
100
AcDbPolyline
 90
        4
 70
         1
 10
120.65
 20
20.55
 42
-1.0
 10
120.65
 20
20.1
 10
119.55
 20
20.1
 42
-1.0
 10
119.55
 20
20.55
  0
LWPOLYLINE
  5
342
100
AcDbEntity
  8
SOLDERMASK_PADS_TOP
100
AcDbPolyline
 90
        4
 70
         1
 10
120.65
 20
21.2
 42
-1.0
 10
120.65
 20
20.75
 10
119.55
 20
20.75
 42
-1.0
 10
119.55
 20
21.2
  0
LWPOLYLINE
  5
343
100
AcDbEntity
  8
SOLDERMASK_PADS_TOP
100
AcDbPolyline
 90
        4
 70
         1
 10
120.65
 20
21.85
 42
-1.0
 10
120.65
 20
21.4
 10
119.55
 20
21.4
 42
-1.0
 10
119.55
 20
21.85
  0
LWPOLYLINE
  5
344
100
AcDbEntity
  8
SOLDERMASK_PADS_TOP
100
AcDbPolyline
 90
        4
 70
         1
 10
120.65
 20
22.5
 42
-1.0
 10
120.65
 20
22.05
 10
119.55
 20
22.05
 42
-1.0
 10
119.55
 20
22.5
  0
LWPOLYLINE
  5
345
100
AcDbEntity
  8
SOLDERMASK_PADS_TOP
100
AcDbPolyline
 90
        4
 70
         1
 10
115.95
 20
16.2
 10
115.95
 20
21.2
 10
118.45
 20
21.2
 10
118.45
 20
16.2
  0
LWPOLYLINE
  5
346
100
AcDbEntity
  8
SOLDERMASK_PADS_TOP
100
AcDbPolyline
 90
        4
 70
         1
 10
40.125
 20
11.15
 10
40.125
 20
12.05
 10
41.075
 20
12.05
 10
41.075
 20
11.15
  0
LWPOLYLINE
  5
347
100
AcDbEntity
  8
SOLDERMASK_PADS_TOP
100
AcDbPolyline
 90
        4
 70
         1
 10
40.125
 20
9.55
 10
40.125
 20
10.45
 10
41.075
 20
10.45
 10
41.075
 20
9.55
  0
LWPOLYLINE
  5
348
100
AcDbEntity
  8
SOLDERMASK_PADS_TOP
100
AcDbPolyline
 90
        4
 70
         1
 10
122.225
 20
19.05
 10
122.225
 20
19.95
 10
123.175
 20
19.95
 10
123.175
 20
19.05
  0
LWPOLYLINE
  5
349
100
AcDbEntity
  8
SOLDERMASK_PADS_TOP
100
AcDbPolyline
 90
        4
 70
         1
 10
122.225
 20
20.65
 10
122.225
 20
21.55
 10
123.175
 20
21.55
 10
123.175
 20
20.65
  0
LWPOLYLINE
  5
34A
100
AcDbEntity
  8
SOLDERMASK_PADS_TOP
100
AcDbPolyline
 90
        4
 70
         1
 10
27.65
 20
1.4
 42
-1.0
 10
28.55
 20
1.4
 10
28.55
 20
-0.7
 42
-1.0
 10
27.65
 20
-0.7
  0
LWPOLYLINE
  5
34B
100
AcDbEntity
  8
SOLDERMASK_PADS_TOP
100
AcDbPolyline
 90
        4
 70
         1
 10
27.65
 20
5.6
 42
-1.0
 10
28.55
 20
5.6
 10
28.55
 20
3.5
 42
-1.0
 10
27.65
 20
3.5
  0
LWPOLYLINE
  5
34C
100
AcDbEntity
  8
SOLDERMASK_PADS_TOP
100
AcDbPolyline
 90
        4
 70
         1
 10
29.65
 20
1.4
 42
-1.0
 10
30.55
 20
1.4
 10
30.55
 20
-0.7
 42
-1.0
 10
29.65
 20
-0.7
  0
LWPOLYLINE
  5
34D
100
AcDbEntity
  8
SOLDERMASK_PADS_TOP
100
AcDbPolyline
 90
        4
 70
         1
 10
29.65
 20
5.6
 42
-1.0
 10
30.55
 20
5.6
 10
30.55
 20
3.5
 42
-1.0
 10
29.65
 20
3.5
  0
LWPOLYLINE
  5
34E
100
AcDbEntity
  8
SOLDERMASK_PADS_TOP
100
AcDbPolyline
 90
        4
 70
         1
 10
31.65
 20
1.4
 42
-1.0
 10
32.55
 20
1.4
 10
32.55
 20
-0.7
 42
-1.0
 10
31.65
 20
-0.7
  0
LWPOLYLINE
  5
34F
100
AcDbEntity
  8
SOLDERMASK_PADS_TOP
100
AcDbPolyline
 90
        4
 70
         1
 10
31.65
 20
5.6
 42
-1.0
 10
32.55
 20
5.6
 10
32.55
 20
3.5
 42
-1.0
 10
31.65
 20
3.5
  0
LWPOLYLINE
  5
350
100
AcDbEntity
  8
SOLDERMASK_PADS_TOP
100
AcDbPolyline
 90
        4
 70
         1
 10
33.65
 20
1.4
 42
-1.0
 10
34.55
 20
1.4
 10
34.55
 20
-0.7
 42
-1.0
 10
33.65
 20
-0.7
  0
LWPOLYLINE
  5
351
100
AcDbEntity
  8
SOLDERMASK_PADS_TOP
100
AcDbPolyline
 90
        4
 70
         1
 10
33.65
 20
5.6
 42
-1.0
 10
34.55
 20
5.6
 10
34.55
 20
3.5
 42
-1.0
 10
33.65
 20
3.5
  0
LWPOLYLINE
  5
352
100
AcDbEntity
  8
SOLDERMASK_PADS_TOP
100
AcDbPolyline
 90
        4
 70
         1
 10
35.65
 20
1.4
 42
-1.0
 10
36.55
 20
1.4
 10
36.55
 20
-0.7
 42
-1.0
 10
35.65
 20
-0.7
  0
LWPOLYLINE
  5
353
100
AcDbEntity
  8
SOLDERMASK_PADS_TOP
100
AcDbPolyline
 90
        4
 70
         1
 10
35.65
 20
5.6
 42
-1.0
 10
36.55
 20
5.6
 10
36.55
 20
3.5
 42
-1.0
 10
35.65
 20
3.5
  0
LWPOLYLINE
  5
354
100
AcDbEntity
  8
SOLDERMASK_PADS_TOP
100
AcDbPolyline
 90
        4
 70
         1
 10
37.65
 20
1.4
 42
-1.0
 10
38.55
 20
1.4
 10
38.55
 20
-0.7
 42
-1.0
 10
37.65
 20
-0.7
  0
LWPOLYLINE
  5
355
100
AcDbEntity
  8
SOLDERMASK_PADS_TOP
100
AcDbPolyline
 90
        4
 70
         1
 10
37.65
 20
5.6
 42
-1.0
 10
38.55
 20
5.6
 10
38.55
 20
3.5
 42
-1.0
 10
37.65
 20
3.5
  0
LWPOLYLINE
  5
356
100
AcDbEntity
  8
SOLDERMASK_PADS_TOP
100
AcDbPolyline
 90
        4
 70
         1
 10
39.65
 20
1.4
 42
-1.0
 10
40.55
 20
1.4
 10
40.55
 20
-0.7
 42
-1.0
 10
39.65
 20
-0.7
  0
LWPOLYLINE
  5
357
100
AcDbEntity
  8
SOLDERMASK_PADS_TOP
100
AcDbPolyline
 90
        4
 70
         1
 10
39.65
 20
5.6
 42
-1.0
 10
40.55
 20
5.6
 10
40.55
 20
3.5
 42
-1.0
 10
39.65
 20
3.5
  0
LWPOLYLINE
  5
358
100
AcDbEntity
  8
SOLDERMASK_PADS_TOP
100
AcDbPolyline
 90
        4
 70
         1
 10
41.65
 20
1.4
 42
-1.0
 10
42.55
 20
1.4
 10
42.55
 20
-0.7
 42
-1.0
 10
41.65
 20
-0.7
  0
LWPOLYLINE
  5
359
100
AcDbEntity
  8
SOLDERMASK_PADS_TOP
100
AcDbPolyline
 90
        4
 70
         1
 10
41.65
 20
5.6
 42
-1.0
 10
42.55
 20
5.6
 10
42.55
 20
3.5
 42
-1.0
 10
41.65
 20
3.5
  0
LWPOLYLINE
  5
35A
100
AcDbEntity
  8
SOLDERMASK_PADS_TOP
100
AcDbPolyline
 90
        4
 70
         1
 10
43.65
 20
1.4
 42
-1.0
 10
44.55
 20
1.4
 10
44.55
 20
-0.7
 42
-1.0
 10
43.65
 20
-0.7
  0
LWPOLYLINE
  5
35B
100
AcDbEntity
  8
SOLDERMASK_PADS_TOP
100
AcDbPolyline
 90
        4
 70
         1
 10
43.65
 20
5.6
 42
-1.0
 10
44.55
 20
5.6
 10
44.55
 20
3.5
 42
-1.0
 10
43.65
 20
3.5
  0
LWPOLYLINE
  5
35C
100
AcDbEntity
  8
SOLDERMASK_PADS_TOP
100
AcDbPolyline
 90
        4
 70
         1
 10
45.65
 20
1.4
 42
-1.0
 10
46.55
 20
1.4
 10
46.55
 20
-0.7
 42
-1.0
 10
45.65
 20
-0.7
  0
LWPOLYLINE
  5
35D
100
AcDbEntity
  8
SOLDERMASK_PADS_TOP
100
AcDbPolyline
 90
        4
 70
         1
 10
45.65
 20
5.6
 42
-1.0
 10
46.55
 20
5.6
 10
46.55
 20
3.5
 42
-1.0
 10
45.65
 20
3.5
  0
LWPOLYLINE
  5
35E
100
AcDbEntity
  8
SOLDERMASK_PADS_TOP
100
AcDbPolyline
 90
        4
 70
         1
 10
118.3
 20
6.825
 10
118.3
 20
7.775
 10
119.3
 20
7.775
 10
119.3
 20
6.825
  0
LWPOLYLINE
  5
35F
100
AcDbEntity
  8
SOLDERMASK_PADS_TOP
100
AcDbPolyline
 90
        4
 70
         1
 10
118.3
 20
5.225
 10
118.3
 20
6.175
 10
119.3
 20
6.175
 10
119.3
 20
5.225
  0
LWPOLYLINE
  5
360
100
AcDbEntity
  8
SOLDERMASK_PADS_TOP
100
AcDbPolyline
 90
        4
 70
         1
 10
42.45
 20
9.55
 42
-1.0
 10
42.9
 20
9.55
 10
42.9
 20
8.45
 42
-1.0
 10
42.45
 20
8.45
  0
LWPOLYLINE
  5
361
100
AcDbEntity
  8
SOLDERMASK_PADS_TOP
100
AcDbPolyline
 90
        4
 70
         1
 10
43.1
 20
9.55
 42
-1.0
 10
43.55
 20
9.55
 10
43.55
 20
8.45
 42
-1.0
 10
43.1
 20
8.45
  0
LWPOLYLINE
  5
362
100
AcDbEntity
  8
SOLDERMASK_PADS_TOP
100
AcDbPolyline
 90
        4
 70
         1
 10
43.75
 20
9.55
 42
-1.0
 10
44.2
 20
9.55
 10
44.2
 20
8.45
 42
-1.0
 10
43.75
 20
8.45
  0
LWPOLYLINE
  5
363
100
AcDbEntity
  8
SOLDERMASK_PADS_TOP
100
AcDbPolyline
 90
        4
 70
         1
 10
44.4
 20
9.55
 42
-1.0
 10
44.85
 20
9.55
 10
44.85
 20
8.45
 42
-1.0
 10
44.4
 20
8.45
  0
LWPOLYLINE
  5
364
100
AcDbEntity
  8
SOLDERMASK_PADS_TOP
100
AcDbPolyline
 90
        4
 70
         1
 10
45.7
 20
9.55
 42
-1.0
 10
46.15
 20
9.55
 10
46.15
 20
8.45
 42
-1.0
 10
45.7
 20
8.45
  0
LWPOLYLINE
  5
365
100
AcDbEntity
  8
SOLDERMASK_PADS_TOP
100
AcDbPolyline
 90
        4
 70
         1
 10
46.35
 20
9.55
 42
-1.0
 10
46.8
 20
9.55
 10
46.8
 20
8.45
 42
-1.0
 10
46.35
 20
8.45
  0
LWPOLYLINE
  5
366
100
AcDbEntity
  8
SOLDERMASK_PADS_TOP
100
AcDbPolyline
 90
        4
 70
         1
 10
46.35
 20
15.35
 42
-1.0
 10
46.8
 20
15.35
 10
46.8
 20
14.25
 42
-1.0
 10
46.35
 20
14.25
  0
LWPOLYLINE
  5
367
100
AcDbEntity
  8
SOLDERMASK_PADS_TOP
100
AcDbPolyline
 90
        4
 70
         1
 10
45.05
 20
15.35
 42
-1.0
 10
45.5
 20
15.35
 10
45.5
 20
14.25
 42
-1.0
 10
45.05
 20
14.25
  0
LWPOLYLINE
  5
368
100
AcDbEntity
  8
SOLDERMASK_PADS_TOP
100
AcDbPolyline
 90
        4
 70
         1
 10
44.4
 20
15.35
 42
-1.0
 10
44.85
 20
15.35
 10
44.85
 20
14.25
 42
-1.0
 10
44.4
 20
14.25
  0
LWPOLYLINE
  5
369
100
AcDbEntity
  8
SOLDERMASK_PADS_TOP
100
AcDbPolyline
 90
        4
 70
         1
 10
43.75
 20
15.35
 42
-1.0
 10
44.2
 20
15.35
 10
44.2
 20
14.25
 42
-1.0
 10
43.75
 20
14.25
  0
LWPOLYLINE
  5
36A
100
AcDbEntity
  8
SOLDERMASK_PADS_TOP
100
AcDbPolyline
 90
        4
 70
         1
 10
43.1
 20
15.35
 42
-1.0
 10
43.55
 20
15.35
 10
43.55
 20
14.25
 42
-1.0
 10
43.1
 20
14.25
  0
LWPOLYLINE
  5
36B
100
AcDbEntity
  8
SOLDERMASK_PADS_TOP
100
AcDbPolyline
 90
        4
 70
         1
 10
42.45
 20
15.35
 42
-1.0
 10
42.9
 20
15.35
 10
42.9
 20
14.25
 42
-1.0
 10
42.45
 20
14.25
  0
LWPOLYLINE
  5
36C
100
AcDbEntity
  8
SOLDERMASK_PADS_TOP
100
AcDbPolyline
 90
        4
 70
         1
 10
41.8
 20
15.35
 42
-1.0
 10
42.25
 20
15.35
 10
42.25
 20
14.25
 42
-1.0
 10
41.8
 20
14.25
  0
LWPOLYLINE
  5
36D
100
AcDbEntity
  8
SOLDERMASK_PADS_TOP
100
AcDbPolyline
 90
        4
 70
         1
 10
45.05
 20
9.55
 42
-1.0
 10
45.5
 20
9.55
 10
45.5
 20
8.45
 42
-1.0
 10
45.05
 20
8.45
  0
LWPOLYLINE
  5
36E
100
AcDbEntity
  8
SOLDERMASK_PADS_TOP
100
AcDbPolyline
 90
        4
 70
         1
 10
45.7
 20
15.35
 42
-1.0
 10
46.15
 20
15.35
 10
46.15
 20
14.25
 42
-1.0
 10
45.7
 20
14.25
  0
LWPOLYLINE
  5
36F
100
AcDbEntity
  8
SOLDERMASK_PADS_TOP
100
AcDbPolyline
 90
        4
 70
         1
 10
41.8
 20
9.55
 42
-1.0
 10
42.25
 20
9.55
 10
42.25
 20
8.45
 42
-1.0
 10
41.8
 20
8.45
  0
LWPOLYLINE
  5
370
100
AcDbEntity
  8
SOLDERMASK_PADS_TOP
100
AcDbPolyline
 90
        4
 70
         1
 10
72.4
 20
6.925
 10
72.4
 20
7.875
 10
73.4
 20
7.875
 10
73.4
 20
6.925
  0
LWPOLYLINE
  5
371
100
AcDbEntity
  8
SOLDERMASK_PADS_TOP
100
AcDbPolyline
 90
        4
 70
         1
 10
72.4
 20
5.325
 10
72.4
 20
6.275
 10
73.4
 20
6.275
 10
73.4
 20
5.325
  0
LWPOLYLINE
  5
372
100
AcDbEntity
  8
SOLDERMASK_PADS_TOP
100
AcDbPolyline
 90
        4
 70
         1
 10
114.725
 20
13.05
 10
114.725
 20
13.95
 10
115.675
 20
13.95
 10
115.675
 20
13.05
  0
LWPOLYLINE
  5
373
100
AcDbEntity
  8
SOLDERMASK_PADS_TOP
100
AcDbPolyline
 90
        4
 70
         1
 10
114.725
 20
11.45
 10
114.725
 20
12.35
 10
115.675
 20
12.35
 10
115.675
 20
11.45
  0
LWPOLYLINE
  5
374
100
AcDbEntity
  8
SOLDERMASK_PADS_TOP
100
AcDbPolyline
 90
        4
 70
         1
 10
107.125
 20
14.475
 10
107.125
 20
15.925
 10
108.275
 20
15.925
 10
108.275
 20
14.475
  0
LWPOLYLINE
  5
375
100
AcDbEntity
  8
SOLDERMASK_PADS_TOP
100
AcDbPolyline
 90
        4
 70
         1
 10
105.325
 20
14.475
 10
105.325
 20
15.925
 10
106.475
 20
15.925
 10
106.475
 20
14.475
  0
LWPOLYLINE
  5
376
100
AcDbEntity
  8
SOLDERMASK_PADS_TOP
100
AcDbPolyline
 90
        4
 70
         1
 10
54.101697
 20
4.199575
 42
-1.0
 10
54.901697
 20
4.199575
 10
54.901697
 20
-1.000425
 42
-1.0
 10
54.101697
 20
-1.000425
  0
LWPOLYLINE
  5
377
100
AcDbEntity
  8
SOLDERMASK_PADS_TOP
100
AcDbPolyline
 90
        4
 70
         1
 10
55.101697
 20
4.199575
 42
-1.0
 10
55.901697
 20
4.199575
 10
55.901697
 20
-1.000425
 42
-1.0
 10
55.101697
 20
-1.000425
  0
LWPOLYLINE
  5
378
100
AcDbEntity
  8
SOLDERMASK_PADS_TOP
100
AcDbPolyline
 90
        4
 70
         1
 10
56.101697
 20
4.199575
 42
-1.0
 10
56.901697
 20
4.199575
 10
56.901697
 20
-1.000425
 42
-1.0
 10
56.101697
 20
-1.000425
  0
LWPOLYLINE
  5
379
100
AcDbEntity
  8
SOLDERMASK_PADS_TOP
100
AcDbPolyline
 90
        4
 70
         1
 10
57.101697
 20
4.199575
 42
-1.0
 10
57.901697
 20
4.199575
 10
57.901697
 20
-1.000425
 42
-1.0
 10
57.101697
 20
-1.000425
  0
LWPOLYLINE
  5
37A
100
AcDbEntity
  8
SOLDERMASK_PADS_TOP
100
AcDbPolyline
 90
        4
 70
         1
 10
49.95
 20
1.300002
 10
49.95
 20
3.900002
 10
53.55
 20
3.900002
 10
53.55
 20
1.300002
  0
LWPOLYLINE
  5
37B
100
AcDbEntity
  8
SOLDERMASK_PADS_TOP
100
AcDbPolyline
 90
        4
 70
         1
 10
58.45
 20
1.300002
 10
58.45
 20
3.900002
 10
62.05
 20
3.900002
 10
62.05
 20
1.300002
  0
LWPOLYLINE
  5
37C
100
AcDbEntity
  8
SOLDERMASK_PADS_TOP
100
AcDbPolyline
 90
        4
 70
         1
 10
74.1
 20
6.925
 10
74.1
 20
7.875
 10
75.1
 20
7.875
 10
75.1
 20
6.925
  0
LWPOLYLINE
  5
37D
100
AcDbEntity
  8
SOLDERMASK_PADS_TOP
100
AcDbPolyline
 90
        4
 70
         1
 10
74.1
 20
5.325
 10
74.1
 20
6.275
 10
75.1
 20
6.275
 10
75.1
 20
5.325
  0
LWPOLYLINE
  5
37E
100
AcDbEntity
  8
SOLDERMASK_PADS_TOP
100
AcDbPolyline
 90
        4
 70
         1
 10
106.55
 20
21.65
 10
106.55
 20
23.55
 10
111.85
 20
23.55
 10
111.85
 20
21.65
  0
LWPOLYLINE
  5
37F
100
AcDbEntity
  8
SOLDERMASK_PADS_TOP
100
AcDbPolyline
 90
        4
 70
         1
 10
106.55
 20
18.25
 10
106.55
 20
20.15
 10
111.85
 20
20.15
 10
111.85
 20
18.25
  0
LWPOLYLINE
  5
380
100
AcDbEntity
  8
SOLDERMASK_PADS_TOP
100
AcDbPolyline
 90
        4
 70
         1
 10
114.625
 20
23.275
 10
114.625
 20
24.725
 10
115.775
 20
24.725
 10
115.775
 20
23.275
  0
LWPOLYLINE
  5
381
100
AcDbEntity
  8
SOLDERMASK_PADS_TOP
100
AcDbPolyline
 90
        4
 70
         1
 10
112.825
 20
23.275
 10
112.825
 20
24.725
 10
113.975
 20
24.725
 10
113.975
 20
23.275
  0
LWPOLYLINE
  5
382
100
AcDbEntity
  8
SOLDERMASK_PADS_TOP
100
AcDbPolyline
 90
        4
 70
         1
 10
107.125
 20
16.375
 10
107.125
 20
17.825
 10
108.275
 20
17.825
 10
108.275
 20
16.375
  0
LWPOLYLINE
  5
383
100
AcDbEntity
  8
SOLDERMASK_PADS_TOP
100
AcDbPolyline
 90
        4
 70
         1
 10
105.325
 20
16.375
 10
105.325
 20
17.825
 10
106.475
 20
17.825
 10
106.475
 20
16.375
  0
LWPOLYLINE
  5
384
100
AcDbEntity
  8
SOLDERMASK_PADS_TOP
100
AcDbPolyline
 90
        4
 70
         1
 10
123.75
 20
17.625
 10
123.75
 20
18.575
 10
124.65
 20
18.575
 10
124.65
 20
17.625
  0
LWPOLYLINE
  5
385
100
AcDbEntity
  8
SOLDERMASK_PADS_TOP
100
AcDbPolyline
 90
        4
 70
         1
 10
122.15
 20
17.625
 10
122.15
 20
18.575
 10
123.05
 20
18.575
 10
123.05
 20
17.625
  0
LWPOLYLINE
  5
386
100
AcDbEntity
  8
SOLDERMASK_PADS_TOP
100
AcDbPolyline
 90
        4
 70
         1
 10
110.625
 20
14.475
 10
110.625
 20
15.925
 10
111.775
 20
15.925
 10
111.775
 20
14.475
  0
LWPOLYLINE
  5
387
100
AcDbEntity
  8
SOLDERMASK_PADS_TOP
100
AcDbPolyline
 90
        4
 70
         1
 10
108.825
 20
14.475
 10
108.825
 20
15.925
 10
109.975
 20
15.925
 10
109.975
 20
14.475
  0
LWPOLYLINE
  5
388
100
AcDbEntity
  8
SOLDERMASK_PADS_TOP
100
AcDbPolyline
 90
        4
 70
         1
 10
6.397539
 20
93.999549
 42
-1.0
 10
6.397539
 20
93.799549
 10
5.597539
 20
93.799549
 42
-1.0
 10
5.597539
 20
93.999549
  0
LWPOLYLINE
  5
389
100
AcDbEntity
  8
SOLDERMASK_PADS_TOP
100
AcDbPolyline
 90
        4
 70
         1
 10
5.9
 20
94.3
 42
-1.0
 10
6.1
 20
94.3
 10
6.1
 20
93.5
 42
-1.0
 10
5.9
 20
93.5
  0
LWPOLYLINE
  5
38A
100
AcDbEntity
  8
SOLDERMASK_PADS_TOP
100
AcDbPolyline
 90
        4
 70
         1
 10
117.825
 20
10.0
 10
117.825
 20
11.0
 10
118.775
 20
11.0
 10
118.775
 20
10.0
  0
LWPOLYLINE
  5
38B
100
AcDbEntity
  8
SOLDERMASK_PADS_TOP
100
AcDbPolyline
 90
        4
 70
         1
 10
119.425
 20
10.0
 10
119.425
 20
11.0
 10
120.375
 20
11.0
 10
120.375
 20
10.0
  0
LWPOLYLINE
  5
38C
100
AcDbEntity
  8
SOLDERMASK_PADS_TOP
100
AcDbPolyline
 90
        4
 70
         1
 10
117.85
 20
11.525
 10
117.85
 20
12.475
 10
118.75
 20
12.475
 10
118.75
 20
11.525
  0
LWPOLYLINE
  5
38D
100
AcDbEntity
  8
SOLDERMASK_PADS_TOP
100
AcDbPolyline
 90
        4
 70
         1
 10
119.45
 20
11.525
 10
119.45
 20
12.475
 10
120.35
 20
12.475
 10
120.35
 20
11.525
  0
LWPOLYLINE
  5
38E
100
AcDbEntity
  8
SOLDERMASK_PADS_TOP
100
AcDbPolyline
 90
        4
 70
         1
 10
110.625
 20
16.375
 10
110.625
 20
17.825
 10
111.775
 20
17.825
 10
111.775
 20
16.375
  0
LWPOLYLINE
  5
38F
100
AcDbEntity
  8
SOLDERMASK_PADS_TOP
100
AcDbPolyline
 90
        4
 70
         1
 10
108.825
 20
16.375
 10
108.825
 20
17.825
 10
109.975
 20
17.825
 10
109.975
 20
16.375
  0
LWPOLYLINE
  5
390
100
AcDbEntity
  8
SOLDERMASK_PADS_TOP
100
AcDbPolyline
 90
        4
 70
         1
 10
120.625
 20
25.35
 10
120.625
 20
26.25
 10
121.575
 20
26.25
 10
121.575
 20
25.35
  0
LWPOLYLINE
  5
391
100
AcDbEntity
  8
SOLDERMASK_PADS_TOP
100
AcDbPolyline
 90
        4
 70
         1
 10
120.625
 20
23.75
 10
120.625
 20
24.65
 10
121.575
 20
24.65
 10
121.575
 20
23.75
  0
LWPOLYLINE
  5
392
100
AcDbEntity
  8
SOLDERMASK_PADS_TOP
100
AcDbPolyline
 90
        4
 70
         1
 10
110.25
 20
12.425
 10
110.25
 20
13.375
 10
111.15
 20
13.375
 10
111.15
 20
12.425
  0
LWPOLYLINE
  5
393
100
AcDbEntity
  8
SOLDERMASK_PADS_TOP
100
AcDbPolyline
 90
        4
 70
         1
 10
111.85
 20
12.425
 10
111.85
 20
13.375
 10
112.75
 20
13.375
 10
112.75
 20
12.425
  0
LWPOLYLINE
  5
394
100
AcDbEntity
  8
SOLDERMASK_PADS_TOP
100
AcDbPolyline
 90
        4
 70
         1
 10
123.725
 20
19.05
 10
123.725
 20
19.95
 10
124.675
 20
19.95
 10
124.675
 20
19.05
  0
LWPOLYLINE
  5
395
100
AcDbEntity
  8
SOLDERMASK_PADS_TOP
100
AcDbPolyline
 90
        4
 70
         1
 10
123.725
 20
20.65
 10
123.725
 20
21.55
 10
124.675
 20
21.55
 10
124.675
 20
20.65
  0
LWPOLYLINE
  5
396
100
AcDbEntity
  8
SOLDERMASK_PADS_TOP
100
AcDbPolyline
 90
        4
 70
         1
 10
119.0
 20
25.325
 10
119.0
 20
26.275
 10
120.0
 20
26.275
 10
120.0
 20
25.325
  0
LWPOLYLINE
  5
397
100
AcDbEntity
  8
SOLDERMASK_PADS_TOP
100
AcDbPolyline
 90
        4
 70
         1
 10
119.0
 20
23.725
 10
119.0
 20
24.675
 10
120.0
 20
24.675
 10
120.0
 20
23.725
  0
LWPOLYLINE
  5
398
100
AcDbEntity
  8
SOLDERMASK_PADS_TOP
100
AcDbPolyline
 90
        4
 70
         1
 10
54.4
 20
88.6
 10
54.4
 20
90.0
 10
55.8
 20
90.0
 10
55.8
 20
88.6
  0
CIRCLE
  5
399
100
AcDbEntity
  8
SOLDERMASK_PADS_TOP
100
AcDbCircle
 10
57.64
 20
89.3
 30
0.0
 40
0.7
  0
LWPOLYLINE
  5
39A
100
AcDbEntity
  8
SOLDERMASK_PADS_TOP
100
AcDbPolyline
 90
        4
 70
         1
 10
112.925
 20
10.5
 10
112.925
 20
11.5
 10
113.875
 20
11.5
 10
113.875
 20
10.5
  0
LWPOLYLINE
  5
39B
100
AcDbEntity
  8
SOLDERMASK_PADS_TOP
100
AcDbPolyline
 90
        4
 70
         1
 10
111.325
 20
10.5
 10
111.325
 20
11.5
 10
112.275
 20
11.5
 10
112.275
 20
10.5
  0
LWPOLYLINE
  5
39C
100
AcDbEntity
  8
SOLDERMASK_PADS_TOP
100
AcDbPolyline
 90
        4
 70
         1
 10
117.85
 20
13.025
 10
117.85
 20
13.975
 10
118.75
 20
13.975
 10
118.75
 20
13.025
  0
LWPOLYLINE
  5
39D
100
AcDbEntity
  8
SOLDERMASK_PADS_TOP
100
AcDbPolyline
 90
        4
 70
         1
 10
119.45
 20
13.025
 10
119.45
 20
13.975
 10
120.35
 20
13.975
 10
120.35
 20
13.025
  0
LWPOLYLINE
  5
39E
100
AcDbEntity
  8
SOLDERMASK_PADS_TOP
100
AcDbPolyline
 90
        4
 70
         1
 10
122.625
 20
12.3
 10
122.625
 20
13.3
 10
123.575
 20
13.3
 10
123.575
 20
12.3
  0
LWPOLYLINE
  5
39F
100
AcDbEntity
  8
SOLDERMASK_PADS_TOP
100
AcDbPolyline
 90
        4
 70
         1
 10
121.025
 20
12.3
 10
121.025
 20
13.3
 10
121.975
 20
13.3
 10
121.975
 20
12.3
  0
LWPOLYLINE
  5
3A0
100
AcDbEntity
  8
SOLDERMASK_PADS_TOP
100
AcDbPolyline
 90
        4
 70
         1
 10
123.725
 20
16.05
 10
123.725
 20
16.95
 10
124.675
 20
16.95
 10
124.675
 20
16.05
  0
LWPOLYLINE
  5
3A1
100
AcDbEntity
  8
SOLDERMASK_PADS_TOP
100
AcDbPolyline
 90
        4
 70
         1
 10
123.725
 20
14.45
 10
123.725
 20
15.35
 10
124.675
 20
15.35
 10
124.675
 20
14.45
  0
LWPOLYLINE
  5
3A2
100
AcDbEntity
  8
SOLDERMASK_PADS_TOP
100
AcDbPolyline
 90
        4
 70
         1
 10
110.35
 20
26.725
 10
110.35
 20
27.675
 10
111.25
 20
27.675
 10
111.25
 20
26.725
  0
LWPOLYLINE
  5
3A3
100
AcDbEntity
  8
SOLDERMASK_PADS_TOP
100
AcDbPolyline
 90
        4
 70
         1
 10
108.75
 20
26.725
 10
108.75
 20
27.675
 10
109.65
 20
27.675
 10
109.65
 20
26.725
  0
LWPOLYLINE
  5
3A4
100
AcDbEntity
  8
SOLDERMASK_PADS_TOP
100
AcDbPolyline
 90
        4
 70
         1
 10
122.225
 20
16.05
 10
122.225
 20
16.95
 10
123.175
 20
16.95
 10
123.175
 20
16.05
  0
LWPOLYLINE
  5
3A5
100
AcDbEntity
  8
SOLDERMASK_PADS_TOP
100
AcDbPolyline
 90
        4
 70
         1
 10
122.225
 20
14.45
 10
122.225
 20
15.35
 10
123.175
 20
15.35
 10
123.175
 20
14.45
  0
LWPOLYLINE
  5
3A6
100
AcDbEntity
  8
SOLDERMASK_PADS_TOP
100
AcDbPolyline
 90
        4
 70
         1
 10
126.225
 20
24.05
 42
-1.0
 10
126.225
 20
23.45
 10
125.575
 20
23.45
 42
-1.0
 10
125.575
 20
24.05
  0
LWPOLYLINE
  5
3A7
100
AcDbEntity
  8
SOLDERMASK_PADS_TOP
100
AcDbPolyline
 90
        4
 70
         1
 10
126.225
 20
22.15
 42
-1.0
 10
126.225
 20
21.55
 10
125.575
 20
21.55
 42
-1.0
 10
125.575
 20
22.15
  0
LWPOLYLINE
  5
3A8
100
AcDbEntity
  8
SOLDERMASK_PADS_TOP
100
AcDbPolyline
 90
        4
 70
         1
 10
128.225
 20
23.1
 42
-1.0
 10
128.225
 20
22.5
 10
127.575
 20
22.5
 42
-1.0
 10
127.575
 20
23.1
  0
LWPOLYLINE
  5
3A9
100
AcDbEntity
  8
SOLDERMASK_PADS_TOP
100
AcDbPolyline
 90
        4
 70
         1
 10
127.575
 20
18.25
 42
-1.0
 10
127.575
 20
18.85
 10
128.225
 20
18.85
 42
-1.0
 10
128.225
 20
18.25
  0
LWPOLYLINE
  5
3AA
100
AcDbEntity
  8
SOLDERMASK_PADS_TOP
100
AcDbPolyline
 90
        4
 70
         1
 10
127.575
 20
20.15
 42
-1.0
 10
127.575
 20
20.75
 10
128.225
 20
20.75
 42
-1.0
 10
128.225
 20
20.15
  0
LWPOLYLINE
  5
3AB
100
AcDbEntity
  8
SOLDERMASK_PADS_TOP
100
AcDbPolyline
 90
        4
 70
         1
 10
125.575
 20
19.2
 42
-1.0
 10
125.575
 20
19.8
 10
126.225
 20
19.8
 42
-1.0
 10
126.225
 20
19.2
  0
LWPOLYLINE
  5
3AC
100
AcDbEntity
  8
SOLDERMASK_PADS_TOP
100
AcDbPolyline
 90
        4
 70
         1
 10
121.025
 20
10.8
 10
121.025
 20
11.8
 10
121.975
 20
11.8
 10
121.975
 20
10.8
  0
LWPOLYLINE
  5
3AD
100
AcDbEntity
  8
SOLDERMASK_PADS_TOP
100
AcDbPolyline
 90
        4
 70
         1
 10
122.625
 20
10.8
 10
122.625
 20
11.8
 10
123.575
 20
11.8
 10
123.575
 20
10.8
  0
LWPOLYLINE
  5
3AE
100
AcDbEntity
  8
SOLDERMASK_PADS_TOP
100
AcDbPolyline
 90
        4
 70
         1
 10
115.3
 20
26.625
 10
115.3
 20
27.575
 10
116.3
 20
27.575
 10
116.3
 20
26.625
  0
LWPOLYLINE
  5
3AF
100
AcDbEntity
  8
SOLDERMASK_PADS_TOP
100
AcDbPolyline
 90
        4
 70
         1
 10
115.3
 20
28.225
 10
115.3
 20
29.175
 10
116.3
 20
29.175
 10
116.3
 20
28.225
  0
LWPOLYLINE
  5
3B0
100
AcDbEntity
  8
SOLDERMASK_PADS_TOP
100
AcDbPolyline
 90
        4
 70
         1
 10
113.525
 20
25.3
 10
113.525
 20
26.3
 10
114.475
 20
26.3
 10
114.475
 20
25.3
  0
LWPOLYLINE
  5
3B1
100
AcDbEntity
  8
SOLDERMASK_PADS_TOP
100
AcDbPolyline
 90
        4
 70
         1
 10
111.925
 20
25.3
 10
111.925
 20
26.3
 10
112.875
 20
26.3
 10
112.875
 20
25.3
  0
LWPOLYLINE
  5
3B2
100
AcDbEntity
  8
SOLDERMASK_PADS_TOP
100
AcDbPolyline
 90
        4
 70
         1
 10
123.7
 20
22.125
 10
123.7
 20
23.075
 10
124.7
 20
23.075
 10
124.7
 20
22.125
  0
LWPOLYLINE
  5
3B3
100
AcDbEntity
  8
SOLDERMASK_PADS_TOP
100
AcDbPolyline
 90
        4
 70
         1
 10
123.7
 20
23.725
 10
123.7
 20
24.675
 10
124.7
 20
24.675
 10
124.7
 20
23.725
  0
LWPOLYLINE
  5
3B4
100
AcDbEntity
  8
SOLDERMASK_PADS_TOP
100
AcDbPolyline
 90
        4
 70
         1
 10
122.25
 20
26.725
 10
122.25
 20
27.675
 10
123.15
 20
27.675
 10
123.15
 20
26.725
  0
LWPOLYLINE
  5
3B5
100
AcDbEntity
  8
SOLDERMASK_PADS_TOP
100
AcDbPolyline
 90
        4
 70
         1
 10
123.85
 20
26.725
 10
123.85
 20
27.675
 10
124.75
 20
27.675
 10
124.75
 20
26.725
  0
LWPOLYLINE
  5
3B6
100
AcDbEntity
  8
SOLDERMASK_PADS_TOP
100
AcDbPolyline
 90
        4
 70
         1
 10
99.15
 20
63.8
 10
99.15
 20
66.3
 10
103.15
 20
66.3
 10
103.15
 20
63.8
  0
LWPOLYLINE
  5
3B7
100
AcDbEntity
  8
SOLDERMASK_PADS_TOP
100
AcDbPolyline
 90
        4
 70
         1
 10
83.65
 20
63.8
 10
83.65
 20
66.3
 10
87.65
 20
66.3
 10
87.65
 20
63.8
  0
LWPOLYLINE
  5
3B8
100
AcDbEntity
  8
SOLDERMASK_PADS_TOP
100
AcDbPolyline
 90
        4
 70
         1
 10
122.2
 20
22.125
 10
122.2
 20
23.075
 10
123.2
 20
23.075
 10
123.2
 20
22.125
  0
LWPOLYLINE
  5
3B9
100
AcDbEntity
  8
SOLDERMASK_PADS_TOP
100
AcDbPolyline
 90
        4
 70
         1
 10
122.2
 20
23.725
 10
122.2
 20
24.675
 10
123.2
 20
24.675
 10
123.2
 20
23.725
  0
LWPOLYLINE
  5
3BA
100
AcDbEntity
  8
SOLDERMASK_PADS_TOP
100
AcDbPolyline
 90
        4
 70
         1
 10
129.55
 20
63.6
 42
-1.0
 10
130.45
 20
63.6
 10
130.45
 20
61.5
 42
-1.0
 10
129.55
 20
61.5
  0
LWPOLYLINE
  5
3BB
100
AcDbEntity
  8
SOLDERMASK_PADS_TOP
100
AcDbPolyline
 90
        4
 70
         1
 10
129.55
 20
67.8
 42
-1.0
 10
130.45
 20
67.8
 10
130.45
 20
65.7
 42
-1.0
 10
129.55
 20
65.7
  0
LWPOLYLINE
  5
3BC
100
AcDbEntity
  8
SOLDERMASK_PADS_TOP
100
AcDbPolyline
 90
        4
 70
         1
 10
131.55
 20
63.6
 42
-1.0
 10
132.45
 20
63.6
 10
132.45
 20
61.5
 42
-1.0
 10
131.55
 20
61.5
  0
LWPOLYLINE
  5
3BD
100
AcDbEntity
  8
SOLDERMASK_PADS_TOP
100
AcDbPolyline
 90
        4
 70
         1
 10
131.55
 20
67.8
 42
-1.0
 10
132.45
 20
67.8
 10
132.45
 20
65.7
 42
-1.0
 10
131.55
 20
65.7
  0
LWPOLYLINE
  5
3BE
100
AcDbEntity
  8
SOLDERMASK_PADS_TOP
100
AcDbPolyline
 90
        4
 70
         1
 10
133.55
 20
63.6
 42
-1.0
 10
134.45
 20
63.6
 10
134.45
 20
61.5
 42
-1.0
 10
133.55
 20
61.5
  0
LWPOLYLINE
  5
3BF
100
AcDbEntity
  8
SOLDERMASK_PADS_TOP
100
AcDbPolyline
 90
        4
 70
         1
 10
133.55
 20
67.8
 42
-1.0
 10
134.45
 20
67.8
 10
134.45
 20
65.7
 42
-1.0
 10
133.55
 20
65.7
  0
LWPOLYLINE
  5
3C0
100
AcDbEntity
  8
SOLDERMASK_PADS_TOP
100
AcDbPolyline
 90
        4
 70
         1
 10
135.55
 20
63.6
 42
-1.0
 10
136.45
 20
63.6
 10
136.45
 20
61.5
 42
-1.0
 10
135.55
 20
61.5
  0
LWPOLYLINE
  5
3C1
100
AcDbEntity
  8
SOLDERMASK_PADS_TOP
100
AcDbPolyline
 90
        4
 70
         1
 10
135.55
 20
67.8
 42
-1.0
 10
136.45
 20
67.8
 10
136.45
 20
65.7
 42
-1.0
 10
135.55
 20
65.7
  0
LWPOLYLINE
  5
3C2
100
AcDbEntity
  8
SOLDERMASK_PADS_TOP
100
AcDbPolyline
 90
        4
 70
         1
 10
137.55
 20
63.6
 42
-1.0
 10
138.45
 20
63.6
 10
138.45
 20
61.5
 42
-1.0
 10
137.55
 20
61.5
  0
LWPOLYLINE
  5
3C3
100
AcDbEntity
  8
SOLDERMASK_PADS_TOP
100
AcDbPolyline
 90
        4
 70
         1
 10
137.55
 20
67.8
 42
-1.0
 10
138.45
 20
67.8
 10
138.45
 20
65.7
 42
-1.0
 10
137.55
 20
65.7
  0
LWPOLYLINE
  5
3C4
100
AcDbEntity
  8
SOLDERMASK_PADS_TOP
100
AcDbPolyline
 90
        4
 70
         1
 10
139.55
 20
63.6
 42
-1.0
 10
140.45
 20
63.6
 10
140.45
 20
61.5
 42
-1.0
 10
139.55
 20
61.5
  0
LWPOLYLINE
  5
3C5
100
AcDbEntity
  8
SOLDERMASK_PADS_TOP
100
AcDbPolyline
 90
        4
 70
         1
 10
139.55
 20
67.8
 42
-1.0
 10
140.45
 20
67.8
 10
140.45
 20
65.7
 42
-1.0
 10
139.55
 20
65.7
  0
LWPOLYLINE
  5
3C6
100
AcDbEntity
  8
SOLDERMASK_PADS_TOP
100
AcDbPolyline
 90
        4
 70
         1
 10
141.55
 20
63.6
 42
-1.0
 10
142.45
 20
63.6
 10
142.45
 20
61.5
 42
-1.0
 10
141.55
 20
61.5
  0
LWPOLYLINE
  5
3C7
100
AcDbEntity
  8
SOLDERMASK_PADS_TOP
100
AcDbPolyline
 90
        4
 70
         1
 10
141.55
 20
67.8
 42
-1.0
 10
142.45
 20
67.8
 10
142.45
 20
65.7
 42
-1.0
 10
141.55
 20
65.7
  0
LWPOLYLINE
  5
3C8
100
AcDbEntity
  8
SOLDERMASK_PADS_TOP
100
AcDbPolyline
 90
        4
 70
         1
 10
143.55
 20
63.6
 42
-1.0
 10
144.45
 20
63.6
 10
144.45
 20
61.5
 42
-1.0
 10
143.55
 20
61.5
  0
LWPOLYLINE
  5
3C9
100
AcDbEntity
  8
SOLDERMASK_PADS_TOP
100
AcDbPolyline
 90
        4
 70
         1
 10
143.55
 20
67.8
 42
-1.0
 10
144.45
 20
67.8
 10
144.45
 20
65.7
 42
-1.0
 10
143.55
 20
65.7
  0
LWPOLYLINE
  5
3CA
100
AcDbEntity
  8
SOLDERMASK_PADS_TOP
100
AcDbPolyline
 90
        4
 70
         1
 10
145.55
 20
63.6
 42
-1.0
 10
146.45
 20
63.6
 10
146.45
 20
61.5
 42
-1.0
 10
145.55
 20
61.5
  0
LWPOLYLINE
  5
3CB
100
AcDbEntity
  8
SOLDERMASK_PADS_TOP
100
AcDbPolyline
 90
        4
 70
         1
 10
145.55
 20
67.8
 42
-1.0
 10
146.45
 20
67.8
 10
146.45
 20
65.7
 42
-1.0
 10
145.55
 20
65.7
  0
LWPOLYLINE
  5
3CC
100
AcDbEntity
  8
SOLDERMASK_PADS_TOP
100
AcDbPolyline
 90
        4
 70
         1
 10
147.55
 20
63.6
 42
-1.0
 10
148.45
 20
63.6
 10
148.45
 20
61.5
 42
-1.0
 10
147.55
 20
61.5
  0
LWPOLYLINE
  5
3CD
100
AcDbEntity
  8
SOLDERMASK_PADS_TOP
100
AcDbPolyline
 90
        4
 70
         1
 10
147.55
 20
67.8
 42
-1.0
 10
148.45
 20
67.8
 10
148.45
 20
65.7
 42
-1.0
 10
147.55
 20
65.7
  0
LWPOLYLINE
  5
3CE
100
AcDbEntity
  8
SOLDERMASK_PADS_TOP
100
AcDbPolyline
 90
        4
 70
         1
 10
149.55
 20
63.6
 42
-1.0
 10
150.45
 20
63.6
 10
150.45
 20
61.5
 42
-1.0
 10
149.55
 20
61.5
  0
LWPOLYLINE
  5
3CF
100
AcDbEntity
  8
SOLDERMASK_PADS_TOP
100
AcDbPolyline
 90
        4
 70
         1
 10
149.55
 20
67.8
 42
-1.0
 10
150.45
 20
67.8
 10
150.45
 20
65.7
 42
-1.0
 10
149.55
 20
65.7
  0
LWPOLYLINE
  5
3D0
100
AcDbEntity
  8
SOLDERMASK_PADS_TOP
100
AcDbPolyline
 90
        4
 70
         1
 10
151.55
 20
63.6
 42
-1.0
 10
152.45
 20
63.6
 10
152.45
 20
61.5
 42
-1.0
 10
151.55
 20
61.5
  0
LWPOLYLINE
  5
3D1
100
AcDbEntity
  8
SOLDERMASK_PADS_TOP
100
AcDbPolyline
 90
        4
 70
         1
 10
151.55
 20
67.8
 42
-1.0
 10
152.45
 20
67.8
 10
152.45
 20
65.7
 42
-1.0
 10
151.55
 20
65.7
  0
LWPOLYLINE
  5
3D2
100
AcDbEntity
  8
SOLDERMASK_PADS_TOP
100
AcDbPolyline
 90
        4
 70
         1
 10
153.55
 20
63.6
 42
-1.0
 10
154.45
 20
63.6
 10
154.45
 20
61.5
 42
-1.0
 10
153.55
 20
61.5
  0
LWPOLYLINE
  5
3D3
100
AcDbEntity
  8
SOLDERMASK_PADS_TOP
100
AcDbPolyline
 90
        4
 70
         1
 10
153.55
 20
67.8
 42
-1.0
 10
154.45
 20
67.8
 10
154.45
 20
65.7
 42
-1.0
 10
153.55
 20
65.7
  0
LWPOLYLINE
  5
3D4
100
AcDbEntity
  8
SOLDERMASK_PADS_TOP
100
AcDbPolyline
 90
        4
 70
         1
 10
155.55
 20
63.6
 42
-1.0
 10
156.45
 20
63.6
 10
156.45
 20
61.5
 42
-1.0
 10
155.55
 20
61.5
  0
LWPOLYLINE
  5
3D5
100
AcDbEntity
  8
SOLDERMASK_PADS_TOP
100
AcDbPolyline
 90
        4
 70
         1
 10
155.55
 20
67.8
 42
-1.0
 10
156.45
 20
67.8
 10
156.45
 20
65.7
 42
-1.0
 10
155.55
 20
65.7
  0
LWPOLYLINE
  5
3D6
100
AcDbEntity
  8
SOLDERMASK_PADS_TOP
100
AcDbPolyline
 90
        4
 70
         1
 10
157.55
 20
63.6
 42
-1.0
 10
158.45
 20
63.6
 10
158.45
 20
61.5
 42
-1.0
 10
157.55
 20
61.5
  0
LWPOLYLINE
  5
3D7
100
AcDbEntity
  8
SOLDERMASK_PADS_TOP
100
AcDbPolyline
 90
        4
 70
         1
 10
157.55
 20
67.8
 42
-1.0
 10
158.45
 20
67.8
 10
158.45
 20
65.7
 42
-1.0
 10
157.55
 20
65.7
  0
LWPOLYLINE
  5
3D8
100
AcDbEntity
  8
SOLDERMASK_PADS_TOP
100
AcDbPolyline
 90
        4
 70
         1
 10
159.55
 20
63.6
 42
-1.0
 10
160.45
 20
63.6
 10
160.45
 20
61.5
 42
-1.0
 10
159.55
 20
61.5
  0
LWPOLYLINE
  5
3D9
100
AcDbEntity
  8
SOLDERMASK_PADS_TOP
100
AcDbPolyline
 90
        4
 70
         1
 10
159.55
 20
67.8
 42
-1.0
 10
160.45
 20
67.8
 10
160.45
 20
65.7
 42
-1.0
 10
159.55
 20
65.7
  0
LWPOLYLINE
  5
3DA
100
AcDbEntity
  8
SOLDERMASK_PADS_TOP
100
AcDbPolyline
 90
        4
 70
         1
 10
161.55
 20
63.6
 42
-1.0
 10
162.45
 20
63.6
 10
162.45
 20
61.5
 42
-1.0
 10
161.55
 20
61.5
  0
LWPOLYLINE
  5
3DB
100
AcDbEntity
  8
SOLDERMASK_PADS_TOP
100
AcDbPolyline
 90
        4
 70
         1
 10
161.55
 20
67.8
 42
-1.0
 10
162.45
 20
67.8
 10
162.45
 20
65.7
 42
-1.0
 10
161.55
 20
65.7
  0
LWPOLYLINE
  5
3DC
100
AcDbEntity
  8
SOLDERMASK_PADS_TOP
100
AcDbPolyline
 90
        4
 70
         1
 10
163.55
 20
63.6
 42
-1.0
 10
164.45
 20
63.6
 10
164.45
 20
61.5
 42
-1.0
 10
163.55
 20
61.5
  0
LWPOLYLINE
  5
3DD
100
AcDbEntity
  8
SOLDERMASK_PADS_TOP
100
AcDbPolyline
 90
        4
 70
         1
 10
163.55
 20
67.8
 42
-1.0
 10
164.45
 20
67.8
 10
164.45
 20
65.7
 42
-1.0
 10
163.55
 20
65.7
  0
LWPOLYLINE
  5
3DE
100
AcDbEntity
  8
SOLDERMASK_PADS_TOP
100
AcDbPolyline
 90
        4
 70
         1
 10
165.55
 20
63.6
 42
-1.0
 10
166.45
 20
63.6
 10
166.45
 20
61.5
 42
-1.0
 10
165.55
 20
61.5
  0
LWPOLYLINE
  5
3DF
100
AcDbEntity
  8
SOLDERMASK_PADS_TOP
100
AcDbPolyline
 90
        4
 70
         1
 10
165.55
 20
67.8
 42
-1.0
 10
166.45
 20
67.8
 10
166.45
 20
65.7
 42
-1.0
 10
165.55
 20
65.7
  0
LWPOLYLINE
  5
3E0
100
AcDbEntity
  8
SOLDERMASK_PADS_TOP
100
AcDbPolyline
 90
        4
 70
         1
 10
167.55
 20
67.8
 42
-1.0
 10
168.45
 20
67.8
 10
168.45
 20
65.7
 42
-1.0
 10
167.55
 20
65.7
  0
LWPOLYLINE
  5
3E1
100
AcDbEntity
  8
SOLDERMASK_PADS_TOP
100
AcDbPolyline
 90
        4
 70
         1
 10
167.55
 20
63.6
 42
-1.0
 10
168.45
 20
63.6
 10
168.45
 20
61.5
 42
-1.0
 10
167.55
 20
61.5
  0
LWPOLYLINE
  5
3E2
100
AcDbEntity
  8
SOLDERMASK_PADS_TOP
100
AcDbPolyline
 90
        4
 70
         1
 10
122.225
 20
25.2
 10
122.225
 20
26.2
 10
123.175
 20
26.2
 10
123.175
 20
25.2
  0
LWPOLYLINE
  5
3E3
100
AcDbEntity
  8
SOLDERMASK_PADS_TOP
100
AcDbPolyline
 90
        4
 70
         1
 10
123.825
 20
25.2
 10
123.825
 20
26.2
 10
124.775
 20
26.2
 10
124.775
 20
25.2
  0
LWPOLYLINE
  5
3E4
100
AcDbEntity
  8
SOLDERMASK_PADS_TOP
100
AcDbPolyline
 90
        4
 70
         1
 10
113.525
 20
26.8
 10
113.525
 20
27.8
 10
114.475
 20
27.8
 10
114.475
 20
26.8
  0
LWPOLYLINE
  5
3E5
100
AcDbEntity
  8
SOLDERMASK_PADS_TOP
100
AcDbPolyline
 90
        4
 70
         1
 10
111.925
 20
26.8
 10
111.925
 20
27.8
 10
112.875
 20
27.8
 10
112.875
 20
26.8
  0
LWPOLYLINE
  5
3E6
100
AcDbEntity
  8
SOLDERMASK_PADS_TOP
100
AcDbPolyline
 90
        4
 70
         1
 10
122.25
 20
28.225
 10
122.25
 20
29.175
 10
123.15
 20
29.175
 10
123.15
 20
28.225
  0
LWPOLYLINE
  5
3E7
100
AcDbEntity
  8
SOLDERMASK_PADS_TOP
100
AcDbPolyline
 90
        4
 70
         1
 10
123.85
 20
28.225
 10
123.85
 20
29.175
 10
124.75
 20
29.175
 10
124.75
 20
28.225
  0
LWPOLYLINE
  5
3E8
100
AcDbEntity
  8
SOLDERMASK_PADS_TOP
100
AcDbPolyline
 90
        4
 70
         1
 10
110.325
 20
25.2
 10
110.325
 20
26.2
 10
111.275
 20
26.2
 10
111.275
 20
25.2
  0
LWPOLYLINE
  5
3E9
100
AcDbEntity
  8
SOLDERMASK_PADS_TOP
100
AcDbPolyline
 90
        4
 70
         1
 10
108.725
 20
25.2
 10
108.725
 20
26.2
 10
109.675
 20
26.2
 10
109.675
 20
25.2
  0
LWPOLYLINE
  5
3EA
100
AcDbEntity
  8
SOLDERMASK_PADS_TOP
100
AcDbPolyline
 90
        4
 70
         1
 10
105.1
 20
1.15
 10
105.1
 20
4.65
 10
107.6
 20
4.65
 10
107.6
 20
1.15
  0
LWPOLYLINE
  5
3EB
100
AcDbEntity
  8
SOLDERMASK_PADS_TOP
100
AcDbPolyline
 90
        4
 70
         1
 10
76.4
 20
1.15
 10
76.4
 20
4.65
 10
78.9
 20
4.65
 10
78.9
 20
1.15
  0
LWPOLYLINE
  5
3EC
100
AcDbEntity
  8
SOLDERMASK_PADS_TOP
100
AcDbPolyline
 90
        4
 70
         1
 10
104.374625
 20
0.202157
 42
-1.0
 10
104.124625
 20
0.202157
 10
104.124625
 20
1.202157
 42
-1.0
 10
104.374625
 20
1.202157
  0
LWPOLYLINE
  5
3ED
100
AcDbEntity
  8
SOLDERMASK_PADS_TOP
100
AcDbPolyline
 90
        4
 70
         1
 10
103.874625
 20
0.202157
 42
-1.0
 10
103.624625
 20
0.202157
 10
103.624625
 20
1.202157
 42
-1.0
 10
103.874625
 20
1.202157
  0
LWPOLYLINE
  5
3EE
100
AcDbEntity
  8
SOLDERMASK_PADS_TOP
100
AcDbPolyline
 90
        4
 70
         1
 10
103.374625
 20
0.202157
 42
-1.0
 10
103.124625
 20
0.202157
 10
103.124625
 20
1.202157
 42
-1.0
 10
103.374625
 20
1.202157
  0
LWPOLYLINE
  5
3EF
100
AcDbEntity
  8
SOLDERMASK_PADS_TOP
100
AcDbPolyline
 90
        4
 70
         1
 10
102.874625
 20
0.202157
 42
-1.0
 10
102.624625
 20
0.202157
 10
102.624625
 20
1.202157
 42
-1.0
 10
102.874625
 20
1.202157
  0
LWPOLYLINE
  5
3F0
100
AcDbEntity
  8
SOLDERMASK_PADS_TOP
100
AcDbPolyline
 90
        4
 70
         1
 10
102.374625
 20
0.202157
 42
-1.0
 10
102.124625
 20
0.202157
 10
102.124625
 20
1.202157
 42
-1.0
 10
102.374625
 20
1.202157
  0
LWPOLYLINE
  5
3F1
100
AcDbEntity
  8
SOLDERMASK_PADS_TOP
100
AcDbPolyline
 90
        4
 70
         1
 10
101.874625
 20
0.202157
 42
-1.0
 10
101.624625
 20
0.202157
 10
101.624625
 20
1.202157
 42
-1.0
 10
101.874625
 20
1.202157
  0
LWPOLYLINE
  5
3F2
100
AcDbEntity
  8
SOLDERMASK_PADS_TOP
100
AcDbPolyline
 90
        4
 70
         1
 10
101.374625
 20
0.202157
 42
-1.0
 10
101.124625
 20
0.202157
 10
101.124625
 20
1.202157
 42
-1.0
 10
101.374625
 20
1.202157
  0
LWPOLYLINE
  5
3F3
100
AcDbEntity
  8
SOLDERMASK_PADS_TOP
100
AcDbPolyline
 90
        4
 70
         1
 10
100.874625
 20
0.202157
 42
-1.0
 10
100.624625
 20
0.202157
 10
100.624625
 20
1.202157
 42
-1.0
 10
100.874625
 20
1.202157
  0
LWPOLYLINE
  5
3F4
100
AcDbEntity
  8
SOLDERMASK_PADS_TOP
100
AcDbPolyline
 90
        4
 70
         1
 10
100.374625
 20
0.202157
 42
-1.0
 10
100.124625
 20
0.202157
 10
100.124625
 20
1.202157
 42
-1.0
 10
100.374625
 20
1.202157
  0
LWPOLYLINE
  5
3F5
100
AcDbEntity
  8
SOLDERMASK_PADS_TOP
100
AcDbPolyline
 90
        4
 70
         1
 10
99.874625
 20
0.202157
 42
-1.0
 10
99.624625
 20
0.202157
 10
99.624625
 20
1.202157
 42
-1.0
 10
99.874625
 20
1.202157
  0
LWPOLYLINE
  5
3F6
100
AcDbEntity
  8
SOLDERMASK_PADS_TOP
100
AcDbPolyline
 90
        4
 70
         1
 10
99.374625
 20
0.202157
 42
-1.0
 10
99.124625
 20
0.202157
 10
99.124625
 20
1.202157
 42
-1.0
 10
99.374625
 20
1.202157
  0
LWPOLYLINE
  5
3F7
100
AcDbEntity
  8
SOLDERMASK_PADS_TOP
100
AcDbPolyline
 90
        4
 70
         1
 10
98.874625
 20
0.202157
 42
-1.0
 10
98.624625
 20
0.202157
 10
98.624625
 20
1.202157
 42
-1.0
 10
98.874625
 20
1.202157
  0
LWPOLYLINE
  5
3F8
100
AcDbEntity
  8
SOLDERMASK_PADS_TOP
100
AcDbPolyline
 90
        4
 70
         1
 10
98.374625
 20
0.202157
 42
-1.0
 10
98.124625
 20
0.202157
 10
98.124625
 20
1.202157
 42
-1.0
 10
98.374625
 20
1.202157
  0
LWPOLYLINE
  5
3F9
100
AcDbEntity
  8
SOLDERMASK_PADS_TOP
100
AcDbPolyline
 90
        4
 70
         1
 10
97.874625
 20
0.202157
 42
-1.0
 10
97.624625
 20
0.202157
 10
97.624625
 20
1.202157
 42
-1.0
 10
97.874625
 20
1.202157
  0
LWPOLYLINE
  5
3FA
100
AcDbEntity
  8
SOLDERMASK_PADS_TOP
100
AcDbPolyline
 90
        4
 70
         1
 10
97.374625
 20
0.202157
 42
-1.0
 10
97.124625
 20
0.202157
 10
97.124625
 20
1.202157
 42
-1.0
 10
97.374625
 20
1.202157
  0
LWPOLYLINE
  5
3FB
100
AcDbEntity
  8
SOLDERMASK_PADS_TOP
100
AcDbPolyline
 90
        4
 70
         1
 10
96.874625
 20
0.202157
 42
-1.0
 10
96.624625
 20
0.202157
 10
96.624625
 20
1.202157
 42
-1.0
 10
96.874625
 20
1.202157
  0
LWPOLYLINE
  5
3FC
100
AcDbEntity
  8
SOLDERMASK_PADS_TOP
100
AcDbPolyline
 90
        4
 70
         1
 10
96.374625
 20
0.202157
 42
-1.0
 10
96.124625
 20
0.202157
 10
96.124625
 20
1.202157
 42
-1.0
 10
96.374625
 20
1.202157
  0
LWPOLYLINE
  5
3FD
100
AcDbEntity
  8
SOLDERMASK_PADS_TOP
100
AcDbPolyline
 90
        4
 70
         1
 10
95.874625
 20
0.202157
 42
-1.0
 10
95.624625
 20
0.202157
 10
95.624625
 20
1.202157
 42
-1.0
 10
95.874625
 20
1.202157
  0
LWPOLYLINE
  5
3FE
100
AcDbEntity
  8
SOLDERMASK_PADS_TOP
100
AcDbPolyline
 90
        4
 70
         1
 10
95.374625
 20
0.202157
 42
-1.0
 10
95.124625
 20
0.202157
 10
95.124625
 20
1.202157
 42
-1.0
 10
95.374625
 20
1.202157
  0
LWPOLYLINE
  5
3FF
100
AcDbEntity
  8
SOLDERMASK_PADS_TOP
100
AcDbPolyline
 90
        4
 70
         1
 10
94.874625
 20
0.202157
 42
-1.0
 10
94.624625
 20
0.202157
 10
94.624625
 20
1.202157
 42
-1.0
 10
94.874625
 20
1.202157
  0
LWPOLYLINE
  5
400
100
AcDbEntity
  8
SOLDERMASK_PADS_TOP
100
AcDbPolyline
 90
        4
 70
         1
 10
94.374625
 20
0.202157
 42
-1.0
 10
94.124625
 20
0.202157
 10
94.124625
 20
1.202157
 42
-1.0
 10
94.374625
 20
1.202157
  0
LWPOLYLINE
  5
401
100
AcDbEntity
  8
SOLDERMASK_PADS_TOP
100
AcDbPolyline
 90
        4
 70
         1
 10
93.874625
 20
0.202157
 42
-1.0
 10
93.624625
 20
0.202157
 10
93.624625
 20
1.202157
 42
-1.0
 10
93.874625
 20
1.202157
  0
LWPOLYLINE
  5
402
100
AcDbEntity
  8
SOLDERMASK_PADS_TOP
100
AcDbPolyline
 90
        4
 70
         1
 10
93.374625
 20
0.202157
 42
-1.0
 10
93.124625
 20
0.202157
 10
93.124625
 20
1.202157
 42
-1.0
 10
93.374625
 20
1.202157
  0
LWPOLYLINE
  5
403
100
AcDbEntity
  8
SOLDERMASK_PADS_TOP
100
AcDbPolyline
 90
        4
 70
         1
 10
92.874625
 20
0.202157
 42
-1.0
 10
92.624625
 20
0.202157
 10
92.624625
 20
1.202157
 42
-1.0
 10
92.874625
 20
1.202157
  0
LWPOLYLINE
  5
404
100
AcDbEntity
  8
SOLDERMASK_PADS_TOP
100
AcDbPolyline
 90
        4
 70
         1
 10
92.374625
 20
0.202157
 42
-1.0
 10
92.124625
 20
0.202157
 10
92.124625
 20
1.202157
 42
-1.0
 10
92.374625
 20
1.202157
  0
LWPOLYLINE
  5
405
100
AcDbEntity
  8
SOLDERMASK_PADS_TOP
100
AcDbPolyline
 90
        4
 70
         1
 10
91.874625
 20
0.202157
 42
-1.0
 10
91.624625
 20
0.202157
 10
91.624625
 20
1.202157
 42
-1.0
 10
91.874625
 20
1.202157
  0
LWPOLYLINE
  5
406
100
AcDbEntity
  8
SOLDERMASK_PADS_TOP
100
AcDbPolyline
 90
        4
 70
         1
 10
91.374625
 20
0.202157
 42
-1.0
 10
91.124625
 20
0.202157
 10
91.124625
 20
1.202157
 42
-1.0
 10
91.374625
 20
1.202157
  0
LWPOLYLINE
  5
407
100
AcDbEntity
  8
SOLDERMASK_PADS_TOP
100
AcDbPolyline
 90
        4
 70
         1
 10
90.874625
 20
0.202157
 42
-1.0
 10
90.624625
 20
0.202157
 10
90.624625
 20
1.202157
 42
-1.0
 10
90.874625
 20
1.202157
  0
LWPOLYLINE
  5
408
100
AcDbEntity
  8
SOLDERMASK_PADS_TOP
100
AcDbPolyline
 90
        4
 70
         1
 10
90.374625
 20
0.202157
 42
-1.0
 10
90.124625
 20
0.202157
 10
90.124625
 20
1.202157
 42
-1.0
 10
90.374625
 20
1.202157
  0
LWPOLYLINE
  5
409
100
AcDbEntity
  8
SOLDERMASK_PADS_TOP
100
AcDbPolyline
 90
        4
 70
         1
 10
89.874625
 20
0.202157
 42
-1.0
 10
89.624625
 20
0.202157
 10
89.624625
 20
1.202157
 42
-1.0
 10
89.874625
 20
1.202157
  0
LWPOLYLINE
  5
40A
100
AcDbEntity
  8
SOLDERMASK_PADS_TOP
100
AcDbPolyline
 90
        4
 70
         1
 10
89.374625
 20
0.202157
 42
-1.0
 10
89.124625
 20
0.202157
 10
89.124625
 20
1.202157
 42
-1.0
 10
89.374625
 20
1.202157
  0
LWPOLYLINE
  5
40B
100
AcDbEntity
  8
SOLDERMASK_PADS_TOP
100
AcDbPolyline
 90
        4
 70
         1
 10
88.874625
 20
0.202157
 42
-1.0
 10
88.624625
 20
0.202157
 10
88.624625
 20
1.202157
 42
-1.0
 10
88.874625
 20
1.202157
  0
LWPOLYLINE
  5
40C
100
AcDbEntity
  8
SOLDERMASK_PADS_TOP
100
AcDbPolyline
 90
        4
 70
         1
 10
88.374625
 20
0.202157
 42
-1.0
 10
88.124625
 20
0.202157
 10
88.124625
 20
1.202157
 42
-1.0
 10
88.374625
 20
1.202157
  0
LWPOLYLINE
  5
40D
100
AcDbEntity
  8
SOLDERMASK_PADS_TOP
100
AcDbPolyline
 90
        4
 70
         1
 10
87.874625
 20
0.202157
 42
-1.0
 10
87.624625
 20
0.202157
 10
87.624625
 20
1.202157
 42
-1.0
 10
87.874625
 20
1.202157
  0
LWPOLYLINE
  5
40E
100
AcDbEntity
  8
SOLDERMASK_PADS_TOP
100
AcDbPolyline
 90
        4
 70
         1
 10
87.374625
 20
0.202157
 42
-1.0
 10
87.124625
 20
0.202157
 10
87.124625
 20
1.202157
 42
-1.0
 10
87.374625
 20
1.202157
  0
LWPOLYLINE
  5
40F
100
AcDbEntity
  8
SOLDERMASK_PADS_TOP
100
AcDbPolyline
 90
        4
 70
         1
 10
86.874625
 20
0.202157
 42
-1.0
 10
86.624625
 20
0.202157
 10
86.624625
 20
1.202157
 42
-1.0
 10
86.874625
 20
1.202157
  0
LWPOLYLINE
  5
410
100
AcDbEntity
  8
SOLDERMASK_PADS_TOP
100
AcDbPolyline
 90
        4
 70
         1
 10
86.374625
 20
0.202157
 42
-1.0
 10
86.124625
 20
0.202157
 10
86.124625
 20
1.202157
 42
-1.0
 10
86.374625
 20
1.202157
  0
LWPOLYLINE
  5
411
100
AcDbEntity
  8
SOLDERMASK_PADS_TOP
100
AcDbPolyline
 90
        4
 70
         1
 10
85.874625
 20
0.202157
 42
-1.0
 10
85.624625
 20
0.202157
 10
85.624625
 20
1.202157
 42
-1.0
 10
85.874625
 20
1.202157
  0
LWPOLYLINE
  5
412
100
AcDbEntity
  8
SOLDERMASK_PADS_TOP
100
AcDbPolyline
 90
        4
 70
         1
 10
85.374625
 20
0.202157
 42
-1.0
 10
85.124625
 20
0.202157
 10
85.124625
 20
1.202157
 42
-1.0
 10
85.374625
 20
1.202157
  0
LWPOLYLINE
  5
413
100
AcDbEntity
  8
SOLDERMASK_PADS_TOP
100
AcDbPolyline
 90
        4
 70
         1
 10
84.874625
 20
0.202157
 42
-1.0
 10
84.624625
 20
0.202157
 10
84.624625
 20
1.202157
 42
-1.0
 10
84.874625
 20
1.202157
  0
LWPOLYLINE
  5
414
100
AcDbEntity
  8
SOLDERMASK_PADS_TOP
100
AcDbPolyline
 90
        4
 70
         1
 10
84.375
 20
0.2
 42
-1.0
 10
84.125
 20
0.2
 10
84.125
 20
1.2
 42
-1.0
 10
84.375
 20
1.2
  0
LWPOLYLINE
  5
415
100
AcDbEntity
  8
SOLDERMASK_PADS_TOP
100
AcDbPolyline
 90
        4
 70
         1
 10
83.875
 20
0.2
 42
-1.0
 10
83.625
 20
0.2
 10
83.625
 20
1.2
 42
-1.0
 10
83.875
 20
1.2
  0
LWPOLYLINE
  5
416
100
AcDbEntity
  8
SOLDERMASK_PADS_TOP
100
AcDbPolyline
 90
        4
 70
         1
 10
83.375
 20
0.2
 42
-1.0
 10
83.125
 20
0.2
 10
83.125
 20
1.2
 42
-1.0
 10
83.375
 20
1.2
  0
LWPOLYLINE
  5
417
100
AcDbEntity
  8
SOLDERMASK_PADS_TOP
100
AcDbPolyline
 90
        4
 70
         1
 10
82.875
 20
0.2
 42
-1.0
 10
82.625
 20
0.2
 10
82.625
 20
1.2
 42
-1.0
 10
82.875
 20
1.2
  0
LWPOLYLINE
  5
418
100
AcDbEntity
  8
SOLDERMASK_PADS_TOP
100
AcDbPolyline
 90
        4
 70
         1
 10
82.375
 20
0.2
 42
-1.0
 10
82.125
 20
0.2
 10
82.125
 20
1.2
 42
-1.0
 10
82.375
 20
1.2
  0
LWPOLYLINE
  5
419
100
AcDbEntity
  8
SOLDERMASK_PADS_TOP
100
AcDbPolyline
 90
        4
 70
         1
 10
81.875
 20
0.2
 42
-1.0
 10
81.625
 20
0.2
 10
81.625
 20
1.2
 42
-1.0
 10
81.875
 20
1.2
  0
LWPOLYLINE
  5
41A
100
AcDbEntity
  8
SOLDERMASK_PADS_TOP
100
AcDbPolyline
 90
        4
 70
         1
 10
81.375
 20
0.2
 42
-1.0
 10
81.125
 20
0.2
 10
81.125
 20
1.2
 42
-1.0
 10
81.375
 20
1.2
  0
LWPOLYLINE
  5
41B
100
AcDbEntity
  8
SOLDERMASK_PADS_TOP
100
AcDbPolyline
 90
        4
 70
         1
 10
80.875
 20
0.2
 42
-1.0
 10
80.625
 20
0.2
 10
80.625
 20
1.2
 42
-1.0
 10
80.875
 20
1.2
  0
LWPOLYLINE
  5
41C
100
AcDbEntity
  8
SOLDERMASK_PADS_TOP
100
AcDbPolyline
 90
        4
 70
         1
 10
80.375
 20
0.2
 42
-1.0
 10
80.125
 20
0.2
 10
80.125
 20
1.2
 42
-1.0
 10
80.375
 20
1.2
  0
LWPOLYLINE
  5
41D
100
AcDbEntity
  8
SOLDERMASK_PADS_TOP
100
AcDbPolyline
 90
        4
 70
         1
 10
79.875
 20
0.2
 42
-1.0
 10
79.625
 20
0.2
 10
79.625
 20
1.2
 42
-1.0
 10
79.875
 20
1.2
  0
LWPOLYLINE
  5
41E
100
AcDbEntity
  8
SOLDERMASK_PADS_TOP
100
AcDbPolyline
 90
        4
 70
         1
 10
113.525
 20
28.3
 10
113.525
 20
29.3
 10
114.475
 20
29.3
 10
114.475
 20
28.3
  0
LWPOLYLINE
  5
41F
100
AcDbEntity
  8
SOLDERMASK_PADS_TOP
100
AcDbPolyline
 90
        4
 70
         1
 10
111.925
 20
28.3
 10
111.925
 20
29.3
 10
112.875
 20
29.3
 10
112.875
 20
28.3
  0
LWPOLYLINE
  5
420
100
AcDbEntity
  8
SOLDERMASK_PADS_TOP
100
AcDbPolyline
 90
        4
 70
         1
 10
101.75
 20
18.8
 10
101.75
 20
20.9
 10
103.85
 20
20.9
 10
103.85
 20
18.8
  0
LWPOLYLINE
  5
421
100
AcDbEntity
  8
SOLDERMASK_PADS_TOP
100
AcDbPolyline
 90
        4
 70
         1
 10
101.75
 20
14.3
 10
101.75
 20
16.4
 10
103.85
 20
16.4
 10
103.85
 20
14.3
  0
LWPOLYLINE
  5
422
100
AcDbEntity
  8
SOLDERMASK_PADS_TOP
100
AcDbPolyline
 90
        4
 70
         1
 10
116.2
 20
11.425
 10
116.2
 20
12.375
 10
117.2
 20
12.375
 10
117.2
 20
11.425
  0
LWPOLYLINE
  5
423
100
AcDbEntity
  8
SOLDERMASK_PADS_TOP
100
AcDbPolyline
 90
        4
 70
         1
 10
116.2
 20
13.025
 10
116.2
 20
13.975
 10
117.2
 20
13.975
 10
117.2
 20
13.025
  0
LWPOLYLINE
  5
424
100
AcDbEntity
  8
SOLDERMASK_PADS_TOP
100
AcDbPolyline
 90
        4
 70
         1
 10
116.875
 20
5.25
 42
-1.0
 10
116.875
 20
5.85
 10
117.525
 20
5.85
 42
-1.0
 10
117.525
 20
5.25
  0
LWPOLYLINE
  5
425
100
AcDbEntity
  8
SOLDERMASK_PADS_TOP
100
AcDbPolyline
 90
        4
 70
         1
 10
116.875
 20
7.15
 42
-1.0
 10
116.875
 20
7.75
 10
117.525
 20
7.75
 42
-1.0
 10
117.525
 20
7.15
  0
LWPOLYLINE
  5
426
100
AcDbEntity
  8
SOLDERMASK_PADS_TOP
100
AcDbPolyline
 90
        4
 70
         1
 10
114.875
 20
6.2
 42
-1.0
 10
114.875
 20
6.8
 10
115.525
 20
6.8
 42
-1.0
 10
115.525
 20
6.2
  0
LWPOLYLINE
  5
427
100
AcDbEntity
  8
SOLDERMASK_PADS_TOP
100
AcDbPolyline
 90
        4
 70
         1
 10
160.975
 20
77.75
 10
160.975
 20
78.25
 10
161.625
 20
78.25
 10
161.625
 20
77.75
  0
LWPOLYLINE
  5
428
100
AcDbEntity
  8
SOLDERMASK_PADS_TOP
100
AcDbPolyline
 90
        4
 70
         1
 10
159.575
 20
77.75
 10
159.575
 20
78.25
 10
160.225
 20
78.25
 10
160.225
 20
77.75
  0
LWPOLYLINE
  5
429
100
AcDbEntity
  8
SOLDERMASK_PADS_TOP
100
AcDbPolyline
 90
        4
 70
         1
 10
159.7
 20
89.85
 10
159.7
 20
92.55
 10
161.7
 20
92.55
 10
161.7
 20
89.85
  0
LWPOLYLINE
  5
42A
100
AcDbEntity
  8
SOLDERMASK_PADS_TOP
100
AcDbPolyline
 90
        4
 70
         1
 10
159.7
 20
83.75
 10
159.7
 20
86.45
 10
161.7
 20
86.45
 10
161.7
 20
83.75
  0
LWPOLYLINE
  5
42B
100
AcDbEntity
  8
SOLDERMASK_PADS_TOP
100
AcDbPolyline
 90
        4
 70
         1
 10
170.7
 20
89.849998
 10
170.7
 20
92.549998
 10
172.7
 20
92.549998
 10
172.7
 20
89.849998
  0
CIRCLE
  5
42C
100
AcDbEntity
  8
SOLDERMASK_PADS_TOP
100
AcDbCircle
 10
166.2
 20
91.2
 30
0.0
 40
0.9
  0
CIRCLE
  5
42D
100
AcDbEntity
  8
SOLDERMASK_PADS_TOP
100
AcDbCircle
 10
166.2
 20
86.7
 30
0.0
 40
1.0
  0
LWPOLYLINE
  5
42E
100
AcDbEntity
  8
SOLDERMASK_PADS_TOP
100
AcDbPolyline
 90
        4
 70
         1
 10
170.7
 20
83.849998
 10
170.7
 20
86.549998
 10
172.7
 20
86.549998
 10
172.7
 20
83.849998
  0
LWPOLYLINE
  5
42F
100
AcDbEntity
  8
SOLDERMASK_PADS_TOP
100
AcDbPolyline
 90
        4
 70
         1
 10
141.8
 20
87.15
 10
141.8
 20
91.75
 10
146.0
 20
91.75
 10
146.0
 20
87.15
  0
LWPOLYLINE
  5
430
100
AcDbEntity
  8
SOLDERMASK_PADS_TOP
100
AcDbPolyline
 90
        4
 70
         1
 10
154.7
 20
87.15
 10
154.7
 20
91.75
 10
158.9
 20
91.75
 10
158.9
 20
87.15
  0
LWPOLYLINE
  5
431
100
AcDbEntity
  8
SOLDERMASK_PADS_TOP
100
AcDbPolyline
 90
        4
 70
         1
 10
154.42
 20
76.81
 42
-1.0
 10
155.18
 20
76.81
 10
155.18
 20
73.39
 42
-1.0
 10
154.42
 20
73.39
  0
LWPOLYLINE
  5
432
100
AcDbEntity
  8
SOLDERMASK_PADS_TOP
100
AcDbPolyline
 90
        4
 70
         1
 10
153.15
 20
76.81
 42
-1.0
 10
153.91
 20
76.81
 10
153.91
 20
73.39
 42
-1.0
 10
153.15
 20
73.39
  0
LWPOLYLINE
  5
433
100
AcDbEntity
  8
SOLDERMASK_PADS_TOP
100
AcDbPolyline
 90
        4
 70
         1
 10
151.88
 20
76.81
 42
-1.0
 10
152.64
 20
76.81
 10
152.64
 20
73.39
 42
-1.0
 10
151.88
 20
73.39
  0
LWPOLYLINE
  5
434
100
AcDbEntity
  8
SOLDERMASK_PADS_TOP
100
AcDbPolyline
 90
        4
 70
         1
 10
150.61
 20
76.81
 42
-1.0
 10
151.37
 20
76.81
 10
151.37
 20
73.39
 42
-1.0
 10
150.61
 20
73.39
  0
LWPOLYLINE
  5
435
100
AcDbEntity
  8
SOLDERMASK_PADS_TOP
100
AcDbPolyline
 90
        4
 70
         1
 10
149.34
 20
76.81
 42
-1.0
 10
150.1
 20
76.81
 10
150.1
 20
73.39
 42
-1.0
 10
149.34
 20
73.39
  0
LWPOLYLINE
  5
436
100
AcDbEntity
  8
SOLDERMASK_PADS_TOP
100
AcDbPolyline
 90
        4
 70
         1
 10
148.07
 20
76.81
 42
-1.0
 10
148.83
 20
76.81
 10
148.83
 20
73.39
 42
-1.0
 10
148.07
 20
73.39
  0
LWPOLYLINE
  5
437
100
AcDbEntity
  8
SOLDERMASK_PADS_TOP
100
AcDbPolyline
 90
        4
 70
         1
 10
146.8
 20
76.81
 42
-1.0
 10
147.56
 20
76.81
 10
147.56
 20
73.39
 42
-1.0
 10
146.8
 20
73.39
  0
LWPOLYLINE
  5
438
100
AcDbEntity
  8
SOLDERMASK_PADS_TOP
100
AcDbPolyline
 90
        4
 70
         1
 10
145.43
 20
76.81
 42
-1.0
 10
146.19
 20
76.81
 10
146.19
 20
73.39
 42
-1.0
 10
145.43
 20
73.39
  0
LWPOLYLINE
  5
439
100
AcDbEntity
  8
SOLDERMASK_PADS_TOP
100
AcDbPolyline
 90
        4
 70
         1
 10
129.55
 20
3.6
 42
-1.0
 10
130.45
 20
3.6
 10
130.45
 20
1.5
 42
-1.0
 10
129.55
 20
1.5
  0
LWPOLYLINE
  5
43A
100
AcDbEntity
  8
SOLDERMASK_PADS_TOP
100
AcDbPolyline
 90
        4
 70
         1
 10
129.55
 20
7.8
 42
-1.0
 10
130.45
 20
7.8
 10
130.45
 20
5.7
 42
-1.0
 10
129.55
 20
5.7
  0
LWPOLYLINE
  5
43B
100
AcDbEntity
  8
SOLDERMASK_PADS_TOP
100
AcDbPolyline
 90
        4
 70
         1
 10
131.55
 20
3.6
 42
-1.0
 10
132.45
 20
3.6
 10
132.45
 20
1.5
 42
-1.0
 10
131.55
 20
1.5
  0
LWPOLYLINE
  5
43C
100
AcDbEntity
  8
SOLDERMASK_PADS_TOP
100
AcDbPolyline
 90
        4
 70
         1
 10
131.55
 20
7.8
 42
-1.0
 10
132.45
 20
7.8
 10
132.45
 20
5.7
 42
-1.0
 10
131.55
 20
5.7
  0
LWPOLYLINE
  5
43D
100
AcDbEntity
  8
SOLDERMASK_PADS_TOP
100
AcDbPolyline
 90
        4
 70
         1
 10
133.55
 20
3.6
 42
-1.0
 10
134.45
 20
3.6
 10
134.45
 20
1.5
 42
-1.0
 10
133.55
 20
1.5
  0
LWPOLYLINE
  5
43E
100
AcDbEntity
  8
SOLDERMASK_PADS_TOP
100
AcDbPolyline
 90
        4
 70
         1
 10
133.55
 20
7.8
 42
-1.0
 10
134.45
 20
7.8
 10
134.45
 20
5.7
 42
-1.0
 10
133.55
 20
5.7
  0
LWPOLYLINE
  5
43F
100
AcDbEntity
  8
SOLDERMASK_PADS_TOP
100
AcDbPolyline
 90
        4
 70
         1
 10
135.55
 20
3.6
 42
-1.0
 10
136.45
 20
3.6
 10
136.45
 20
1.5
 42
-1.0
 10
135.55
 20
1.5
  0
LWPOLYLINE
  5
440
100
AcDbEntity
  8
SOLDERMASK_PADS_TOP
100
AcDbPolyline
 90
        4
 70
         1
 10
135.55
 20
7.8
 42
-1.0
 10
136.45
 20
7.8
 10
136.45
 20
5.7
 42
-1.0
 10
135.55
 20
5.7
  0
LWPOLYLINE
  5
441
100
AcDbEntity
  8
SOLDERMASK_PADS_TOP
100
AcDbPolyline
 90
        4
 70
         1
 10
137.55
 20
3.6
 42
-1.0
 10
138.45
 20
3.6
 10
138.45
 20
1.5
 42
-1.0
 10
137.55
 20
1.5
  0
LWPOLYLINE
  5
442
100
AcDbEntity
  8
SOLDERMASK_PADS_TOP
100
AcDbPolyline
 90
        4
 70
         1
 10
137.55
 20
7.8
 42
-1.0
 10
138.45
 20
7.8
 10
138.45
 20
5.7
 42
-1.0
 10
137.55
 20
5.7
  0
LWPOLYLINE
  5
443
100
AcDbEntity
  8
SOLDERMASK_PADS_TOP
100
AcDbPolyline
 90
        4
 70
         1
 10
139.55
 20
3.6
 42
-1.0
 10
140.45
 20
3.6
 10
140.45
 20
1.5
 42
-1.0
 10
139.55
 20
1.5
  0
LWPOLYLINE
  5
444
100
AcDbEntity
  8
SOLDERMASK_PADS_TOP
100
AcDbPolyline
 90
        4
 70
         1
 10
139.55
 20
7.8
 42
-1.0
 10
140.45
 20
7.8
 10
140.45
 20
5.7
 42
-1.0
 10
139.55
 20
5.7
  0
LWPOLYLINE
  5
445
100
AcDbEntity
  8
SOLDERMASK_PADS_TOP
100
AcDbPolyline
 90
        4
 70
         1
 10
141.55
 20
3.6
 42
-1.0
 10
142.45
 20
3.6
 10
142.45
 20
1.5
 42
-1.0
 10
141.55
 20
1.5
  0
LWPOLYLINE
  5
446
100
AcDbEntity
  8
SOLDERMASK_PADS_TOP
100
AcDbPolyline
 90
        4
 70
         1
 10
141.55
 20
7.8
 42
-1.0
 10
142.45
 20
7.8
 10
142.45
 20
5.7
 42
-1.0
 10
141.55
 20
5.7
  0
LWPOLYLINE
  5
447
100
AcDbEntity
  8
SOLDERMASK_PADS_TOP
100
AcDbPolyline
 90
        4
 70
         1
 10
143.55
 20
3.6
 42
-1.0
 10
144.45
 20
3.6
 10
144.45
 20
1.5
 42
-1.0
 10
143.55
 20
1.5
  0
LWPOLYLINE
  5
448
100
AcDbEntity
  8
SOLDERMASK_PADS_TOP
100
AcDbPolyline
 90
        4
 70
         1
 10
143.55
 20
7.8
 42
-1.0
 10
144.45
 20
7.8
 10
144.45
 20
5.7
 42
-1.0
 10
143.55
 20
5.7
  0
LWPOLYLINE
  5
449
100
AcDbEntity
  8
SOLDERMASK_PADS_TOP
100
AcDbPolyline
 90
        4
 70
         1
 10
145.55
 20
3.6
 42
-1.0
 10
146.45
 20
3.6
 10
146.45
 20
1.5
 42
-1.0
 10
145.55
 20
1.5
  0
LWPOLYLINE
  5
44A
100
AcDbEntity
  8
SOLDERMASK_PADS_TOP
100
AcDbPolyline
 90
        4
 70
         1
 10
145.55
 20
7.8
 42
-1.0
 10
146.45
 20
7.8
 10
146.45
 20
5.7
 42
-1.0
 10
145.55
 20
5.7
  0
LWPOLYLINE
  5
44B
100
AcDbEntity
  8
SOLDERMASK_PADS_TOP
100
AcDbPolyline
 90
        4
 70
         1
 10
147.55
 20
3.6
 42
-1.0
 10
148.45
 20
3.6
 10
148.45
 20
1.5
 42
-1.0
 10
147.55
 20
1.5
  0
LWPOLYLINE
  5
44C
100
AcDbEntity
  8
SOLDERMASK_PADS_TOP
100
AcDbPolyline
 90
        4
 70
         1
 10
147.55
 20
7.8
 42
-1.0
 10
148.45
 20
7.8
 10
148.45
 20
5.7
 42
-1.0
 10
147.55
 20
5.7
  0
LWPOLYLINE
  5
44D
100
AcDbEntity
  8
SOLDERMASK_PADS_TOP
100
AcDbPolyline
 90
        4
 70
         1
 10
149.55
 20
3.6
 42
-1.0
 10
150.45
 20
3.6
 10
150.45
 20
1.5
 42
-1.0
 10
149.55
 20
1.5
  0
LWPOLYLINE
  5
44E
100
AcDbEntity
  8
SOLDERMASK_PADS_TOP
100
AcDbPolyline
 90
        4
 70
         1
 10
149.55
 20
7.8
 42
-1.0
 10
150.45
 20
7.8
 10
150.45
 20
5.7
 42
-1.0
 10
149.55
 20
5.7
  0
LWPOLYLINE
  5
44F
100
AcDbEntity
  8
SOLDERMASK_PADS_TOP
100
AcDbPolyline
 90
        4
 70
         1
 10
151.55
 20
3.6
 42
-1.0
 10
152.45
 20
3.6
 10
152.45
 20
1.5
 42
-1.0
 10
151.55
 20
1.5
  0
LWPOLYLINE
  5
450
100
AcDbEntity
  8
SOLDERMASK_PADS_TOP
100
AcDbPolyline
 90
        4
 70
         1
 10
151.55
 20
7.8
 42
-1.0
 10
152.45
 20
7.8
 10
152.45
 20
5.7
 42
-1.0
 10
151.55
 20
5.7
  0
LWPOLYLINE
  5
451
100
AcDbEntity
  8
SOLDERMASK_PADS_TOP
100
AcDbPolyline
 90
        4
 70
         1
 10
153.55
 20
3.6
 42
-1.0
 10
154.45
 20
3.6
 10
154.45
 20
1.5
 42
-1.0
 10
153.55
 20
1.5
  0
LWPOLYLINE
  5
452
100
AcDbEntity
  8
SOLDERMASK_PADS_TOP
100
AcDbPolyline
 90
        4
 70
         1
 10
153.55
 20
7.8
 42
-1.0
 10
154.45
 20
7.8
 10
154.45
 20
5.7
 42
-1.0
 10
153.55
 20
5.7
  0
LWPOLYLINE
  5
453
100
AcDbEntity
  8
SOLDERMASK_PADS_TOP
100
AcDbPolyline
 90
        4
 70
         1
 10
155.55
 20
3.6
 42
-1.0
 10
156.45
 20
3.6
 10
156.45
 20
1.5
 42
-1.0
 10
155.55
 20
1.5
  0
LWPOLYLINE
  5
454
100
AcDbEntity
  8
SOLDERMASK_PADS_TOP
100
AcDbPolyline
 90
        4
 70
         1
 10
155.55
 20
7.8
 42
-1.0
 10
156.45
 20
7.8
 10
156.45
 20
5.7
 42
-1.0
 10
155.55
 20
5.7
  0
LWPOLYLINE
  5
455
100
AcDbEntity
  8
SOLDERMASK_PADS_TOP
100
AcDbPolyline
 90
        4
 70
         1
 10
157.55
 20
3.6
 42
-1.0
 10
158.45
 20
3.6
 10
158.45
 20
1.5
 42
-1.0
 10
157.55
 20
1.5
  0
LWPOLYLINE
  5
456
100
AcDbEntity
  8
SOLDERMASK_PADS_TOP
100
AcDbPolyline
 90
        4
 70
         1
 10
157.55
 20
7.8
 42
-1.0
 10
158.45
 20
7.8
 10
158.45
 20
5.7
 42
-1.0
 10
157.55
 20
5.7
  0
LWPOLYLINE
  5
457
100
AcDbEntity
  8
SOLDERMASK_PADS_TOP
100
AcDbPolyline
 90
        4
 70
         1
 10
159.55
 20
3.6
 42
-1.0
 10
160.45
 20
3.6
 10
160.45
 20
1.5
 42
-1.0
 10
159.55
 20
1.5
  0
LWPOLYLINE
  5
458
100
AcDbEntity
  8
SOLDERMASK_PADS_TOP
100
AcDbPolyline
 90
        4
 70
         1
 10
159.55
 20
7.8
 42
-1.0
 10
160.45
 20
7.8
 10
160.45
 20
5.7
 42
-1.0
 10
159.55
 20
5.7
  0
LWPOLYLINE
  5
459
100
AcDbEntity
  8
SOLDERMASK_PADS_TOP
100
AcDbPolyline
 90
        4
 70
         1
 10
161.55
 20
3.6
 42
-1.0
 10
162.45
 20
3.6
 10
162.45
 20
1.5
 42
-1.0
 10
161.55
 20
1.5
  0
LWPOLYLINE
  5
45A
100
AcDbEntity
  8
SOLDERMASK_PADS_TOP
100
AcDbPolyline
 90
        4
 70
         1
 10
161.55
 20
7.8
 42
-1.0
 10
162.45
 20
7.8
 10
162.45
 20
5.7
 42
-1.0
 10
161.55
 20
5.7
  0
LWPOLYLINE
  5
45B
100
AcDbEntity
  8
SOLDERMASK_PADS_TOP
100
AcDbPolyline
 90
        4
 70
         1
 10
163.55
 20
3.6
 42
-1.0
 10
164.45
 20
3.6
 10
164.45
 20
1.5
 42
-1.0
 10
163.55
 20
1.5
  0
LWPOLYLINE
  5
45C
100
AcDbEntity
  8
SOLDERMASK_PADS_TOP
100
AcDbPolyline
 90
        4
 70
         1
 10
163.55
 20
7.8
 42
-1.0
 10
164.45
 20
7.8
 10
164.45
 20
5.7
 42
-1.0
 10
163.55
 20
5.7
  0
LWPOLYLINE
  5
45D
100
AcDbEntity
  8
SOLDERMASK_PADS_TOP
100
AcDbPolyline
 90
        4
 70
         1
 10
165.55
 20
3.6
 42
-1.0
 10
166.45
 20
3.6
 10
166.45
 20
1.5
 42
-1.0
 10
165.55
 20
1.5
  0
LWPOLYLINE
  5
45E
100
AcDbEntity
  8
SOLDERMASK_PADS_TOP
100
AcDbPolyline
 90
        4
 70
         1
 10
165.55
 20
7.8
 42
-1.0
 10
166.45
 20
7.8
 10
166.45
 20
5.7
 42
-1.0
 10
165.55
 20
5.7
  0
LWPOLYLINE
  5
45F
100
AcDbEntity
  8
SOLDERMASK_PADS_TOP
100
AcDbPolyline
 90
        4
 70
         1
 10
167.55
 20
7.8
 42
-1.0
 10
168.45
 20
7.8
 10
168.45
 20
5.7
 42
-1.0
 10
167.55
 20
5.7
  0
LWPOLYLINE
  5
460
100
AcDbEntity
  8
SOLDERMASK_PADS_TOP
100
AcDbPolyline
 90
        4
 70
         1
 10
167.55
 20
3.6
 42
-1.0
 10
168.45
 20
3.6
 10
168.45
 20
1.5
 42
-1.0
 10
167.55
 20
1.5
  0
LWPOLYLINE
  5
461
100
AcDbEntity
  8
SOLDERMASK_PADS_TOP
100
AcDbPolyline
 90
        4
 70
         1
 10
62.125
 20
88.5
 10
62.125
 20
89.5
 10
63.075
 20
89.5
 10
63.075
 20
88.5
  0
LWPOLYLINE
  5
462
100
AcDbEntity
  8
SOLDERMASK_PADS_TOP
100
AcDbPolyline
 90
        4
 70
         1
 10
60.525
 20
88.5
 10
60.525
 20
89.5
 10
61.475
 20
89.5
 10
61.475
 20
88.5
  0
LWPOLYLINE
  5
463
100
AcDbEntity
  8
SOLDERMASK_PADS_TOP
100
AcDbPolyline
 90
        4
 70
         1
 10
159.325
 20
79.2
 10
159.325
 20
80.2
 10
160.275
 20
80.2
 10
160.275
 20
79.2
  0
LWPOLYLINE
  5
464
100
AcDbEntity
  8
SOLDERMASK_PADS_TOP
100
AcDbPolyline
 90
        4
 70
         1
 10
160.925
 20
79.2
 10
160.925
 20
80.2
 10
161.875
 20
80.2
 10
161.875
 20
79.2
  0
CIRCLE
  5
465
100
AcDbEntity
  8
SOLDERMASK_PADS_TOP
100
AcDbCircle
 10
69.85
 20
90.05
 30
0.0
 40
0.525
  0
CIRCLE
  5
466
100
AcDbEntity
  8
SOLDERMASK_PADS_TOP
100
AcDbCircle
 10
74.25
 20
90.05
 30
0.0
 40
0.525
  0
LWPOLYLINE
  5
467
100
AcDbEntity
  8
SOLDERMASK_PADS_TOP
100
AcDbPolyline
 90
        4
 70
         1
 10
72.3
 20
86.575
 42
-1.0
 10
71.8
 20
86.575
 10
71.8
 20
88.825
 42
-1.0
 10
72.3
 20
88.825
  0
LWPOLYLINE
  5
468
100
AcDbEntity
  8
SOLDERMASK_PADS_TOP
100
AcDbPolyline
 90
        4
 70
         1
 10
70.7
 20
86.575
 42
-1.0
 10
70.2
 20
86.575
 10
70.2
 20
88.825
 42
-1.0
 10
70.7
 20
88.825
  0
LWPOLYLINE
  5
469
100
AcDbEntity
  8
SOLDERMASK_PADS_TOP
100
AcDbPolyline
 90
        4
 70
         1
 10
71.5
 20
86.575
 42
-1.0
 10
71.0
 20
86.575
 10
71.0
 20
88.825
 42
-1.0
 10
71.5
 20
88.825
  0
LWPOLYLINE
  5
46A
100
AcDbEntity
  8
SOLDERMASK_PADS_TOP
100
AcDbPolyline
 90
        4
 70
         1
 10
73.1
 20
86.575
 42
-1.0
 10
72.6
 20
86.575
 10
72.6
 20
88.825
 42
-1.0
 10
73.1
 20
88.825
  0
LWPOLYLINE
  5
46B
100
AcDbEntity
  8
SOLDERMASK_PADS_TOP
100
AcDbPolyline
 90
        4
 70
         1
 10
73.9
 20
86.575
 42
-1.0
 10
73.4
 20
86.575
 10
73.4
 20
88.825
 42
-1.0
 10
73.9
 20
88.825
  0
LWPOLYLINE
  5
46C
100
AcDbEntity
  8
SOLDERMASK_PADS_TOP
100
AcDbPolyline
 90
        4
 70
         1
 10
66.6
 20
90.8
 10
66.6
 20
94.3
 10
68.6
 20
94.3
 10
68.6
 20
90.8
  0
LWPOLYLINE
  5
46D
100
AcDbEntity
  8
SOLDERMASK_PADS_TOP
100
AcDbPolyline
 90
        4
 70
         1
 10
75.5
 20
90.8
 10
75.5
 20
94.3
 10
77.5
 20
94.3
 10
77.5
 20
90.8
  0
LWPOLYLINE
  5
46E
100
AcDbEntity
  8
SOLDERMASK_PADS_TOP
100
AcDbPolyline
 90
        4
 70
         1
 10
66.6
 20
86.3
 10
66.6
 20
89.8
 10
68.6
 20
89.8
 10
68.6
 20
86.3
  0
LWPOLYLINE
  5
46F
100
AcDbEntity
  8
SOLDERMASK_PADS_TOP
100
AcDbPolyline
 90
        4
 70
         1
 10
75.5
 20
86.3
 10
75.5
 20
89.8
 10
77.5
 20
89.8
 10
77.5
 20
86.3
  0
LWPOLYLINE
  5
470
100
AcDbEntity
  8
SOLDERMASK_PADS_TOP
100
AcDbPolyline
 90
        4
 70
         1
 10
169.625
 20
15.7
 10
169.625
 20
16.7
 10
170.575
 20
16.7
 10
170.575
 20
15.7
  0
LWPOLYLINE
  5
471
100
AcDbEntity
  8
SOLDERMASK_PADS_TOP
100
AcDbPolyline
 90
        4
 70
         1
 10
171.225
 20
15.7
 10
171.225
 20
16.7
 10
172.175
 20
16.7
 10
172.175
 20
15.7
  0
LWPOLYLINE
  5
472
100
AcDbEntity
  8
SOLDERMASK_PADS_TOP
100
AcDbPolyline
 90
        4
 70
         1
 10
91.6
 20
81.2
 42
-1.0
 10
90.7
 20
81.2
 10
90.7
 20
82.8
 42
-1.0
 10
91.6
 20
82.8
  0
LWPOLYLINE
  5
473
100
AcDbEntity
  8
SOLDERMASK_PADS_TOP
100
AcDbPolyline
 90
        4
 70
         1
 10
93.6
 20
81.2
 42
-1.0
 10
92.7
 20
81.2
 10
92.7
 20
82.8
 42
-1.0
 10
93.6
 20
82.8
  0
LWPOLYLINE
  5
474
100
AcDbEntity
  8
SOLDERMASK_PADS_TOP
100
AcDbPolyline
 90
        4
 70
         1
 10
96.1
 20
81.2
 42
-1.0
 10
95.2
 20
81.2
 10
95.2
 20
82.8
 42
-1.0
 10
96.1
 20
82.8
  0
LWPOLYLINE
  5
475
100
AcDbEntity
  8
SOLDERMASK_PADS_TOP
100
AcDbPolyline
 90
        4
 70
         1
 10
89.1
 20
81.2
 42
-1.0
 10
88.2
 20
81.2
 10
88.2
 20
82.8
 42
-1.0
 10
89.1
 20
82.8
  0
LWPOLYLINE
  5
476
100
AcDbEntity
  8
SOLDERMASK_PADS_TOP
100
AcDbPolyline
 90
        4
 70
         1
 10
98.15
 20
82.45
 10
98.15
 20
87.45
 10
100.65
 20
87.45
 10
100.65
 20
82.45
  0
LWPOLYLINE
  5
477
100
AcDbEntity
  8
SOLDERMASK_PADS_TOP
100
AcDbPolyline
 90
        4
 70
         1
 10
83.65
 20
82.45
 10
83.65
 20
87.45
 10
86.15
 20
87.45
 10
86.15
 20
82.45
  0
LWPOLYLINE
  5
478
100
AcDbEntity
  8
SOLDERMASK_PADS_TOP
100
AcDbPolyline
 90
        4
 70
         1
 10
73.95
 20
60.201564
 10
73.95
 20
64.801564
 10
78.45
 20
64.801564
 10
78.45
 20
60.201564
  0
LWPOLYLINE
  5
479
100
AcDbEntity
  8
SOLDERMASK_PADS_TOP
100
AcDbPolyline
 90
        4
 70
         1
 10
8.85
 20
60.201564
 10
8.85
 20
64.801564
 10
13.35
 20
64.801564
 10
13.35
 20
60.201564
  0
LWPOLYLINE
  5
47A
100
AcDbEntity
  8
SOLDERMASK_PADS_TOP
100
AcDbPolyline
 90
        4
 70
         1
 10
75.479269
 20
77.776337
 42
-1.0
 10
75.129269
 20
77.776337
 10
75.129269
 20
79.426337
 42
-1.0
 10
75.479269
 20
79.426337
  0
LWPOLYLINE
  5
47B
100
AcDbEntity
  8
SOLDERMASK_PADS_TOP
100
AcDbPolyline
 90
        4
 70
         1
 10
74.879269
 20
77.776337
 42
-1.0
 10
74.529269
 20
77.776337
 10
74.529269
 20
79.426337
 42
-1.0
 10
74.879269
 20
79.426337
  0
LWPOLYLINE
  5
47C
100
AcDbEntity
  8
SOLDERMASK_PADS_TOP
100
AcDbPolyline
 90
        4
 70
         1
 10
74.279269
 20
77.776337
 42
-1.0
 10
73.929269
 20
77.776337
 10
73.929269
 20
79.426337
 42
-1.0
 10
74.279269
 20
79.426337
  0
LWPOLYLINE
  5
47D
100
AcDbEntity
  8
SOLDERMASK_PADS_TOP
100
AcDbPolyline
 90
        4
 70
         1
 10
73.679269
 20
77.776337
 42
-1.0
 10
73.329269
 20
77.776337
 10
73.329269
 20
79.426337
 42
-1.0
 10
73.679269
 20
79.426337
  0
LWPOLYLINE
  5
47E
100
AcDbEntity
  8
SOLDERMASK_PADS_TOP
100
AcDbPolyline
 90
        4
 70
         1
 10
73.079269
 20
77.776337
 42
-1.0
 10
72.729269
 20
77.776337
 10
72.729269
 20
79.426337
 42
-1.0
 10
73.079269
 20
79.426337
  0
LWPOLYLINE
  5
47F
100
AcDbEntity
  8
SOLDERMASK_PADS_TOP
100
AcDbPolyline
 90
        4
 70
         1
 10
72.479269
 20
77.776337
 42
-1.0
 10
72.129269
 20
77.776337
 10
72.129269
 20
79.426337
 42
-1.0
 10
72.479269
 20
79.426337
  0
LWPOLYLINE
  5
480
100
AcDbEntity
  8
SOLDERMASK_PADS_TOP
100
AcDbPolyline
 90
        4
 70
         1
 10
71.879269
 20
77.776337
 42
-1.0
 10
71.529269
 20
77.776337
 10
71.529269
 20
79.426337
 42
-1.0
 10
71.879269
 20
79.426337
  0
LWPOLYLINE
  5
481
100
AcDbEntity
  8
SOLDERMASK_PADS_TOP
100
AcDbPolyline
 90
        4
 70
         1
 10
71.279269
 20
77.776337
 42
-1.0
 10
70.929269
 20
77.776337
 10
70.929269
 20
79.426337
 42
-1.0
 10
71.279269
 20
79.426337
  0
LWPOLYLINE
  5
482
100
AcDbEntity
  8
SOLDERMASK_PADS_TOP
100
AcDbPolyline
 90
        4
 70
         1
 10
70.679269
 20
77.776337
 42
-1.0
 10
70.329269
 20
77.776337
 10
70.329269
 20
79.426337
 42
-1.0
 10
70.679269
 20
79.426337
  0
LWPOLYLINE
  5
483
100
AcDbEntity
  8
SOLDERMASK_PADS_TOP
100
AcDbPolyline
 90
        4
 70
         1
 10
70.079269
 20
77.776337
 42
-1.0
 10
69.729269
 20
77.776337
 10
69.729269
 20
79.426337
 42
-1.0
 10
70.079269
 20
79.426337
  0
LWPOLYLINE
  5
484
100
AcDbEntity
  8
SOLDERMASK_PADS_TOP
100
AcDbPolyline
 90
        4
 70
         1
 10
69.479269
 20
77.776337
 42
-1.0
 10
69.129269
 20
77.776337
 10
69.129269
 20
79.426337
 42
-1.0
 10
69.479269
 20
79.426337
  0
LWPOLYLINE
  5
485
100
AcDbEntity
  8
SOLDERMASK_PADS_TOP
100
AcDbPolyline
 90
        4
 70
         1
 10
68.879269
 20
77.776337
 42
-1.0
 10
68.529269
 20
77.776337
 10
68.529269
 20
79.426337
 42
-1.0
 10
68.879269
 20
79.426337
  0
LWPOLYLINE
  5
486
100
AcDbEntity
  8
SOLDERMASK_PADS_TOP
100
AcDbPolyline
 90
        4
 70
         1
 10
68.279269
 20
77.776337
 42
-1.0
 10
67.929269
 20
77.776337
 10
67.929269
 20
79.426337
 42
-1.0
 10
68.279269
 20
79.426337
  0
LWPOLYLINE
  5
487
100
AcDbEntity
  8
SOLDERMASK_PADS_TOP
100
AcDbPolyline
 90
        4
 70
         1
 10
67.679269
 20
77.776337
 42
-1.0
 10
67.329269
 20
77.776337
 10
67.329269
 20
79.426337
 42
-1.0
 10
67.679269
 20
79.426337
  0
LWPOLYLINE
  5
488
100
AcDbEntity
  8
SOLDERMASK_PADS_TOP
100
AcDbPolyline
 90
        4
 70
         1
 10
67.079269
 20
77.776337
 42
-1.0
 10
66.729269
 20
77.776337
 10
66.729269
 20
79.426337
 42
-1.0
 10
67.079269
 20
79.426337
  0
LWPOLYLINE
  5
489
100
AcDbEntity
  8
SOLDERMASK_PADS_TOP
100
AcDbPolyline
 90
        4
 70
         1
 10
66.479269
 20
77.776337
 42
-1.0
 10
66.129269
 20
77.776337
 10
66.129269
 20
79.426337
 42
-1.0
 10
66.479269
 20
79.426337
  0
LWPOLYLINE
  5
48A
100
AcDbEntity
  8
SOLDERMASK_PADS_TOP
100
AcDbPolyline
 90
        4
 70
         1
 10
65.879269
 20
77.776337
 42
-1.0
 10
65.529269
 20
77.776337
 10
65.529269
 20
79.426337
 42
-1.0
 10
65.879269
 20
79.426337
  0
LWPOLYLINE
  5
48B
100
AcDbEntity
  8
SOLDERMASK_PADS_TOP
100
AcDbPolyline
 90
        4
 70
         1
 10
65.279269
 20
77.776337
 42
-1.0
 10
64.929269
 20
77.776337
 10
64.929269
 20
79.426337
 42
-1.0
 10
65.279269
 20
79.426337
  0
LWPOLYLINE
  5
48C
100
AcDbEntity
  8
SOLDERMASK_PADS_TOP
100
AcDbPolyline
 90
        4
 70
         1
 10
64.679269
 20
77.776337
 42
-1.0
 10
64.329269
 20
77.776337
 10
64.329269
 20
79.426337
 42
-1.0
 10
64.679269
 20
79.426337
  0
LWPOLYLINE
  5
48D
100
AcDbEntity
  8
SOLDERMASK_PADS_TOP
100
AcDbPolyline
 90
        4
 70
         1
 10
64.079269
 20
77.776337
 42
-1.0
 10
63.729269
 20
77.776337
 10
63.729269
 20
79.426337
 42
-1.0
 10
64.079269
 20
79.426337
  0
LWPOLYLINE
  5
48E
100
AcDbEntity
  8
SOLDERMASK_PADS_TOP
100
AcDbPolyline
 90
        4
 70
         1
 10
75.178208
 20
69.575227
 42
-1.0
 10
74.828208
 20
69.575227
 10
74.828208
 20
71.225227
 42
-1.0
 10
75.178208
 20
71.225227
  0
LWPOLYLINE
  5
48F
100
AcDbEntity
  8
SOLDERMASK_PADS_TOP
100
AcDbPolyline
 90
        4
 70
         1
 10
74.578208
 20
69.575227
 42
-1.0
 10
74.228208
 20
69.575227
 10
74.228208
 20
71.225227
 42
-1.0
 10
74.578208
 20
71.225227
  0
LWPOLYLINE
  5
490
100
AcDbEntity
  8
SOLDERMASK_PADS_TOP
100
AcDbPolyline
 90
        4
 70
         1
 10
73.978208
 20
69.575227
 42
-1.0
 10
73.628208
 20
69.575227
 10
73.628208
 20
71.225227
 42
-1.0
 10
73.978208
 20
71.225227
  0
LWPOLYLINE
  5
491
100
AcDbEntity
  8
SOLDERMASK_PADS_TOP
100
AcDbPolyline
 90
        4
 70
         1
 10
73.378208
 20
69.575227
 42
-1.0
 10
73.028208
 20
69.575227
 10
73.028208
 20
71.225227
 42
-1.0
 10
73.378208
 20
71.225227
  0
LWPOLYLINE
  5
492
100
AcDbEntity
  8
SOLDERMASK_PADS_TOP
100
AcDbPolyline
 90
        4
 70
         1
 10
72.778208
 20
69.575227
 42
-1.0
 10
72.428208
 20
69.575227
 10
72.428208
 20
71.225227
 42
-1.0
 10
72.778208
 20
71.225227
  0
LWPOLYLINE
  5
493
100
AcDbEntity
  8
SOLDERMASK_PADS_TOP
100
AcDbPolyline
 90
        4
 70
         1
 10
72.178208
 20
69.575227
 42
-1.0
 10
71.828208
 20
69.575227
 10
71.828208
 20
71.225227
 42
-1.0
 10
72.178208
 20
71.225227
  0
LWPOLYLINE
  5
494
100
AcDbEntity
  8
SOLDERMASK_PADS_TOP
100
AcDbPolyline
 90
        4
 70
         1
 10
71.578208
 20
69.575227
 42
-1.0
 10
71.228208
 20
69.575227
 10
71.228208
 20
71.225227
 42
-1.0
 10
71.578208
 20
71.225227
  0
LWPOLYLINE
  5
495
100
AcDbEntity
  8
SOLDERMASK_PADS_TOP
100
AcDbPolyline
 90
        4
 70
         1
 10
70.978208
 20
69.575227
 42
-1.0
 10
70.628208
 20
69.575227
 10
70.628208
 20
71.225227
 42
-1.0
 10
70.978208
 20
71.225227
  0
LWPOLYLINE
  5
496
100
AcDbEntity
  8
SOLDERMASK_PADS_TOP
100
AcDbPolyline
 90
        4
 70
         1
 10
70.378208
 20
69.575227
 42
-1.0
 10
70.028208
 20
69.575227
 10
70.028208
 20
71.225227
 42
-1.0
 10
70.378208
 20
71.225227
  0
LWPOLYLINE
  5
497
100
AcDbEntity
  8
SOLDERMASK_PADS_TOP
100
AcDbPolyline
 90
        4
 70
         1
 10
69.778208
 20
69.575227
 42
-1.0
 10
69.428208
 20
69.575227
 10
69.428208
 20
71.225227
 42
-1.0
 10
69.778208
 20
71.225227
  0
LWPOLYLINE
  5
498
100
AcDbEntity
  8
SOLDERMASK_PADS_TOP
100
AcDbPolyline
 90
        4
 70
         1
 10
69.178208
 20
69.575227
 42
-1.0
 10
68.828208
 20
69.575227
 10
68.828208
 20
71.225227
 42
-1.0
 10
69.178208
 20
71.225227
  0
LWPOLYLINE
  5
499
100
AcDbEntity
  8
SOLDERMASK_PADS_TOP
100
AcDbPolyline
 90
        4
 70
         1
 10
68.578208
 20
69.575227
 42
-1.0
 10
68.228208
 20
69.575227
 10
68.228208
 20
71.225227
 42
-1.0
 10
68.578208
 20
71.225227
  0
LWPOLYLINE
  5
49A
100
AcDbEntity
  8
SOLDERMASK_PADS_TOP
100
AcDbPolyline
 90
        4
 70
         1
 10
67.978208
 20
69.575227
 42
-1.0
 10
67.628208
 20
69.575227
 10
67.628208
 20
71.225227
 42
-1.0
 10
67.978208
 20
71.225227
  0
LWPOLYLINE
  5
49B
100
AcDbEntity
  8
SOLDERMASK_PADS_TOP
100
AcDbPolyline
 90
        4
 70
         1
 10
67.378208
 20
69.575227
 42
-1.0
 10
67.028208
 20
69.575227
 10
67.028208
 20
71.225227
 42
-1.0
 10
67.378208
 20
71.225227
  0
LWPOLYLINE
  5
49C
100
AcDbEntity
  8
SOLDERMASK_PADS_TOP
100
AcDbPolyline
 90
        4
 70
         1
 10
66.778208
 20
69.575227
 42
-1.0
 10
66.428208
 20
69.575227
 10
66.428208
 20
71.225227
 42
-1.0
 10
66.778208
 20
71.225227
  0
LWPOLYLINE
  5
49D
100
AcDbEntity
  8
SOLDERMASK_PADS_TOP
100
AcDbPolyline
 90
        4
 70
         1
 10
66.178208
 20
69.575227
 42
-1.0
 10
65.828208
 20
69.575227
 10
65.828208
 20
71.225227
 42
-1.0
 10
66.178208
 20
71.225227
  0
LWPOLYLINE
  5
49E
100
AcDbEntity
  8
SOLDERMASK_PADS_TOP
100
AcDbPolyline
 90
        4
 70
         1
 10
65.578208
 20
69.575227
 42
-1.0
 10
65.228208
 20
69.575227
 10
65.228208
 20
71.225227
 42
-1.0
 10
65.578208
 20
71.225227
  0
LWPOLYLINE
  5
49F
100
AcDbEntity
  8
SOLDERMASK_PADS_TOP
100
AcDbPolyline
 90
        4
 70
         1
 10
64.978208
 20
69.575227
 42
-1.0
 10
64.628208
 20
69.575227
 10
64.628208
 20
71.225227
 42
-1.0
 10
64.978208
 20
71.225227
  0
LWPOLYLINE
  5
4A0
100
AcDbEntity
  8
SOLDERMASK_PADS_TOP
100
AcDbPolyline
 90
        4
 70
         1
 10
64.378208
 20
69.575227
 42
-1.0
 10
64.028208
 20
69.575227
 10
64.028208
 20
71.225227
 42
-1.0
 10
64.378208
 20
71.225227
  0
LWPOLYLINE
  5
4A1
100
AcDbEntity
  8
SOLDERMASK_PADS_TOP
100
AcDbPolyline
 90
        4
 70
         1
 10
63.778208
 20
69.575227
 42
-1.0
 10
63.428208
 20
69.575227
 10
63.428208
 20
71.225227
 42
-1.0
 10
63.778208
 20
71.225227
  0
LWPOLYLINE
  5
4A2
100
AcDbEntity
  8
SOLDERMASK_PADS_TOP
100
AcDbPolyline
 90
        4
 70
         1
 10
59.872172
 20
77.775196
 42
-1.0
 10
59.522172
 20
77.775196
 10
59.522172
 20
79.425196
 42
-1.0
 10
59.872172
 20
79.425196
  0
LWPOLYLINE
  5
4A3
100
AcDbEntity
  8
SOLDERMASK_PADS_TOP
100
AcDbPolyline
 90
        4
 70
         1
 10
59.272172
 20
77.775196
 42
-1.0
 10
58.922172
 20
77.775196
 10
58.922172
 20
79.425196
 42
-1.0
 10
59.272172
 20
79.425196
  0
LWPOLYLINE
  5
4A4
100
AcDbEntity
  8
SOLDERMASK_PADS_TOP
100
AcDbPolyline
 90
        4
 70
         1
 10
58.672172
 20
77.775196
 42
-1.0
 10
58.322172
 20
77.775196
 10
58.322172
 20
79.425196
 42
-1.0
 10
58.672172
 20
79.425196
  0
LWPOLYLINE
  5
4A5
100
AcDbEntity
  8
SOLDERMASK_PADS_TOP
100
AcDbPolyline
 90
        4
 70
         1
 10
58.072172
 20
77.775196
 42
-1.0
 10
57.722172
 20
77.775196
 10
57.722172
 20
79.425196
 42
-1.0
 10
58.072172
 20
79.425196
  0
LWPOLYLINE
  5
4A6
100
AcDbEntity
  8
SOLDERMASK_PADS_TOP
100
AcDbPolyline
 90
        4
 70
         1
 10
57.472172
 20
77.775196
 42
-1.0
 10
57.122172
 20
77.775196
 10
57.122172
 20
79.425196
 42
-1.0
 10
57.472172
 20
79.425196
  0
LWPOLYLINE
  5
4A7
100
AcDbEntity
  8
SOLDERMASK_PADS_TOP
100
AcDbPolyline
 90
        4
 70
         1
 10
56.872172
 20
77.775196
 42
-1.0
 10
56.522172
 20
77.775196
 10
56.522172
 20
79.425196
 42
-1.0
 10
56.872172
 20
79.425196
  0
LWPOLYLINE
  5
4A8
100
AcDbEntity
  8
SOLDERMASK_PADS_TOP
100
AcDbPolyline
 90
        4
 70
         1
 10
56.272172
 20
77.775196
 42
-1.0
 10
55.922172
 20
77.775196
 10
55.922172
 20
79.425196
 42
-1.0
 10
56.272172
 20
79.425196
  0
LWPOLYLINE
  5
4A9
100
AcDbEntity
  8
SOLDERMASK_PADS_TOP
100
AcDbPolyline
 90
        4
 70
         1
 10
55.672172
 20
77.775196
 42
-1.0
 10
55.322172
 20
77.775196
 10
55.322172
 20
79.425196
 42
-1.0
 10
55.672172
 20
79.425196
  0
LWPOLYLINE
  5
4AA
100
AcDbEntity
  8
SOLDERMASK_PADS_TOP
100
AcDbPolyline
 90
        4
 70
         1
 10
55.072172
 20
77.775196
 42
-1.0
 10
54.722172
 20
77.775196
 10
54.722172
 20
79.425196
 42
-1.0
 10
55.072172
 20
79.425196
  0
LWPOLYLINE
  5
4AB
100
AcDbEntity
  8
SOLDERMASK_PADS_TOP
100
AcDbPolyline
 90
        4
 70
         1
 10
54.472172
 20
77.775196
 42
-1.0
 10
54.122172
 20
77.775196
 10
54.122172
 20
79.425196
 42
-1.0
 10
54.472172
 20
79.425196
  0
LWPOLYLINE
  5
4AC
100
AcDbEntity
  8
SOLDERMASK_PADS_TOP
100
AcDbPolyline
 90
        4
 70
         1
 10
53.872172
 20
77.775196
 42
-1.0
 10
53.522172
 20
77.775196
 10
53.522172
 20
79.425196
 42
-1.0
 10
53.872172
 20
79.425196
  0
LWPOLYLINE
  5
4AD
100
AcDbEntity
  8
SOLDERMASK_PADS_TOP
100
AcDbPolyline
 90
        4
 70
         1
 10
53.272172
 20
77.775196
 42
-1.0
 10
52.922172
 20
77.775196
 10
52.922172
 20
79.425196
 42
-1.0
 10
53.272172
 20
79.425196
  0
LWPOLYLINE
  5
4AE
100
AcDbEntity
  8
SOLDERMASK_PADS_TOP
100
AcDbPolyline
 90
        4
 70
         1
 10
52.672172
 20
77.775196
 42
-1.0
 10
52.322172
 20
77.775196
 10
52.322172
 20
79.425196
 42
-1.0
 10
52.672172
 20
79.425196
  0
LWPOLYLINE
  5
4AF
100
AcDbEntity
  8
SOLDERMASK_PADS_TOP
100
AcDbPolyline
 90
        4
 70
         1
 10
52.072172
 20
77.775196
 42
-1.0
 10
51.722172
 20
77.775196
 10
51.722172
 20
79.425196
 42
-1.0
 10
52.072172
 20
79.425196
  0
LWPOLYLINE
  5
4B0
100
AcDbEntity
  8
SOLDERMASK_PADS_TOP
100
AcDbPolyline
 90
        4
 70
         1
 10
51.472172
 20
77.775196
 42
-1.0
 10
51.122172
 20
77.775196
 10
51.122172
 20
79.425196
 42
-1.0
 10
51.472172
 20
79.425196
  0
LWPOLYLINE
  5
4B1
100
AcDbEntity
  8
SOLDERMASK_PADS_TOP
100
AcDbPolyline
 90
        4
 70
         1
 10
50.872172
 20
77.775196
 42
-1.0
 10
50.522172
 20
77.775196
 10
50.522172
 20
79.425196
 42
-1.0
 10
50.872172
 20
79.425196
  0
LWPOLYLINE
  5
4B2
100
AcDbEntity
  8
SOLDERMASK_PADS_TOP
100
AcDbPolyline
 90
        4
 70
         1
 10
50.272172
 20
77.775196
 42
-1.0
 10
49.922172
 20
77.775196
 10
49.922172
 20
79.425196
 42
-1.0
 10
50.272172
 20
79.425196
  0
LWPOLYLINE
  5
4B3
100
AcDbEntity
  8
SOLDERMASK_PADS_TOP
100
AcDbPolyline
 90
        4
 70
         1
 10
49.672172
 20
77.775196
 42
-1.0
 10
49.322172
 20
77.775196
 10
49.322172
 20
79.425196
 42
-1.0
 10
49.672172
 20
79.425196
  0
LWPOLYLINE
  5
4B4
100
AcDbEntity
  8
SOLDERMASK_PADS_TOP
100
AcDbPolyline
 90
        4
 70
         1
 10
49.072172
 20
77.775196
 42
-1.0
 10
48.722172
 20
77.775196
 10
48.722172
 20
79.425196
 42
-1.0
 10
49.072172
 20
79.425196
  0
LWPOLYLINE
  5
4B5
100
AcDbEntity
  8
SOLDERMASK_PADS_TOP
100
AcDbPolyline
 90
        4
 70
         1
 10
48.472172
 20
77.775196
 42
-1.0
 10
48.122172
 20
77.775196
 10
48.122172
 20
79.425196
 42
-1.0
 10
48.472172
 20
79.425196
  0
LWPOLYLINE
  5
4B6
100
AcDbEntity
  8
SOLDERMASK_PADS_TOP
100
AcDbPolyline
 90
        4
 70
         1
 10
47.872172
 20
77.775196
 42
-1.0
 10
47.522172
 20
77.775196
 10
47.522172
 20
79.425196
 42
-1.0
 10
47.872172
 20
79.425196
  0
LWPOLYLINE
  5
4B7
100
AcDbEntity
  8
SOLDERMASK_PADS_TOP
100
AcDbPolyline
 90
        4
 70
         1
 10
47.272172
 20
77.775196
 42
-1.0
 10
46.922172
 20
77.775196
 10
46.922172
 20
79.425196
 42
-1.0
 10
47.272172
 20
79.425196
  0
LWPOLYLINE
  5
4B8
100
AcDbEntity
  8
SOLDERMASK_PADS_TOP
100
AcDbPolyline
 90
        4
 70
         1
 10
46.672172
 20
77.775196
 42
-1.0
 10
46.322172
 20
77.775196
 10
46.322172
 20
79.425196
 42
-1.0
 10
46.672172
 20
79.425196
  0
LWPOLYLINE
  5
4B9
100
AcDbEntity
  8
SOLDERMASK_PADS_TOP
100
AcDbPolyline
 90
        4
 70
         1
 10
46.072172
 20
77.775196
 42
-1.0
 10
45.722172
 20
77.775196
 10
45.722172
 20
79.425196
 42
-1.0
 10
46.072172
 20
79.425196
  0
LWPOLYLINE
  5
4BA
100
AcDbEntity
  8
SOLDERMASK_PADS_TOP
100
AcDbPolyline
 90
        4
 70
         1
 10
45.472172
 20
77.775196
 42
-1.0
 10
45.122172
 20
77.775196
 10
45.122172
 20
79.425196
 42
-1.0
 10
45.472172
 20
79.425196
  0
LWPOLYLINE
  5
4BB
100
AcDbEntity
  8
SOLDERMASK_PADS_TOP
100
AcDbPolyline
 90
        4
 70
         1
 10
44.872172
 20
77.775196
 42
-1.0
 10
44.522172
 20
77.775196
 10
44.522172
 20
79.425196
 42
-1.0
 10
44.872172
 20
79.425196
  0
LWPOLYLINE
  5
4BC
100
AcDbEntity
  8
SOLDERMASK_PADS_TOP
100
AcDbPolyline
 90
        4
 70
         1
 10
44.272172
 20
77.775196
 42
-1.0
 10
43.922172
 20
77.775196
 10
43.922172
 20
79.425196
 42
-1.0
 10
44.272172
 20
79.425196
  0
LWPOLYLINE
  5
4BD
100
AcDbEntity
  8
SOLDERMASK_PADS_TOP
100
AcDbPolyline
 90
        4
 70
         1
 10
43.672172
 20
77.775196
 42
-1.0
 10
43.322172
 20
77.775196
 10
43.322172
 20
79.425196
 42
-1.0
 10
43.672172
 20
79.425196
  0
LWPOLYLINE
  5
4BE
100
AcDbEntity
  8
SOLDERMASK_PADS_TOP
100
AcDbPolyline
 90
        4
 70
         1
 10
43.072172
 20
77.775196
 42
-1.0
 10
42.722172
 20
77.775196
 10
42.722172
 20
79.425196
 42
-1.0
 10
43.072172
 20
79.425196
  0
LWPOLYLINE
  5
4BF
100
AcDbEntity
  8
SOLDERMASK_PADS_TOP
100
AcDbPolyline
 90
        4
 70
         1
 10
42.472172
 20
77.775196
 42
-1.0
 10
42.122172
 20
77.775196
 10
42.122172
 20
79.425196
 42
-1.0
 10
42.472172
 20
79.425196
  0
LWPOLYLINE
  5
4C0
100
AcDbEntity
  8
SOLDERMASK_PADS_TOP
100
AcDbPolyline
 90
        4
 70
         1
 10
41.872172
 20
77.775196
 42
-1.0
 10
41.522172
 20
77.775196
 10
41.522172
 20
79.425196
 42
-1.0
 10
41.872172
 20
79.425196
  0
LWPOLYLINE
  5
4C1
100
AcDbEntity
  8
SOLDERMASK_PADS_TOP
100
AcDbPolyline
 90
        4
 70
         1
 10
41.272172
 20
77.775196
 42
-1.0
 10
40.922172
 20
77.775196
 10
40.922172
 20
79.425196
 42
-1.0
 10
41.272172
 20
79.425196
  0
LWPOLYLINE
  5
4C2
100
AcDbEntity
  8
SOLDERMASK_PADS_TOP
100
AcDbPolyline
 90
        4
 70
         1
 10
40.672172
 20
77.775196
 42
-1.0
 10
40.322172
 20
77.775196
 10
40.322172
 20
79.425196
 42
-1.0
 10
40.672172
 20
79.425196
  0
LWPOLYLINE
  5
4C3
100
AcDbEntity
  8
SOLDERMASK_PADS_TOP
100
AcDbPolyline
 90
        4
 70
         1
 10
40.072172
 20
77.775196
 42
-1.0
 10
39.722172
 20
77.775196
 10
39.722172
 20
79.425196
 42
-1.0
 10
40.072172
 20
79.425196
  0
LWPOLYLINE
  5
4C4
100
AcDbEntity
  8
SOLDERMASK_PADS_TOP
100
AcDbPolyline
 90
        4
 70
         1
 10
39.472172
 20
77.775196
 42
-1.0
 10
39.122172
 20
77.775196
 10
39.122172
 20
79.425196
 42
-1.0
 10
39.472172
 20
79.425196
  0
LWPOLYLINE
  5
4C5
100
AcDbEntity
  8
SOLDERMASK_PADS_TOP
100
AcDbPolyline
 90
        4
 70
         1
 10
38.872172
 20
77.775196
 42
-1.0
 10
38.522172
 20
77.775196
 10
38.522172
 20
79.425196
 42
-1.0
 10
38.872172
 20
79.425196
  0
LWPOLYLINE
  5
4C6
100
AcDbEntity
  8
SOLDERMASK_PADS_TOP
100
AcDbPolyline
 90
        4
 70
         1
 10
38.272172
 20
77.775196
 42
-1.0
 10
37.922172
 20
77.775196
 10
37.922172
 20
79.425196
 42
-1.0
 10
38.272172
 20
79.425196
  0
LWPOLYLINE
  5
4C7
100
AcDbEntity
  8
SOLDERMASK_PADS_TOP
100
AcDbPolyline
 90
        4
 70
         1
 10
37.672172
 20
77.775196
 42
-1.0
 10
37.322172
 20
77.775196
 10
37.322172
 20
79.425196
 42
-1.0
 10
37.672172
 20
79.425196
  0
LWPOLYLINE
  5
4C8
100
AcDbEntity
  8
SOLDERMASK_PADS_TOP
100
AcDbPolyline
 90
        4
 70
         1
 10
37.072172
 20
77.775196
 42
-1.0
 10
36.722172
 20
77.775196
 10
36.722172
 20
79.425196
 42
-1.0
 10
37.072172
 20
79.425196
  0
LWPOLYLINE
  5
4C9
100
AcDbEntity
  8
SOLDERMASK_PADS_TOP
100
AcDbPolyline
 90
        4
 70
         1
 10
36.472172
 20
77.775196
 42
-1.0
 10
36.122172
 20
77.775196
 10
36.122172
 20
79.425196
 42
-1.0
 10
36.472172
 20
79.425196
  0
LWPOLYLINE
  5
4CA
100
AcDbEntity
  8
SOLDERMASK_PADS_TOP
100
AcDbPolyline
 90
        4
 70
         1
 10
35.872172
 20
77.775196
 42
-1.0
 10
35.522172
 20
77.775196
 10
35.522172
 20
79.425196
 42
-1.0
 10
35.872172
 20
79.425196
  0
LWPOLYLINE
  5
4CB
100
AcDbEntity
  8
SOLDERMASK_PADS_TOP
100
AcDbPolyline
 90
        4
 70
         1
 10
35.272172
 20
77.775196
 42
-1.0
 10
34.922172
 20
77.775196
 10
34.922172
 20
79.425196
 42
-1.0
 10
35.272172
 20
79.425196
  0
LWPOLYLINE
  5
4CC
100
AcDbEntity
  8
SOLDERMASK_PADS_TOP
100
AcDbPolyline
 90
        4
 70
         1
 10
34.672172
 20
77.775196
 42
-1.0
 10
34.322172
 20
77.775196
 10
34.322172
 20
79.425196
 42
-1.0
 10
34.672172
 20
79.425196
  0
LWPOLYLINE
  5
4CD
100
AcDbEntity
  8
SOLDERMASK_PADS_TOP
100
AcDbPolyline
 90
        4
 70
         1
 10
34.072172
 20
77.775196
 42
-1.0
 10
33.722172
 20
77.775196
 10
33.722172
 20
79.425196
 42
-1.0
 10
34.072172
 20
79.425196
  0
LWPOLYLINE
  5
4CE
100
AcDbEntity
  8
SOLDERMASK_PADS_TOP
100
AcDbPolyline
 90
        4
 70
         1
 10
33.472172
 20
77.775196
 42
-1.0
 10
33.122172
 20
77.775196
 10
33.122172
 20
79.425196
 42
-1.0
 10
33.472172
 20
79.425196
  0
LWPOLYLINE
  5
4CF
100
AcDbEntity
  8
SOLDERMASK_PADS_TOP
100
AcDbPolyline
 90
        4
 70
         1
 10
32.872172
 20
77.775196
 42
-1.0
 10
32.522172
 20
77.775196
 10
32.522172
 20
79.425196
 42
-1.0
 10
32.872172
 20
79.425196
  0
LWPOLYLINE
  5
4D0
100
AcDbEntity
  8
SOLDERMASK_PADS_TOP
100
AcDbPolyline
 90
        4
 70
         1
 10
32.272172
 20
77.775196
 42
-1.0
 10
31.922172
 20
77.775196
 10
31.922172
 20
79.425196
 42
-1.0
 10
32.272172
 20
79.425196
  0
LWPOLYLINE
  5
4D1
100
AcDbEntity
  8
SOLDERMASK_PADS_TOP
100
AcDbPolyline
 90
        4
 70
         1
 10
31.672172
 20
77.775196
 42
-1.0
 10
31.322172
 20
77.775196
 10
31.322172
 20
79.425196
 42
-1.0
 10
31.672172
 20
79.425196
  0
LWPOLYLINE
  5
4D2
100
AcDbEntity
  8
SOLDERMASK_PADS_TOP
100
AcDbPolyline
 90
        4
 70
         1
 10
31.072172
 20
77.775196
 42
-1.0
 10
30.722172
 20
77.775196
 10
30.722172
 20
79.425196
 42
-1.0
 10
31.072172
 20
79.425196
  0
LWPOLYLINE
  5
4D3
100
AcDbEntity
  8
SOLDERMASK_PADS_TOP
100
AcDbPolyline
 90
        4
 70
         1
 10
30.472172
 20
77.775196
 42
-1.0
 10
30.122172
 20
77.775196
 10
30.122172
 20
79.425196
 42
-1.0
 10
30.472172
 20
79.425196
  0
LWPOLYLINE
  5
4D4
100
AcDbEntity
  8
SOLDERMASK_PADS_TOP
100
AcDbPolyline
 90
        4
 70
         1
 10
29.872172
 20
77.775196
 42
-1.0
 10
29.522172
 20
77.775196
 10
29.522172
 20
79.425196
 42
-1.0
 10
29.872172
 20
79.425196
  0
LWPOLYLINE
  5
4D5
100
AcDbEntity
  8
SOLDERMASK_PADS_TOP
100
AcDbPolyline
 90
        4
 70
         1
 10
29.272172
 20
77.775196
 42
-1.0
 10
28.922172
 20
77.775196
 10
28.922172
 20
79.425196
 42
-1.0
 10
29.272172
 20
79.425196
  0
LWPOLYLINE
  5
4D6
100
AcDbEntity
  8
SOLDERMASK_PADS_TOP
100
AcDbPolyline
 90
        4
 70
         1
 10
28.672172
 20
77.775196
 42
-1.0
 10
28.322172
 20
77.775196
 10
28.322172
 20
79.425196
 42
-1.0
 10
28.672172
 20
79.425196
  0
LWPOLYLINE
  5
4D7
100
AcDbEntity
  8
SOLDERMASK_PADS_TOP
100
AcDbPolyline
 90
        4
 70
         1
 10
28.072172
 20
77.775196
 42
-1.0
 10
27.722172
 20
77.775196
 10
27.722172
 20
79.425196
 42
-1.0
 10
28.072172
 20
79.425196
  0
LWPOLYLINE
  5
4D8
100
AcDbEntity
  8
SOLDERMASK_PADS_TOP
100
AcDbPolyline
 90
        4
 70
         1
 10
27.472172
 20
77.775196
 42
-1.0
 10
27.122172
 20
77.775196
 10
27.122172
 20
79.425196
 42
-1.0
 10
27.472172
 20
79.425196
  0
LWPOLYLINE
  5
4D9
100
AcDbEntity
  8
SOLDERMASK_PADS_TOP
100
AcDbPolyline
 90
        4
 70
         1
 10
26.872172
 20
77.775196
 42
-1.0
 10
26.522172
 20
77.775196
 10
26.522172
 20
79.425196
 42
-1.0
 10
26.872172
 20
79.425196
  0
LWPOLYLINE
  5
4DA
100
AcDbEntity
  8
SOLDERMASK_PADS_TOP
100
AcDbPolyline
 90
        4
 70
         1
 10
26.272172
 20
77.775196
 42
-1.0
 10
25.922172
 20
77.775196
 10
25.922172
 20
79.425196
 42
-1.0
 10
26.272172
 20
79.425196
  0
LWPOLYLINE
  5
4DB
100
AcDbEntity
  8
SOLDERMASK_PADS_TOP
100
AcDbPolyline
 90
        4
 70
         1
 10
25.672172
 20
77.775196
 42
-1.0
 10
25.322172
 20
77.775196
 10
25.322172
 20
79.425196
 42
-1.0
 10
25.672172
 20
79.425196
  0
LWPOLYLINE
  5
4DC
100
AcDbEntity
  8
SOLDERMASK_PADS_TOP
100
AcDbPolyline
 90
        4
 70
         1
 10
25.072172
 20
77.775196
 42
-1.0
 10
24.722172
 20
77.775196
 10
24.722172
 20
79.425196
 42
-1.0
 10
25.072172
 20
79.425196
  0
LWPOLYLINE
  5
4DD
100
AcDbEntity
  8
SOLDERMASK_PADS_TOP
100
AcDbPolyline
 90
        4
 70
         1
 10
24.472172
 20
77.775196
 42
-1.0
 10
24.122172
 20
77.775196
 10
24.122172
 20
79.425196
 42
-1.0
 10
24.472172
 20
79.425196
  0
LWPOLYLINE
  5
4DE
100
AcDbEntity
  8
SOLDERMASK_PADS_TOP
100
AcDbPolyline
 90
        4
 70
         1
 10
23.872172
 20
77.775196
 42
-1.0
 10
23.522172
 20
77.775196
 10
23.522172
 20
79.425196
 42
-1.0
 10
23.872172
 20
79.425196
  0
LWPOLYLINE
  5
4DF
100
AcDbEntity
  8
SOLDERMASK_PADS_TOP
100
AcDbPolyline
 90
        4
 70
         1
 10
23.272172
 20
77.775196
 42
-1.0
 10
22.922172
 20
77.775196
 10
22.922172
 20
79.425196
 42
-1.0
 10
23.272172
 20
79.425196
  0
LWPOLYLINE
  5
4E0
100
AcDbEntity
  8
SOLDERMASK_PADS_TOP
100
AcDbPolyline
 90
        4
 70
         1
 10
22.672172
 20
77.775196
 42
-1.0
 10
22.322172
 20
77.775196
 10
22.322172
 20
79.425196
 42
-1.0
 10
22.672172
 20
79.425196
  0
LWPOLYLINE
  5
4E1
100
AcDbEntity
  8
SOLDERMASK_PADS_TOP
100
AcDbPolyline
 90
        4
 70
         1
 10
22.072172
 20
77.775196
 42
-1.0
 10
21.722172
 20
77.775196
 10
21.722172
 20
79.425196
 42
-1.0
 10
22.072172
 20
79.425196
  0
LWPOLYLINE
  5
4E2
100
AcDbEntity
  8
SOLDERMASK_PADS_TOP
100
AcDbPolyline
 90
        4
 70
         1
 10
21.472172
 20
77.775196
 42
-1.0
 10
21.122172
 20
77.775196
 10
21.122172
 20
79.425196
 42
-1.0
 10
21.472172
 20
79.425196
  0
LWPOLYLINE
  5
4E3
100
AcDbEntity
  8
SOLDERMASK_PADS_TOP
100
AcDbPolyline
 90
        4
 70
         1
 10
20.872172
 20
77.775196
 42
-1.0
 10
20.522172
 20
77.775196
 10
20.522172
 20
79.425196
 42
-1.0
 10
20.872172
 20
79.425196
  0
LWPOLYLINE
  5
4E4
100
AcDbEntity
  8
SOLDERMASK_PADS_TOP
100
AcDbPolyline
 90
        4
 70
         1
 10
20.272172
 20
77.775196
 42
-1.0
 10
19.922172
 20
77.775196
 10
19.922172
 20
79.425196
 42
-1.0
 10
20.272172
 20
79.425196
  0
LWPOLYLINE
  5
4E5
100
AcDbEntity
  8
SOLDERMASK_PADS_TOP
100
AcDbPolyline
 90
        4
 70
         1
 10
19.672172
 20
77.775196
 42
-1.0
 10
19.322172
 20
77.775196
 10
19.322172
 20
79.425196
 42
-1.0
 10
19.672172
 20
79.425196
  0
LWPOLYLINE
  5
4E6
100
AcDbEntity
  8
SOLDERMASK_PADS_TOP
100
AcDbPolyline
 90
        4
 70
         1
 10
19.072172
 20
77.775196
 42
-1.0
 10
18.722172
 20
77.775196
 10
18.722172
 20
79.425196
 42
-1.0
 10
19.072172
 20
79.425196
  0
LWPOLYLINE
  5
4E7
100
AcDbEntity
  8
SOLDERMASK_PADS_TOP
100
AcDbPolyline
 90
        4
 70
         1
 10
18.472172
 20
77.775196
 42
-1.0
 10
18.122172
 20
77.775196
 10
18.122172
 20
79.425196
 42
-1.0
 10
18.472172
 20
79.425196
  0
LWPOLYLINE
  5
4E8
100
AcDbEntity
  8
SOLDERMASK_PADS_TOP
100
AcDbPolyline
 90
        4
 70
         1
 10
17.872172
 20
77.775196
 42
-1.0
 10
17.522172
 20
77.775196
 10
17.522172
 20
79.425196
 42
-1.0
 10
17.872172
 20
79.425196
  0
LWPOLYLINE
  5
4E9
100
AcDbEntity
  8
SOLDERMASK_PADS_TOP
100
AcDbPolyline
 90
        4
 70
         1
 10
17.272172
 20
77.775196
 42
-1.0
 10
16.922172
 20
77.775196
 10
16.922172
 20
79.425196
 42
-1.0
 10
17.272172
 20
79.425196
  0
LWPOLYLINE
  5
4EA
100
AcDbEntity
  8
SOLDERMASK_PADS_TOP
100
AcDbPolyline
 90
        4
 70
         1
 10
16.672172
 20
77.775196
 42
-1.0
 10
16.322172
 20
77.775196
 10
16.322172
 20
79.425196
 42
-1.0
 10
16.672172
 20
79.425196
  0
LWPOLYLINE
  5
4EB
100
AcDbEntity
  8
SOLDERMASK_PADS_TOP
100
AcDbPolyline
 90
        4
 70
         1
 10
16.072172
 20
77.775196
 42
-1.0
 10
15.722172
 20
77.775196
 10
15.722172
 20
79.425196
 42
-1.0
 10
16.072172
 20
79.425196
  0
LWPOLYLINE
  5
4EC
100
AcDbEntity
  8
SOLDERMASK_PADS_TOP
100
AcDbPolyline
 90
        4
 70
         1
 10
15.472172
 20
77.775196
 42
-1.0
 10
15.122172
 20
77.775196
 10
15.122172
 20
79.425196
 42
-1.0
 10
15.472172
 20
79.425196
  0
LWPOLYLINE
  5
4ED
100
AcDbEntity
  8
SOLDERMASK_PADS_TOP
100
AcDbPolyline
 90
        4
 70
         1
 10
14.872172
 20
77.775196
 42
-1.0
 10
14.522172
 20
77.775196
 10
14.522172
 20
79.425196
 42
-1.0
 10
14.872172
 20
79.425196
  0
LWPOLYLINE
  5
4EE
100
AcDbEntity
  8
SOLDERMASK_PADS_TOP
100
AcDbPolyline
 90
        4
 70
         1
 10
14.272172
 20
77.775196
 42
-1.0
 10
13.922172
 20
77.775196
 10
13.922172
 20
79.425196
 42
-1.0
 10
14.272172
 20
79.425196
  0
LWPOLYLINE
  5
4EF
100
AcDbEntity
  8
SOLDERMASK_PADS_TOP
100
AcDbPolyline
 90
        4
 70
         1
 10
13.672172
 20
77.775196
 42
-1.0
 10
13.322172
 20
77.775196
 10
13.322172
 20
79.425196
 42
-1.0
 10
13.672172
 20
79.425196
  0
LWPOLYLINE
  5
4F0
100
AcDbEntity
  8
SOLDERMASK_PADS_TOP
100
AcDbPolyline
 90
        4
 70
         1
 10
13.072172
 20
77.775196
 42
-1.0
 10
12.722172
 20
77.775196
 10
12.722172
 20
79.425196
 42
-1.0
 10
13.072172
 20
79.425196
  0
LWPOLYLINE
  5
4F1
100
AcDbEntity
  8
SOLDERMASK_PADS_TOP
100
AcDbPolyline
 90
        4
 70
         1
 10
12.472172
 20
77.775196
 42
-1.0
 10
12.122172
 20
77.775196
 10
12.122172
 20
79.425196
 42
-1.0
 10
12.472172
 20
79.425196
  0
LWPOLYLINE
  5
4F2
100
AcDbEntity
  8
SOLDERMASK_PADS_TOP
100
AcDbPolyline
 90
        4
 70
         1
 10
59.572418
 20
69.576717
 42
-1.0
 10
59.222418
 20
69.576717
 10
59.222418
 20
71.226717
 42
-1.0
 10
59.572418
 20
71.226717
  0
LWPOLYLINE
  5
4F3
100
AcDbEntity
  8
SOLDERMASK_PADS_TOP
100
AcDbPolyline
 90
        4
 70
         1
 10
58.972418
 20
69.576717
 42
-1.0
 10
58.622418
 20
69.576717
 10
58.622418
 20
71.226717
 42
-1.0
 10
58.972418
 20
71.226717
  0
LWPOLYLINE
  5
4F4
100
AcDbEntity
  8
SOLDERMASK_PADS_TOP
100
AcDbPolyline
 90
        4
 70
         1
 10
58.372418
 20
69.576717
 42
-1.0
 10
58.022418
 20
69.576717
 10
58.022418
 20
71.226717
 42
-1.0
 10
58.372418
 20
71.226717
  0
LWPOLYLINE
  5
4F5
100
AcDbEntity
  8
SOLDERMASK_PADS_TOP
100
AcDbPolyline
 90
        4
 70
         1
 10
57.772418
 20
69.576717
 42
-1.0
 10
57.422418
 20
69.576717
 10
57.422418
 20
71.226717
 42
-1.0
 10
57.772418
 20
71.226717
  0
LWPOLYLINE
  5
4F6
100
AcDbEntity
  8
SOLDERMASK_PADS_TOP
100
AcDbPolyline
 90
        4
 70
         1
 10
57.172418
 20
69.576717
 42
-1.0
 10
56.822418
 20
69.576717
 10
56.822418
 20
71.226717
 42
-1.0
 10
57.172418
 20
71.226717
  0
LWPOLYLINE
  5
4F7
100
AcDbEntity
  8
SOLDERMASK_PADS_TOP
100
AcDbPolyline
 90
        4
 70
         1
 10
56.572418
 20
69.576717
 42
-1.0
 10
56.222418
 20
69.576717
 10
56.222418
 20
71.226717
 42
-1.0
 10
56.572418
 20
71.226717
  0
LWPOLYLINE
  5
4F8
100
AcDbEntity
  8
SOLDERMASK_PADS_TOP
100
AcDbPolyline
 90
        4
 70
         1
 10
55.972418
 20
69.576717
 42
-1.0
 10
55.622418
 20
69.576717
 10
55.622418
 20
71.226717
 42
-1.0
 10
55.972418
 20
71.226717
  0
LWPOLYLINE
  5
4F9
100
AcDbEntity
  8
SOLDERMASK_PADS_TOP
100
AcDbPolyline
 90
        4
 70
         1
 10
55.372418
 20
69.576717
 42
-1.0
 10
55.022418
 20
69.576717
 10
55.022418
 20
71.226717
 42
-1.0
 10
55.372418
 20
71.226717
  0
LWPOLYLINE
  5
4FA
100
AcDbEntity
  8
SOLDERMASK_PADS_TOP
100
AcDbPolyline
 90
        4
 70
         1
 10
54.772418
 20
69.576717
 42
-1.0
 10
54.422418
 20
69.576717
 10
54.422418
 20
71.226717
 42
-1.0
 10
54.772418
 20
71.226717
  0
LWPOLYLINE
  5
4FB
100
AcDbEntity
  8
SOLDERMASK_PADS_TOP
100
AcDbPolyline
 90
        4
 70
         1
 10
54.172418
 20
69.576717
 42
-1.0
 10
53.822418
 20
69.576717
 10
53.822418
 20
71.226717
 42
-1.0
 10
54.172418
 20
71.226717
  0
LWPOLYLINE
  5
4FC
100
AcDbEntity
  8
SOLDERMASK_PADS_TOP
100
AcDbPolyline
 90
        4
 70
         1
 10
53.572418
 20
69.576717
 42
-1.0
 10
53.222418
 20
69.576717
 10
53.222418
 20
71.226717
 42
-1.0
 10
53.572418
 20
71.226717
  0
LWPOLYLINE
  5
4FD
100
AcDbEntity
  8
SOLDERMASK_PADS_TOP
100
AcDbPolyline
 90
        4
 70
         1
 10
52.972418
 20
69.576717
 42
-1.0
 10
52.622418
 20
69.576717
 10
52.622418
 20
71.226717
 42
-1.0
 10
52.972418
 20
71.226717
  0
LWPOLYLINE
  5
4FE
100
AcDbEntity
  8
SOLDERMASK_PADS_TOP
100
AcDbPolyline
 90
        4
 70
         1
 10
52.372418
 20
69.576717
 42
-1.0
 10
52.022418
 20
69.576717
 10
52.022418
 20
71.226717
 42
-1.0
 10
52.372418
 20
71.226717
  0
LWPOLYLINE
  5
4FF
100
AcDbEntity
  8
SOLDERMASK_PADS_TOP
100
AcDbPolyline
 90
        4
 70
         1
 10
51.772418
 20
69.576717
 42
-1.0
 10
51.422418
 20
69.576717
 10
51.422418
 20
71.226717
 42
-1.0
 10
51.772418
 20
71.226717
  0
LWPOLYLINE
  5
500
100
AcDbEntity
  8
SOLDERMASK_PADS_TOP
100
AcDbPolyline
 90
        4
 70
         1
 10
51.172418
 20
69.576717
 42
-1.0
 10
50.822418
 20
69.576717
 10
50.822418
 20
71.226717
 42
-1.0
 10
51.172418
 20
71.226717
  0
LWPOLYLINE
  5
501
100
AcDbEntity
  8
SOLDERMASK_PADS_TOP
100
AcDbPolyline
 90
        4
 70
         1
 10
50.572418
 20
69.576717
 42
-1.0
 10
50.222418
 20
69.576717
 10
50.222418
 20
71.226717
 42
-1.0
 10
50.572418
 20
71.226717
  0
LWPOLYLINE
  5
502
100
AcDbEntity
  8
SOLDERMASK_PADS_TOP
100
AcDbPolyline
 90
        4
 70
         1
 10
49.972418
 20
69.576717
 42
-1.0
 10
49.622418
 20
69.576717
 10
49.622418
 20
71.226717
 42
-1.0
 10
49.972418
 20
71.226717
  0
LWPOLYLINE
  5
503
100
AcDbEntity
  8
SOLDERMASK_PADS_TOP
100
AcDbPolyline
 90
        4
 70
         1
 10
49.372418
 20
69.576717
 42
-1.0
 10
49.022418
 20
69.576717
 10
49.022418
 20
71.226717
 42
-1.0
 10
49.372418
 20
71.226717
  0
LWPOLYLINE
  5
504
100
AcDbEntity
  8
SOLDERMASK_PADS_TOP
100
AcDbPolyline
 90
        4
 70
         1
 10
48.772418
 20
69.576717
 42
-1.0
 10
48.422418
 20
69.576717
 10
48.422418
 20
71.226717
 42
-1.0
 10
48.772418
 20
71.226717
  0
LWPOLYLINE
  5
505
100
AcDbEntity
  8
SOLDERMASK_PADS_TOP
100
AcDbPolyline
 90
        4
 70
         1
 10
48.172418
 20
69.576717
 42
-1.0
 10
47.822418
 20
69.576717
 10
47.822418
 20
71.226717
 42
-1.0
 10
48.172418
 20
71.226717
  0
LWPOLYLINE
  5
506
100
AcDbEntity
  8
SOLDERMASK_PADS_TOP
100
AcDbPolyline
 90
        4
 70
         1
 10
47.572418
 20
69.576717
 42
-1.0
 10
47.222418
 20
69.576717
 10
47.222418
 20
71.226717
 42
-1.0
 10
47.572418
 20
71.226717
  0
LWPOLYLINE
  5
507
100
AcDbEntity
  8
SOLDERMASK_PADS_TOP
100
AcDbPolyline
 90
        4
 70
         1
 10
46.972418
 20
69.576717
 42
-1.0
 10
46.622418
 20
69.576717
 10
46.622418
 20
71.226717
 42
-1.0
 10
46.972418
 20
71.226717
  0
LWPOLYLINE
  5
508
100
AcDbEntity
  8
SOLDERMASK_PADS_TOP
100
AcDbPolyline
 90
        4
 70
         1
 10
46.372418
 20
69.576717
 42
-1.0
 10
46.022418
 20
69.576717
 10
46.022418
 20
71.226717
 42
-1.0
 10
46.372418
 20
71.226717
  0
LWPOLYLINE
  5
509
100
AcDbEntity
  8
SOLDERMASK_PADS_TOP
100
AcDbPolyline
 90
        4
 70
         1
 10
45.772418
 20
69.576717
 42
-1.0
 10
45.422418
 20
69.576717
 10
45.422418
 20
71.226717
 42
-1.0
 10
45.772418
 20
71.226717
  0
LWPOLYLINE
  5
50A
100
AcDbEntity
  8
SOLDERMASK_PADS_TOP
100
AcDbPolyline
 90
        4
 70
         1
 10
45.172418
 20
69.576717
 42
-1.0
 10
44.822418
 20
69.576717
 10
44.822418
 20
71.226717
 42
-1.0
 10
45.172418
 20
71.226717
  0
LWPOLYLINE
  5
50B
100
AcDbEntity
  8
SOLDERMASK_PADS_TOP
100
AcDbPolyline
 90
        4
 70
         1
 10
44.572418
 20
69.576717
 42
-1.0
 10
44.222418
 20
69.576717
 10
44.222418
 20
71.226717
 42
-1.0
 10
44.572418
 20
71.226717
  0
LWPOLYLINE
  5
50C
100
AcDbEntity
  8
SOLDERMASK_PADS_TOP
100
AcDbPolyline
 90
        4
 70
         1
 10
43.972418
 20
69.576717
 42
-1.0
 10
43.622418
 20
69.576717
 10
43.622418
 20
71.226717
 42
-1.0
 10
43.972418
 20
71.226717
  0
LWPOLYLINE
  5
50D
100
AcDbEntity
  8
SOLDERMASK_PADS_TOP
100
AcDbPolyline
 90
        4
 70
         1
 10
43.372418
 20
69.576717
 42
-1.0
 10
43.022418
 20
69.576717
 10
43.022418
 20
71.226717
 42
-1.0
 10
43.372418
 20
71.226717
  0
LWPOLYLINE
  5
50E
100
AcDbEntity
  8
SOLDERMASK_PADS_TOP
100
AcDbPolyline
 90
        4
 70
         1
 10
42.772418
 20
69.576717
 42
-1.0
 10
42.422418
 20
69.576717
 10
42.422418
 20
71.226717
 42
-1.0
 10
42.772418
 20
71.226717
  0
LWPOLYLINE
  5
50F
100
AcDbEntity
  8
SOLDERMASK_PADS_TOP
100
AcDbPolyline
 90
        4
 70
         1
 10
42.172418
 20
69.576717
 42
-1.0
 10
41.822418
 20
69.576717
 10
41.822418
 20
71.226717
 42
-1.0
 10
42.172418
 20
71.226717
  0
LWPOLYLINE
  5
510
100
AcDbEntity
  8
SOLDERMASK_PADS_TOP
100
AcDbPolyline
 90
        4
 70
         1
 10
41.572418
 20
69.576717
 42
-1.0
 10
41.222418
 20
69.576717
 10
41.222418
 20
71.226717
 42
-1.0
 10
41.572418
 20
71.226717
  0
LWPOLYLINE
  5
511
100
AcDbEntity
  8
SOLDERMASK_PADS_TOP
100
AcDbPolyline
 90
        4
 70
         1
 10
40.972418
 20
69.576717
 42
-1.0
 10
40.622418
 20
69.576717
 10
40.622418
 20
71.226717
 42
-1.0
 10
40.972418
 20
71.226717
  0
LWPOLYLINE
  5
512
100
AcDbEntity
  8
SOLDERMASK_PADS_TOP
100
AcDbPolyline
 90
        4
 70
         1
 10
40.372418
 20
69.576717
 42
-1.0
 10
40.022418
 20
69.576717
 10
40.022418
 20
71.226717
 42
-1.0
 10
40.372418
 20
71.226717
  0
LWPOLYLINE
  5
513
100
AcDbEntity
  8
SOLDERMASK_PADS_TOP
100
AcDbPolyline
 90
        4
 70
         1
 10
39.772418
 20
69.576717
 42
-1.0
 10
39.422418
 20
69.576717
 10
39.422418
 20
71.226717
 42
-1.0
 10
39.772418
 20
71.226717
  0
LWPOLYLINE
  5
514
100
AcDbEntity
  8
SOLDERMASK_PADS_TOP
100
AcDbPolyline
 90
        4
 70
         1
 10
39.172418
 20
69.576717
 42
-1.0
 10
38.822418
 20
69.576717
 10
38.822418
 20
71.226717
 42
-1.0
 10
39.172418
 20
71.226717
  0
LWPOLYLINE
  5
515
100
AcDbEntity
  8
SOLDERMASK_PADS_TOP
100
AcDbPolyline
 90
        4
 70
         1
 10
38.572418
 20
69.576717
 42
-1.0
 10
38.222418
 20
69.576717
 10
38.222418
 20
71.226717
 42
-1.0
 10
38.572418
 20
71.226717
  0
LWPOLYLINE
  5
516
100
AcDbEntity
  8
SOLDERMASK_PADS_TOP
100
AcDbPolyline
 90
        4
 70
         1
 10
37.972418
 20
69.576717
 42
-1.0
 10
37.622418
 20
69.576717
 10
37.622418
 20
71.226717
 42
-1.0
 10
37.972418
 20
71.226717
  0
LWPOLYLINE
  5
517
100
AcDbEntity
  8
SOLDERMASK_PADS_TOP
100
AcDbPolyline
 90
        4
 70
         1
 10
37.372418
 20
69.576717
 42
-1.0
 10
37.022418
 20
69.576717
 10
37.022418
 20
71.226717
 42
-1.0
 10
37.372418
 20
71.226717
  0
LWPOLYLINE
  5
518
100
AcDbEntity
  8
SOLDERMASK_PADS_TOP
100
AcDbPolyline
 90
        4
 70
         1
 10
36.772418
 20
69.576717
 42
-1.0
 10
36.422418
 20
69.576717
 10
36.422418
 20
71.226717
 42
-1.0
 10
36.772418
 20
71.226717
  0
LWPOLYLINE
  5
519
100
AcDbEntity
  8
SOLDERMASK_PADS_TOP
100
AcDbPolyline
 90
        4
 70
         1
 10
36.172418
 20
69.576717
 42
-1.0
 10
35.822418
 20
69.576717
 10
35.822418
 20
71.226717
 42
-1.0
 10
36.172418
 20
71.226717
  0
LWPOLYLINE
  5
51A
100
AcDbEntity
  8
SOLDERMASK_PADS_TOP
100
AcDbPolyline
 90
        4
 70
         1
 10
35.572418
 20
69.576717
 42
-1.0
 10
35.222418
 20
69.576717
 10
35.222418
 20
71.226717
 42
-1.0
 10
35.572418
 20
71.226717
  0
LWPOLYLINE
  5
51B
100
AcDbEntity
  8
SOLDERMASK_PADS_TOP
100
AcDbPolyline
 90
        4
 70
         1
 10
34.972418
 20
69.576717
 42
-1.0
 10
34.622418
 20
69.576717
 10
34.622418
 20
71.226717
 42
-1.0
 10
34.972418
 20
71.226717
  0
LWPOLYLINE
  5
51C
100
AcDbEntity
  8
SOLDERMASK_PADS_TOP
100
AcDbPolyline
 90
        4
 70
         1
 10
34.372418
 20
69.576717
 42
-1.0
 10
34.022418
 20
69.576717
 10
34.022418
 20
71.226717
 42
-1.0
 10
34.372418
 20
71.226717
  0
LWPOLYLINE
  5
51D
100
AcDbEntity
  8
SOLDERMASK_PADS_TOP
100
AcDbPolyline
 90
        4
 70
         1
 10
33.772418
 20
69.576717
 42
-1.0
 10
33.422418
 20
69.576717
 10
33.422418
 20
71.226717
 42
-1.0
 10
33.772418
 20
71.226717
  0
LWPOLYLINE
  5
51E
100
AcDbEntity
  8
SOLDERMASK_PADS_TOP
100
AcDbPolyline
 90
        4
 70
         1
 10
33.172418
 20
69.576717
 42
-1.0
 10
32.822418
 20
69.576717
 10
32.822418
 20
71.226717
 42
-1.0
 10
33.172418
 20
71.226717
  0
LWPOLYLINE
  5
51F
100
AcDbEntity
  8
SOLDERMASK_PADS_TOP
100
AcDbPolyline
 90
        4
 70
         1
 10
32.572418
 20
69.576717
 42
-1.0
 10
32.222418
 20
69.576717
 10
32.222418
 20
71.226717
 42
-1.0
 10
32.572418
 20
71.226717
  0
LWPOLYLINE
  5
520
100
AcDbEntity
  8
SOLDERMASK_PADS_TOP
100
AcDbPolyline
 90
        4
 70
         1
 10
31.972418
 20
69.576717
 42
-1.0
 10
31.622418
 20
69.576717
 10
31.622418
 20
71.226717
 42
-1.0
 10
31.972418
 20
71.226717
  0
LWPOLYLINE
  5
521
100
AcDbEntity
  8
SOLDERMASK_PADS_TOP
100
AcDbPolyline
 90
        4
 70
         1
 10
31.372418
 20
69.576717
 42
-1.0
 10
31.022418
 20
69.576717
 10
31.022418
 20
71.226717
 42
-1.0
 10
31.372418
 20
71.226717
  0
LWPOLYLINE
  5
522
100
AcDbEntity
  8
SOLDERMASK_PADS_TOP
100
AcDbPolyline
 90
        4
 70
         1
 10
30.772418
 20
69.576717
 42
-1.0
 10
30.422418
 20
69.576717
 10
30.422418
 20
71.226717
 42
-1.0
 10
30.772418
 20
71.226717
  0
LWPOLYLINE
  5
523
100
AcDbEntity
  8
SOLDERMASK_PADS_TOP
100
AcDbPolyline
 90
        4
 70
         1
 10
30.172418
 20
69.576717
 42
-1.0
 10
29.822418
 20
69.576717
 10
29.822418
 20
71.226717
 42
-1.0
 10
30.172418
 20
71.226717
  0
LWPOLYLINE
  5
524
100
AcDbEntity
  8
SOLDERMASK_PADS_TOP
100
AcDbPolyline
 90
        4
 70
         1
 10
29.572418
 20
69.576717
 42
-1.0
 10
29.222418
 20
69.576717
 10
29.222418
 20
71.226717
 42
-1.0
 10
29.572418
 20
71.226717
  0
LWPOLYLINE
  5
525
100
AcDbEntity
  8
SOLDERMASK_PADS_TOP
100
AcDbPolyline
 90
        4
 70
         1
 10
28.972418
 20
69.576717
 42
-1.0
 10
28.622418
 20
69.576717
 10
28.622418
 20
71.226717
 42
-1.0
 10
28.972418
 20
71.226717
  0
LWPOLYLINE
  5
526
100
AcDbEntity
  8
SOLDERMASK_PADS_TOP
100
AcDbPolyline
 90
        4
 70
         1
 10
28.372418
 20
69.576717
 42
-1.0
 10
28.022418
 20
69.576717
 10
28.022418
 20
71.226717
 42
-1.0
 10
28.372418
 20
71.226717
  0
LWPOLYLINE
  5
527
100
AcDbEntity
  8
SOLDERMASK_PADS_TOP
100
AcDbPolyline
 90
        4
 70
         1
 10
27.772418
 20
69.576717
 42
-1.0
 10
27.422418
 20
69.576717
 10
27.422418
 20
71.226717
 42
-1.0
 10
27.772418
 20
71.226717
  0
LWPOLYLINE
  5
528
100
AcDbEntity
  8
SOLDERMASK_PADS_TOP
100
AcDbPolyline
 90
        4
 70
         1
 10
27.172418
 20
69.576717
 42
-1.0
 10
26.822418
 20
69.576717
 10
26.822418
 20
71.226717
 42
-1.0
 10
27.172418
 20
71.226717
  0
LWPOLYLINE
  5
529
100
AcDbEntity
  8
SOLDERMASK_PADS_TOP
100
AcDbPolyline
 90
        4
 70
         1
 10
26.572418
 20
69.576717
 42
-1.0
 10
26.222418
 20
69.576717
 10
26.222418
 20
71.226717
 42
-1.0
 10
26.572418
 20
71.226717
  0
LWPOLYLINE
  5
52A
100
AcDbEntity
  8
SOLDERMASK_PADS_TOP
100
AcDbPolyline
 90
        4
 70
         1
 10
25.972418
 20
69.576717
 42
-1.0
 10
25.622418
 20
69.576717
 10
25.622418
 20
71.226717
 42
-1.0
 10
25.972418
 20
71.226717
  0
LWPOLYLINE
  5
52B
100
AcDbEntity
  8
SOLDERMASK_PADS_TOP
100
AcDbPolyline
 90
        4
 70
         1
 10
25.372418
 20
69.576717
 42
-1.0
 10
25.022418
 20
69.576717
 10
25.022418
 20
71.226717
 42
-1.0
 10
25.372418
 20
71.226717
  0
LWPOLYLINE
  5
52C
100
AcDbEntity
  8
SOLDERMASK_PADS_TOP
100
AcDbPolyline
 90
        4
 70
         1
 10
24.772418
 20
69.576717
 42
-1.0
 10
24.422418
 20
69.576717
 10
24.422418
 20
71.226717
 42
-1.0
 10
24.772418
 20
71.226717
  0
LWPOLYLINE
  5
52D
100
AcDbEntity
  8
SOLDERMASK_PADS_TOP
100
AcDbPolyline
 90
        4
 70
         1
 10
24.172418
 20
69.576717
 42
-1.0
 10
23.822418
 20
69.576717
 10
23.822418
 20
71.226717
 42
-1.0
 10
24.172418
 20
71.226717
  0
LWPOLYLINE
  5
52E
100
AcDbEntity
  8
SOLDERMASK_PADS_TOP
100
AcDbPolyline
 90
        4
 70
         1
 10
23.572418
 20
69.576717
 42
-1.0
 10
23.222418
 20
69.576717
 10
23.222418
 20
71.226717
 42
-1.0
 10
23.572418
 20
71.226717
  0
LWPOLYLINE
  5
52F
100
AcDbEntity
  8
SOLDERMASK_PADS_TOP
100
AcDbPolyline
 90
        4
 70
         1
 10
22.972418
 20
69.576717
 42
-1.0
 10
22.622418
 20
69.576717
 10
22.622418
 20
71.226717
 42
-1.0
 10
22.972418
 20
71.226717
  0
LWPOLYLINE
  5
530
100
AcDbEntity
  8
SOLDERMASK_PADS_TOP
100
AcDbPolyline
 90
        4
 70
         1
 10
22.372418
 20
69.576717
 42
-1.0
 10
22.022418
 20
69.576717
 10
22.022418
 20
71.226717
 42
-1.0
 10
22.372418
 20
71.226717
  0
LWPOLYLINE
  5
531
100
AcDbEntity
  8
SOLDERMASK_PADS_TOP
100
AcDbPolyline
 90
        4
 70
         1
 10
21.772418
 20
69.576717
 42
-1.0
 10
21.422418
 20
69.576717
 10
21.422418
 20
71.226717
 42
-1.0
 10
21.772418
 20
71.226717
  0
LWPOLYLINE
  5
532
100
AcDbEntity
  8
SOLDERMASK_PADS_TOP
100
AcDbPolyline
 90
        4
 70
         1
 10
21.172418
 20
69.576717
 42
-1.0
 10
20.822418
 20
69.576717
 10
20.822418
 20
71.226717
 42
-1.0
 10
21.172418
 20
71.226717
  0
LWPOLYLINE
  5
533
100
AcDbEntity
  8
SOLDERMASK_PADS_TOP
100
AcDbPolyline
 90
        4
 70
         1
 10
20.572418
 20
69.576717
 42
-1.0
 10
20.222418
 20
69.576717
 10
20.222418
 20
71.226717
 42
-1.0
 10
20.572418
 20
71.226717
  0
LWPOLYLINE
  5
534
100
AcDbEntity
  8
SOLDERMASK_PADS_TOP
100
AcDbPolyline
 90
        4
 70
         1
 10
19.972418
 20
69.576717
 42
-1.0
 10
19.622418
 20
69.576717
 10
19.622418
 20
71.226717
 42
-1.0
 10
19.972418
 20
71.226717
  0
LWPOLYLINE
  5
535
100
AcDbEntity
  8
SOLDERMASK_PADS_TOP
100
AcDbPolyline
 90
        4
 70
         1
 10
19.372418
 20
69.576717
 42
-1.0
 10
19.022418
 20
69.576717
 10
19.022418
 20
71.226717
 42
-1.0
 10
19.372418
 20
71.226717
  0
LWPOLYLINE
  5
536
100
AcDbEntity
  8
SOLDERMASK_PADS_TOP
100
AcDbPolyline
 90
        4
 70
         1
 10
18.772418
 20
69.576717
 42
-1.0
 10
18.422418
 20
69.576717
 10
18.422418
 20
71.226717
 42
-1.0
 10
18.772418
 20
71.226717
  0
LWPOLYLINE
  5
537
100
AcDbEntity
  8
SOLDERMASK_PADS_TOP
100
AcDbPolyline
 90
        4
 70
         1
 10
18.172418
 20
69.576717
 42
-1.0
 10
17.822418
 20
69.576717
 10
17.822418
 20
71.226717
 42
-1.0
 10
18.172418
 20
71.226717
  0
LWPOLYLINE
  5
538
100
AcDbEntity
  8
SOLDERMASK_PADS_TOP
100
AcDbPolyline
 90
        4
 70
         1
 10
17.572418
 20
69.576717
 42
-1.0
 10
17.222418
 20
69.576717
 10
17.222418
 20
71.226717
 42
-1.0
 10
17.572418
 20
71.226717
  0
LWPOLYLINE
  5
539
100
AcDbEntity
  8
SOLDERMASK_PADS_TOP
100
AcDbPolyline
 90
        4
 70
         1
 10
16.972418
 20
69.576717
 42
-1.0
 10
16.622418
 20
69.576717
 10
16.622418
 20
71.226717
 42
-1.0
 10
16.972418
 20
71.226717
  0
LWPOLYLINE
  5
53A
100
AcDbEntity
  8
SOLDERMASK_PADS_TOP
100
AcDbPolyline
 90
        4
 70
         1
 10
16.372418
 20
69.576717
 42
-1.0
 10
16.022418
 20
69.576717
 10
16.022418
 20
71.226717
 42
-1.0
 10
16.372418
 20
71.226717
  0
LWPOLYLINE
  5
53B
100
AcDbEntity
  8
SOLDERMASK_PADS_TOP
100
AcDbPolyline
 90
        4
 70
         1
 10
15.772418
 20
69.576717
 42
-1.0
 10
15.422418
 20
69.576717
 10
15.422418
 20
71.226717
 42
-1.0
 10
15.772418
 20
71.226717
  0
LWPOLYLINE
  5
53C
100
AcDbEntity
  8
SOLDERMASK_PADS_TOP
100
AcDbPolyline
 90
        4
 70
         1
 10
15.172418
 20
69.576717
 42
-1.0
 10
14.822418
 20
69.576717
 10
14.822418
 20
71.226717
 42
-1.0
 10
15.172418
 20
71.226717
  0
LWPOLYLINE
  5
53D
100
AcDbEntity
  8
SOLDERMASK_PADS_TOP
100
AcDbPolyline
 90
        4
 70
         1
 10
14.572418
 20
69.576717
 42
-1.0
 10
14.222418
 20
69.576717
 10
14.222418
 20
71.226717
 42
-1.0
 10
14.572418
 20
71.226717
  0
LWPOLYLINE
  5
53E
100
AcDbEntity
  8
SOLDERMASK_PADS_TOP
100
AcDbPolyline
 90
        4
 70
         1
 10
13.972418
 20
69.576717
 42
-1.0
 10
13.622418
 20
69.576717
 10
13.622418
 20
71.226717
 42
-1.0
 10
13.972418
 20
71.226717
  0
LWPOLYLINE
  5
53F
100
AcDbEntity
  8
SOLDERMASK_PADS_TOP
100
AcDbPolyline
 90
        4
 70
         1
 10
13.372418
 20
69.576717
 42
-1.0
 10
13.022418
 20
69.576717
 10
13.022418
 20
71.226717
 42
-1.0
 10
13.372418
 20
71.226717
  0
LWPOLYLINE
  5
540
100
AcDbEntity
  8
SOLDERMASK_PADS_TOP
100
AcDbPolyline
 90
        4
 70
         1
 10
12.772418
 20
69.576717
 42
-1.0
 10
12.422418
 20
69.576717
 10
12.422418
 20
71.226717
 42
-1.0
 10
12.772418
 20
71.226717
  0
LWPOLYLINE
  5
541
100
AcDbEntity
  8
SOLDERMASK_PADS_TOP
100
AcDbPolyline
 90
        4
 70
         1
 10
12.172418
 20
69.576717
 42
-1.0
 10
11.822418
 20
69.576717
 10
11.822418
 20
71.226717
 42
-1.0
 10
12.172418
 20
71.226717
  0
LWPOLYLINE
  5
542
100
AcDbEntity
  8
SOLDERMASK_PADS_TOP
100
AcDbPolyline
 90
        4
 70
         1
 10
61.025
 20
9.3
 10
61.025
 20
10.3
 10
61.975
 20
10.3
 10
61.975
 20
9.3
  0
LWPOLYLINE
  5
543
100
AcDbEntity
  8
SOLDERMASK_PADS_TOP
100
AcDbPolyline
 90
        4
 70
         1
 10
62.625
 20
9.3
 10
62.625
 20
10.3
 10
63.575
 20
10.3
 10
63.575
 20
9.3
  0
LWPOLYLINE
  5
544
100
AcDbEntity
  8
SOLDERMASK_PADS_TOP
100
AcDbPolyline
 90
        4
 70
         1
 10
119.3
 20
77.225
 10
119.3
 20
78.175
 10
120.3
 20
78.175
 10
120.3
 20
77.225
  0
LWPOLYLINE
  5
545
100
AcDbEntity
  8
SOLDERMASK_PADS_TOP
100
AcDbPolyline
 90
        4
 70
         1
 10
119.3
 20
75.625
 10
119.3
 20
76.575
 10
120.3
 20
76.575
 10
120.3
 20
75.625
  0
LWPOLYLINE
  5
546
100
AcDbEntity
  8
SOLDERMASK_PADS_TOP
100
AcDbPolyline
 90
        4
 70
         1
 10
61.025
 20
11.2
 10
61.025
 20
12.2
 10
61.975
 20
12.2
 10
61.975
 20
11.2
  0
LWPOLYLINE
  5
547
100
AcDbEntity
  8
SOLDERMASK_PADS_TOP
100
AcDbPolyline
 90
        4
 70
         1
 10
62.625
 20
11.2
 10
62.625
 20
12.2
 10
63.575
 20
12.2
 10
63.575
 20
11.2
  0
LWPOLYLINE
  5
548
100
AcDbEntity
  8
SOLDERMASK_PADS_TOP
100
AcDbPolyline
 90
        4
 70
         1
 10
108.55
 20
84.61
 42
-1.0
 10
108.25
 20
84.61
 10
108.25
 20
86.91
 42
-1.0
 10
108.55
 20
86.91
  0
LWPOLYLINE
  5
549
100
AcDbEntity
  8
SOLDERMASK_PADS_TOP
100
AcDbPolyline
 90
        4
 70
         1
 10
109.05
 20
84.61
 42
-1.0
 10
108.75
 20
84.61
 10
108.75
 20
86.91
 42
-1.0
 10
109.05
 20
86.91
  0
LWPOLYLINE
  5
54A
100
AcDbEntity
  8
SOLDERMASK_PADS_TOP
100
AcDbPolyline
 90
        4
 70
         1
 10
109.55
 20
84.61
 42
-1.0
 10
109.25
 20
84.61
 10
109.25
 20
86.91
 42
-1.0
 10
109.55
 20
86.91
  0
LWPOLYLINE
  5
54B
100
AcDbEntity
  8
SOLDERMASK_PADS_TOP
100
AcDbPolyline
 90
        4
 70
         1
 10
110.05
 20
84.61
 42
-1.0
 10
109.75
 20
84.61
 10
109.75
 20
86.91
 42
-1.0
 10
110.05
 20
86.91
  0
LWPOLYLINE
  5
54C
100
AcDbEntity
  8
SOLDERMASK_PADS_TOP
100
AcDbPolyline
 90
        4
 70
         1
 10
110.55
 20
84.61
 42
-1.0
 10
110.25
 20
84.61
 10
110.25
 20
86.91
 42
-1.0
 10
110.55
 20
86.91
  0
LWPOLYLINE
  5
54D
100
AcDbEntity
  8
SOLDERMASK_PADS_TOP
100
AcDbPolyline
 90
        4
 70
         1
 10
111.05
 20
84.61
 42
-1.0
 10
110.75
 20
84.61
 10
110.75
 20
86.91
 42
-1.0
 10
111.05
 20
86.91
  0
LWPOLYLINE
  5
54E
100
AcDbEntity
  8
SOLDERMASK_PADS_TOP
100
AcDbPolyline
 90
        4
 70
         1
 10
111.55
 20
84.61
 42
-1.0
 10
111.25
 20
84.61
 10
111.25
 20
86.91
 42
-1.0
 10
111.55
 20
86.91
  0
LWPOLYLINE
  5
54F
100
AcDbEntity
  8
SOLDERMASK_PADS_TOP
100
AcDbPolyline
 90
        4
 70
         1
 10
112.05
 20
84.61
 42
-1.0
 10
111.75
 20
84.61
 10
111.75
 20
86.91
 42
-1.0
 10
112.05
 20
86.91
  0
LWPOLYLINE
  5
550
100
AcDbEntity
  8
SOLDERMASK_PADS_TOP
100
AcDbPolyline
 90
        4
 70
         1
 10
112.55
 20
84.61
 42
-1.0
 10
112.25
 20
84.61
 10
112.25
 20
86.91
 42
-1.0
 10
112.55
 20
86.91
  0
LWPOLYLINE
  5
551
100
AcDbEntity
  8
SOLDERMASK_PADS_TOP
100
AcDbPolyline
 90
        4
 70
         1
 10
113.05
 20
84.61
 42
-1.0
 10
112.75
 20
84.61
 10
112.75
 20
86.91
 42
-1.0
 10
113.05
 20
86.91
  0
LWPOLYLINE
  5
552
100
AcDbEntity
  8
SOLDERMASK_PADS_TOP
100
AcDbPolyline
 90
        4
 70
         1
 10
113.55
 20
84.61
 42
-1.0
 10
113.25
 20
84.61
 10
113.25
 20
86.91
 42
-1.0
 10
113.55
 20
86.91
  0
LWPOLYLINE
  5
553
100
AcDbEntity
  8
SOLDERMASK_PADS_TOP
100
AcDbPolyline
 90
        4
 70
         1
 10
114.05
 20
84.61
 42
-1.0
 10
113.75
 20
84.61
 10
113.75
 20
86.91
 42
-1.0
 10
114.05
 20
86.91
  0
LWPOLYLINE
  5
554
100
AcDbEntity
  8
SOLDERMASK_PADS_TOP
100
AcDbPolyline
 90
        4
 70
         1
 10
114.55
 20
84.61
 42
-1.0
 10
114.25
 20
84.61
 10
114.25
 20
86.91
 42
-1.0
 10
114.55
 20
86.91
  0
LWPOLYLINE
  5
555
100
AcDbEntity
  8
SOLDERMASK_PADS_TOP
100
AcDbPolyline
 90
        4
 70
         1
 10
115.05
 20
84.61
 42
-1.0
 10
114.75
 20
84.61
 10
114.75
 20
86.91
 42
-1.0
 10
115.05
 20
86.91
  0
LWPOLYLINE
  5
556
100
AcDbEntity
  8
SOLDERMASK_PADS_TOP
100
AcDbPolyline
 90
        4
 70
         1
 10
115.55
 20
84.61
 42
-1.0
 10
115.25
 20
84.61
 10
115.25
 20
86.91
 42
-1.0
 10
115.55
 20
86.91
  0
LWPOLYLINE
  5
557
100
AcDbEntity
  8
SOLDERMASK_PADS_TOP
100
AcDbPolyline
 90
        4
 70
         1
 10
116.05
 20
84.61
 42
-1.0
 10
115.75
 20
84.61
 10
115.75
 20
86.91
 42
-1.0
 10
116.05
 20
86.91
  0
LWPOLYLINE
  5
558
100
AcDbEntity
  8
SOLDERMASK_PADS_TOP
100
AcDbPolyline
 90
        4
 70
         1
 10
116.55
 20
84.61
 42
-1.0
 10
116.25
 20
84.61
 10
116.25
 20
86.91
 42
-1.0
 10
116.55
 20
86.91
  0
LWPOLYLINE
  5
559
100
AcDbEntity
  8
SOLDERMASK_PADS_TOP
100
AcDbPolyline
 90
        4
 70
         1
 10
117.05
 20
84.61
 42
-1.0
 10
116.75
 20
84.61
 10
116.75
 20
86.91
 42
-1.0
 10
117.05
 20
86.91
  0
LWPOLYLINE
  5
55A
100
AcDbEntity
  8
SOLDERMASK_PADS_TOP
100
AcDbPolyline
 90
        4
 70
         1
 10
117.55
 20
84.61
 42
-1.0
 10
117.25
 20
84.61
 10
117.25
 20
86.91
 42
-1.0
 10
117.55
 20
86.91
  0
LWPOLYLINE
  5
55B
100
AcDbEntity
  8
SOLDERMASK_PADS_TOP
100
AcDbPolyline
 90
        4
 70
         1
 10
119.7
 20
91.23
 10
119.7
 20
93.73
 10
122.2
 20
93.73
 10
122.2
 20
91.23
  0
LWPOLYLINE
  5
55C
100
AcDbEntity
  8
SOLDERMASK_PADS_TOP
100
AcDbPolyline
 90
        4
 70
         1
 10
119.7
 20
85.02
 10
119.7
 20
88.02
 10
122.2
 20
88.02
 10
122.2
 20
85.02
  0
LWPOLYLINE
  5
55D
100
AcDbEntity
  8
SOLDERMASK_PADS_TOP
100
AcDbPolyline
 90
        4
 70
         1
 10
103.6
 20
85.02
 10
103.6
 20
88.02
 10
106.1
 20
88.02
 10
106.1
 20
85.02
  0
LWPOLYLINE
  5
55E
100
AcDbEntity
  8
SOLDERMASK_PADS_TOP
100
AcDbPolyline
 90
        4
 70
         1
 10
103.6
 20
91.23
 10
103.6
 20
93.73
 10
106.1
 20
93.73
 10
106.1
 20
91.23
  0
LWPOLYLINE
  5
55F
100
AcDbEntity
  8
SOLDERMASK_PADS_TOP
100
AcDbPolyline
 90
        4
 70
         1
 10
120.8
 20
77.225
 10
120.8
 20
78.175
 10
121.8
 20
78.175
 10
121.8
 20
77.225
  0
LWPOLYLINE
  5
560
100
AcDbEntity
  8
SOLDERMASK_PADS_TOP
100
AcDbPolyline
 90
        4
 70
         1
 10
120.8
 20
75.625
 10
120.8
 20
76.575
 10
121.8
 20
76.575
 10
121.8
 20
75.625
  0
LWPOLYLINE
  5
561
100
AcDbEntity
  8
SOLDERMASK_PADS_TOP
100
AcDbPolyline
 90
        4
 70
         1
 10
149.15
 20
71.125
 10
149.15
 20
72.075
 10
150.05
 20
72.075
 10
150.05
 20
71.125
  0
LWPOLYLINE
  5
562
100
AcDbEntity
  8
SOLDERMASK_PADS_TOP
100
AcDbPolyline
 90
        4
 70
         1
 10
150.75
 20
71.125
 10
150.75
 20
72.075
 10
151.65
 20
72.075
 10
151.65
 20
71.125
  0
ENDSEC
  0
SECTION
  2
OBJECTS
  0
DICTIONARY
  5
19
100
AcDbDictionary
  3
ACAD_GROUP
350
1A
  3
ACAD_MLINESTYLE
350
1B
  0
DICTIONARY
  5
1A
102
{ACAD_REACTORS
330
19
102
}
100
AcDbDictionary
  0
DICTIONARY
  5
1B
102
{ACAD_REACTORS
330
19
102
}
100
AcDbDictionary
  3
STANDARD
350
1C
  0
MLINESTYLE
  5
1C
102
{ACAD_REACTORS
330
1B
102
}
100
AcDbMlineStyle
  2
STANDARD
 70
         0
  3

 62
         0
 51
90.0
 52
90.0
 71
         2
 49
0.5
 62
       256
  6
BYLAYER
 49
-0.5
 62
       256
  6
BYLAYER
  0
DICTIONARY
  5
22
102
{ACAD_REACTORS
330
19
102
}
100
AcDbDictionary
  0
ENDSEC
  0
EOF
