  0
SECTION
  2
HEADER
  9
$ACADVER
  1
AC1014
  9
$ACADMAINTVER
 70
         0
  9
$DWGCODEPAGE
  3
ANSI_1252
  9
$INSBASE
 10
0.0
 20
0.0
 30
0.0
  9
$EXTMIN
 10
0.0
 20
0.0
 30
0.0
  9
$EXTMAX
 10
100.115625
 20
160.89586
 30
0.0
  9
$LIMMIN
 10
0.0
 20
0.0
  9
$LIMMAX
 10
0.0
 20
0.0
  9
$ORTHOMODE
 70
         0
  9
$REGENMODE
 70
         1
  9
$FILLMODE
 70
         1
  9
$QTEXTMODE
 70
         0
  9
$MIRRTEXT
 70
         1
  9
$DRAGMODE
 70
         2
  9
$LTSCALE
 40
1.0
  9
$OSMODE
 70
         0
  9
$ATTMODE
 70
         1
  9
$TEXTSIZE
 40
0.2
  9
$TRACEWID
 40
0.05
  9
$TEXTSTYLE
  7
STANDARD
  9
$CLAYER
  8
0
  9
$CELTYPE
  6
CONTINUOUS
  9
$CECOLOR
 62
       256
  9
$CELTSCALE
 40
1.0
  9
$DELOBJ
 70
         1
  9
$DISPSILH
 70
         0
  9
$DIMSCALE
 40
1.0
  9
$DIMASZ
 40
0.18
  9
$DIMEXO
 40
0.0625
  9
$DIMDLI
 40
0.38
  9
$DIMRND
 40
0.0
  9
$DIMDLE
 40
0.0
  9
$DIMEXE
 40
0.18
  9
$DIMTP
 40
0.0
  9
$DIMTM
 40
0.0
  9
$DIMTXT
 40
0.18
  9
$DIMCEN
 40
0.09
  9
$DIMTSZ
 40
0.0
  9
$DIMTOL
 70
         0
  9
$DIMLIM
 70
         0
  9
$DIMTIH
 70
         1
  9
$DIMTOH
 70
         1
  9
$DIMSE1
 70
         0
  9
$DIMSE2
 70
         0
  9
$DIMTAD
 70
         0
  9
$DIMZIN
 70
         0
  9
$DIMBLK
  1

  9
$DIMASO
 70
         1
  9
$DIMSHO
 70
         1
  9
$DIMPOST
  1

  9
$DIMAPOST
  1

  9
$DIMALT
 70
         0
  9
$DIMALTD
 70
         2
  9
$DIMALTF
 40
25.4
  9
$DIMLFAC
 40
1.0
  9
$DIMTOFL
 70
         0
  9
$DIMTVP
 40
0.0
  9
$DIMTIX
 70
         0
  9
$DIMSOXD
 70
         0
  9
$DIMSAH
 70
         0
  9
$DIMBLK1
  1

  9
$DIMBLK2
  1

  9
$DIMSTYLE
  2
STANDARD
  9
$DIMCLRD
 70
         0
  9
$DIMCLRE
 70
         0
  9
$DIMCLRT
 70
         0
  9
$DIMTFAC
 40
1.0
  9
$DIMGAP
 40
0.09
  9
$DIMJUST
 70
         0
  9
$DIMSD1
 70
         0
  9
$DIMSD2
 70
         0
  9
$DIMTOLJ
 70
         1
  9
$DIMTZIN
 70
         0
  9
$DIMALTZ
 70
         0
  9
$DIMALTTZ
 70
         0
  9
$DIMFIT
 70
         3
  9
$DIMUPT
 70
         0
  9
$DIMUNIT
 70
         2
  9
$DIMDEC
 70
         4
  9
$DIMTDEC
 70
         4
  9
$DIMALTU
 70
         2
  9
$DIMALTTD
 70
         2
  9
$DIMTXSTY
  7
STANDARD
  9
$DIMAUNIT
 70
         0
  9
$LUNITS
 70
         2
  9
$LUPREC
 70
         4
  9
$SKETCHINC
 40
0.1
  9
$FILLETRAD
 40
0.0
  9
$AUNITS
 70
         0
  9
$AUPREC
 70
         0
  9
$MENU
  1
acad
  9
$ELEVATION
 40
0.0
  9
$PELEVATION
 40
0.0
  9
$THICKNESS
 40
0.0
  9
$LIMCHECK
 70
         0
  9
$BLIPMODE
 70
         1
  9
$CHAMFERA
 40
0.0
  9
$CHAMFERB
 40
0.0
  9
$CHAMFERC
 40
0.0
  9
$CHAMFERD
 40
0.0
  9
$SKPOLY
 70
         0
  9
$TDCREATE
 40
2456693.622546296
  9
$TDUPDATE
 40
0.000000000
  9
$TDINDWG
 40
0.0000000000
  9
$TDUSRTIMER
 40
0.0000000000
  9
$USRTIMER
 70
         1
  9
$ANGBASE
 50
0.0
  9
$ANGDIR
 70
         0
  9
$PDMODE
 70
         0
  9
$PDSIZE
 40
0.0
  9
$PLINEWID
 40
0.0
  9
$COORDS
 70
         0
  9
$SPLFRAME
 70
         0
  9
$SPLINETYPE
 70
         6
  9
$SPLINESEGS
 70
         8
  9
$ATTDIA
 70
         0
  9
$ATTREQ
 70
         1
  9
$HANDLING
 70
         1
  9
$HANDSEED
  5
230
  9
$SURFTAB1
 70
         6
  9
$SURFTAB2
 70
         6
  9
$SURFTYPE
 70
         6
  9
$SURFU
 70
         6
  9
$SURFV
 70
         6
  9
$UCSNAME
  2

  9
$UCSORG
 10
0.0
 20
0.0
 30
0.0
  9
$UCSXDIR
 10
1.0
 20
0.0
 30
0.0
  9
$UCSYDIR
 10
0.0
 20
1.0
 30
0.0
  9
$PUCSNAME
  2

  9
$PUCSORG
 10
0.0
 20
0.0
 30
0.0
  9
$PUCSXDIR
 10
1.0
 20
0.0
 30
0.0
  9
$PUCSYDIR
 10
0.0
 20
1.0
 30
0.0
  9
$USERI1
 70
        -3
  9
$USERI2
 70
         0
  9
$USERI3
 70
         0
  9
$USERI4
 70
         0
  9
$USERI5
 70
         0
  9
$USERR1
 40
0.0
  9
$USERR2
 40
0.0
  9
$USERR3
 40
0.0
  9
$USERR4
 40
0.0
  9
$USERR5
 40
0.0
  9
$WORLDVIEW
 70
         1
  9
$SHADEDGE
 70
         3
  9
$SHADEDIF
 70
        70
  9
$TILEMODE
 70
         1
  9
$MAXACTVP
 70
        16
  9
$PINSBASE
 10
0.0
 20
0.0
 30
0.0
  9
$PLIMCHECK
 70
         0
  9
$PEXTMIN
 10
1.0000000000E+20
 20
1.0000000000E+20
 30
1.0000000000E+20
  9
$PEXTMAX
 10
-1.0000000000E+20
 20
-1.0000000000E+20
 30
-1.0000000000E+20
  9
$PLIMMIN
 10
0.0
 20
0.0
  9
$PLIMMAX
 10
12.0
 20
9.0
  9
$UNITMODE
 70
         0
  9
$VISRETAIN
 70
         0
  9
$PLINEGEN
 70
         1
  9
$PSLTSCALE
 70
         0
  9
$TREEDEPTH
 70
      3020
  9
$PICKSTYLE
 70
         1
  9
$CMLSTYLE
  2
STANDARD
  9
$CMLJUST
 70
         0
  9
$CMLSCALE
 40
1.0
  9
$PROXYGRAPHICS
 70
         0
  9
$MEASUREMENT
 70
         0
  0
ENDSEC
  0
SECTION
  2
CLASSES
  0
CLASS
  1
LWPOLYLINE
  2
AcDbPolyline
  3
"AutoCAD"
 90
        0
280
         0
281
         1
  0
CLASS
  1
IMAGE
  2
AcDbRasterImage
  3
ISM
 90
      127
280
         0
281
         1
  0
CLASS
  1
OLE2FRAME
  2
AcDbOle2Frame
  3
""
 90
        0
280
         0
281
         1
  0
CLASS
  1
HATCH
  2
AcDbHatch
  3
"ACAD_SEDONA"
 90
        0
280
         0
281
         1
  0
CLASS
  1
DICTIONARYVAR
  2
AcDbDictionaryVar
  3
"AutoCAD"
 90
        0
280
         0
281
         0
  0
CLASS
  1
RASTERVARIABLES
  2
AcDbRasterVariables
  3
ISM
 90
        0
280
         0
281
         0
  0
CLASS
  1
IMAGEDEF
  2
AcDbRasterImageDef
  3
ISM
 90
        0
280
         0
281
         0
  0
CLASS
  1
IMAGEDEF_REACTOR
  2
AcDbRasterImageDefReactor
  3
ISM
 90
        1
280
         0
281
         0
  0
CLASS
  1
IDBUFFER
  2
AcDbIdBuffer
  3
"Acad"
 90
        0
280
         0
281
         0
  0
CLASS
  1
SPATIAL_FILTER
  2
AcDbSpatialFilter
  3
"Acad"
 90
        0
280
         0
281
         0
  0
CLASS
  1
XRECORD
  2
AcDbXrecord
  3
"<Built In>"
 90
        0
280
         0
281
         0
  0
CLASS
  1
SORTENTSTABLE
  2
AcDbSortentsTable
  3
"AutoCAD"
 90
        0
280
         0
281
         0
  0
CLASS
  1
LAYER_INDEX
  2
AcDbLayerIndex
  3
"Acad"
 90
        0
280
         0
281
         0
  0
CLASS
  1
SPATIAL_INDEX
  2
AcDbSpatialIndex
  3
"Acad"
 90
        0
280
         0
281
         0
  0
CLASS
  1
OBJECT_PTR
  2
CAseDLPNTableRecord
  3
"ASE-LPNTableRecord"
 90
        1
280
         0
281
         0
  0
CLASS
  1
LAYOUT
  2
AcDbLayout
  3
"AutoCAD 2000"
 90
        0
280
         0
281
         0
  0
CLASS
  1
PLOTSETTINGS
  2
AcDbPlotSettings
  3
"AutoCAD 2000"
 90
        0
280
         0
281
         0
  0
CLASS
  1
ACDBDICTIONARYWDFLT
  2
AcDbDictionaryWithDefault
  3
"AutoCAD 2000"
 90
        0
280
         0
281
         0
  0
CLASS
  1
ACDBPLACEHOLDER
  2
AcDbPlaceHolder
  3
"AutoCAD 2000"
 90
        0
280
         0
281
         0
  0
CLASS
  1
VBA_PROJECT
  2
AcDbVbaProject
  3
"acadvba"
 90
        0
280
         0
281
         0
  0
CLASS
  1
WIPEOUT
  2
AcDbWipeout
  3
WipeOut|AutoCAD Express Tool|expresstools@autodesk.com
 90
      127
280
         0
281
         1
  0
CLASS
  1
WIPEOUTVARIABLES
  2
AcDbWipeoutVariables
  3
WipeOut|AutoCAD Express Tool|expresstools@autodesk.com
 90
        0
280
         0
281
         0
  0
CLASS
  1
RTEXT
  2
RText
  3
RText|AutoCAD Express Tool|expresstools@autodesk.com
 90
        0
280
         0
281
         1
  0
CLASS
  1
ARCALIGNEDTEXT
  2
AcDbArcAlignedText
  3
ATEXT|AutoCAD Express Tool|expresstools@autodesk.com
 90
        0
280
         0
281
         1
  0
ENDSEC
  0
SECTION
  2
TABLES
  0
TABLE
  2
VPORT
  5
7
100
AcDbSymbolTable
 70
         1
  0
VPORT
  5
15
100
AcDbSymbolTableRecord
100
AcDbViewportTableRecord
  2
*ACTIVE
 70
         0
 10
0.0
 20
0.0
 11
1.0
 21
1.0
 12
6.591288
 22
4.579184
 13
0.0
 23
0.0
 14
1.0
 24
1.0
 15
0.0
 25
0.0
 16
0.0
 26
0.0
 36
1.0
 17
0.0
 27
0.0
 37
0.0
 40
9.158369
 41
0.688564
 42
50.0
 43
0.0
 44
0.0
 50
0.0
 51
0.0
 71
         0
 72
       100
 73
         1
 74
         1
 75
         0
 76
         0
 77
         0
 78
         0
  0
ENDTAB
  0
TABLE
  2
LTYPE
  5
4
100
AcDbSymbolTable
 70
         3
  0
LTYPE
  5
11
100
AcDbSymbolTableRecord
100
AcDbLinetypeTableRecord
  2
BYBLOCK
 70
        64
  3

 72
        65
 73
         0
 40
0.0
  0
LTYPE
  5
12
100
AcDbSymbolTableRecord
100
AcDbLinetypeTableRecord
  2
BYLAYER
 70
        64
  3

 72
        65
 73
         0
 40
0.0
  0
LTYPE
  5
13
100
AcDbSymbolTableRecord
100
AcDbLinetypeTableRecord
  2
CONTINUOUS
 70
        64
  3
Solid line
 72
        65
 73
         0
 40
0.0
  0
ENDTAB
  0
TABLE
  2
LAYER
  5
2
100
AcDbSymbolTable
 70
         6
  0
LAYER
  5
14
100
AcDbSymbolTableRecord
100
AcDbLayerTableRecord
  2
0
 70
         0
 62
         7
  6
CONTINUOUS
  0
LAYER
  5
24
100
AcDbSymbolTableRecord
100
AcDbLayerTableRecord
  2
ASSEMBLY_OUTLINES_TOP
 70
         0
 62
       102
  6
CONTINUOUS
  0
LAYER
  5
25
100
AcDbSymbolTableRecord
100
AcDbLayerTableRecord
  2
ASSEMBLY_REF_DES_TOP
 70
         0
 62
       102
  6
CONTINUOUS
  0
LAYER
  5
26
100
AcDbSymbolTableRecord
100
AcDbLayerTableRecord
  2
BOARD_OUTLINE
 70
         0
 62
        10
  6
CONTINUOUS
  0
LAYER
  5
27
100
AcDbSymbolTableRecord
100
AcDbLayerTableRecord
  2
MOUNTING_HOLES_LAYER_TOP
 70
         0
 62
        42
  6
CONTINUOUS
  0
LAYER
  5
28
100
AcDbSymbolTableRecord
100
AcDbLayerTableRecord
  2
PART_HOLES_LAYER_TOP
 70
         0
 62
        30
  6
CONTINUOUS
  0
ENDTAB
  0
TABLE
  2
STYLE
  5
3
100
AcDbSymbolTable
 70
         5
  0
STYLE
  5
17
100
AcDbSymbolTableRecord
100
AcDbTextStyleTableRecord
  2
STANDARD
 70
         0
 40
0.0
 41
1.0
 50
0.0
 71
         0
 42
0.0
  3
txt
  4

  0
STYLE
  5
4D
100
AcDbSymbolTableRecord
100
AcDbTextStyleTableRecord
  2
VERIBEST_GERBER_1
 70
         0
 40
0.0
 41
1.0
 50
0.0
 71
         0
 42
0.0
  3

  4

  0
STYLE
  5
175
100
AcDbSymbolTableRecord
100
AcDbTextStyleTableRecord
  2
GOST_TYPE_B
 70
         0
 40
0.0
 41
1.0
 50
0.0
 71
         0
 42
0.0
  3
gost_0.ttf
  4

  0
STYLE
  5
19F
100
AcDbSymbolTableRecord
100
AcDbTextStyleTableRecord
  2
GOST_D
 70
         0
 40
0.0
 41
1.0
 50
0.0
 71
         0
 42
0.0
  3
GOST.TTF
  4

  0
STYLE
  5
1C8
100
AcDbSymbolTableRecord
100
AcDbTextStyleTableRecord
  2
VERIBEST_GERBER_0
 70
         0
 40
0.0
 41
1.0
 50
0.0
 71
         0
 42
0.0
  3
gost_0.ttf
  4

  0
ENDTAB
  0
TABLE
  2
VIEW
  5
5
100
AcDbSymbolTable
 70
         0
  0
ENDTAB
  0
TABLE
  2
UCS
  5
6
100
AcDbSymbolTable
 70
         0
  0
ENDTAB
  0
TABLE
  2
APPID
  5
8
100
AcDbSymbolTable
 70
         1
  0
APPID
  5
16
100
AcDbSymbolTableRecord
100
AcDbRegAppTableRecord
  2
ACAD
 70
         0
  0
ENDTAB
  0
TABLE
  2
DIMSTYLE
  5
9
100
AcDbSymbolTable
 70
         1
  0
DIMSTYLE
105
18
100
AcDbSymbolTableRecord
100
AcDbDimStyleTableRecord
  2
STANDARD
 70
         0
  3

  4

  5

  6

  7

 40
1.0
 41
0.18
 42
0.0625
 43
0.38
 44
0.18
 45
0.0
 46
0.0
 47
0.0
 48
0.0
 71
         0
 72
         0
 73
         1
 74
         1
 75
         0
 76
         0
 77
         0
 78
         0
140
0.18
141
0.09
142
0.0
143
25.4
144
1.0
145
0.0
146
1.0
147
0.09
170
         0
171
         2
172
         0
173
         0
174
         0
175
         0
176
         0
177
         0
178
         0
270
         2
271
         4
272
         4
273
         2
274
         2
275
         0
280
         0
281
         0
282
         0
283
         1
284
         0
285
         0
286
         0
287
         3
288
         0
340
17
  0
ENDTAB
  0
TABLE
  2
BLOCK_RECORD
  5
1
100
AcDbSymbolTable
 70
         0
  0
BLOCK_RECORD
  5
A
100
AcDbSymbolTableRecord
100
AcDbBlockTableRecord
  2
*MODEL_SPACE
  0
BLOCK_RECORD
  5
B
100
AcDbSymbolTableRecord
100
AcDbBlockTableRecord
  2
*PAPER_SPACE
  0
ENDTAB
  0
ENDSEC
  0
SECTION
  2
BLOCKS
  0
BLOCK
  5
D
100
AcDbEntity
  8
0
100
AcDbBlockBegin
  2
*MODEL_SPACE
 70
         0
 10
0.0
 20
0.0
 30
0.0
  3
*MODEL_SPACE
  1

  0
ENDBLK
  5
E
100
AcDbEntity
  8
0
100
AcDbBlockEnd
  0
BLOCK
  5
F
100
AcDbEntity
 67
         1
  8
0
100
AcDbBlockBegin
  2
*PAPER_SPACE
 70
         0
 10
0.0
 20
0.0
 30
0.0
  3
*PAPER_SPACE
  1

  0
ENDBLK
  5
10
100
AcDbEntity
 67
         1
  8
0
100
AcDbBlockEnd
  0
ENDSEC
  0
SECTION
  2
ENTITIES
  0
LWPOLYLINE
  5
29
100
AcDbEntity
  8
ASSEMBLY_OUTLINES_TOP
100
AcDbPolyline
 90
        3
 70
         1
 10
90.266152
 20
93.19426
 10
89.694652
 20
94.33726
 10
90.837652
 20
94.33726
  0
HATCH
  5
2A
100
AcDbEntity
  8
ASSEMBLY_OUTLINES_TOP
100
AcDbHatch
 10
0.0
 20
0.0
 30
0.0
210
0.0
220
0.0
230
1.0
  2
SOLID
 70
         1
 71
         1
 91
        1
 92
        2
 72
         0
 73
         1
 93
        3
 10
90.266152000000005
 20
93.19426
 10
89.694652000000005
 20
94.337260000000001
 10
90.837652000000006
 20
94.337260000000001
 97
        1
330
29
 75
         0
 76
         1
 98
        1
 10
0.0
 20
0.0
  0
LWPOLYLINE
  5
2B
100
AcDbEntity
  8
ASSEMBLY_OUTLINES_TOP
100
AcDbPolyline
 90
        3
 70
         1
 10
90.266152
 20
160.79426
 10
90.837651
 20
159.65126
 10
89.694652
 20
159.651261
  0
HATCH
  5
2C
100
AcDbEntity
  8
ASSEMBLY_OUTLINES_TOP
100
AcDbHatch
 10
0.0
 20
0.0
 30
0.0
210
0.0
220
0.0
230
1.0
  2
SOLID
 70
         1
 71
         1
 91
        1
 92
        2
 72
         0
 73
         1
 93
        3
 10
90.266152000000005
 20
160.79426000000001
 10
90.837650999999994
 20
159.65126000000001
 10
89.694652000000005
 20
159.65126100000001
 97
        1
330
2B
 75
         0
 76
         1
 98
        1
 10
0.0
 20
0.0
  0
LWPOLYLINE
  5
2D
100
AcDbEntity
  8
ASSEMBLY_OUTLINES_TOP
100
AcDbPolyline
 90
        2
 70
         0
 43
0.2032
 10
90.266152
 20
123.134857
 10
90.266152
 20
93.76576
  0
LWPOLYLINE
  5
2E
100
AcDbEntity
  8
ASSEMBLY_OUTLINES_TOP
100
AcDbPolyline
 90
        2
 70
         0
 43
0.2032
 10
90.266152
 20
160.22276
 10
90.266152
 20
130.853662
  0
LWPOLYLINE
  5
2F
100
AcDbEntity
  8
ASSEMBLY_OUTLINES_TOP
100
AcDbPolyline
 90
        2
 70
         0
 43
0.2032
 10
86.20709
 20
93.19426
 10
90.774152
 20
93.19426
  0
LWPOLYLINE
  5
30
100
AcDbEntity
  8
ASSEMBLY_OUTLINES_TOP
100
AcDbPolyline
 90
        2
 70
         0
 43
0.2032
 10
86.20709
 20
160.79426
 10
90.774152
 20
160.79426
  0
LWPOLYLINE
  5
31
100
AcDbEntity
  8
ASSEMBLY_OUTLINES_TOP
100
AcDbPolyline
 90
        3
 70
         1
 10
85.69909
 20
90.938214
 10
84.55609
 20
90.366715
 10
84.55609
 20
91.509714
  0
HATCH
  5
32
100
AcDbEntity
  8
ASSEMBLY_OUTLINES_TOP
100
AcDbHatch
 10
0.0
 20
0.0
 30
0.0
210
0.0
220
0.0
230
1.0
  2
SOLID
 70
         1
 71
         1
 91
        1
 92
        2
 72
         0
 73
         1
 93
        3
 10
85.699089999999998
 20
90.938214000000002
 10
84.556089999999998
 20
90.366714999999999
 10
84.556089999999998
 20
91.509714000000002
 97
        1
330
31
 75
         0
 76
         1
 98
        1
 10
0.0
 20
0.0
  0
LWPOLYLINE
  5
33
100
AcDbEntity
  8
ASSEMBLY_OUTLINES_TOP
100
AcDbPolyline
 90
        3
 70
         1
 10
27.69909
 20
90.938214
 10
28.84209
 20
91.509714
 10
28.84209
 20
90.366714
  0
HATCH
  5
34
100
AcDbEntity
  8
ASSEMBLY_OUTLINES_TOP
100
AcDbHatch
 10
0.0
 20
0.0
 30
0.0
210
0.0
220
0.0
230
1.0
  2
SOLID
 70
         1
 71
         1
 91
        1
 92
        2
 72
         0
 73
         1
 93
        3
 10
27.699090000000002
 20
90.938214000000002
 10
28.842089999999999
 20
91.509714000000002
 10
28.842089999999999
 20
90.366714000000002
 97
        1
330
33
 75
         0
 76
         1
 98
        1
 10
0.0
 20
0.0
  0
LWPOLYLINE
  5
35
100
AcDbEntity
  8
ASSEMBLY_OUTLINES_TOP
100
AcDbPolyline
 90
        2
 70
         0
 43
0.2032
 10
59.451688
 20
90.938214
 10
85.12759
 20
90.938214
  0
LWPOLYLINE
  5
36
100
AcDbEntity
  8
ASSEMBLY_OUTLINES_TOP
100
AcDbPolyline
 90
        2
 70
         0
 43
0.2032
 10
28.27059
 20
90.938214
 10
53.946492
 20
90.938214
  0
LWPOLYLINE
  5
37
100
AcDbEntity
  8
ASSEMBLY_OUTLINES_TOP
100
AcDbPolyline
 90
        2
 70
         0
 43
0.2032
 10
85.69909
 20
92.68626
 10
85.69909
 20
90.430214
  0
LWPOLYLINE
  5
38
100
AcDbEntity
  8
ASSEMBLY_OUTLINES_TOP
100
AcDbPolyline
 90
        2
 70
         0
 43
0.2032
 10
27.69909
 20
92.68626
 10
27.69909
 20
90.430214
  0
LWPOLYLINE
  5
39
100
AcDbEntity
  8
ASSEMBLY_OUTLINES_TOP
100
AcDbPolyline
 90
        4
 70
         1
 43
0.1
 10
73.4
 20
142.65
 10
73.4
 20
155.95
 10
83.4
 20
155.95
 10
83.4
 20
142.65
  0
LWPOLYLINE
  5
3A
100
AcDbEntity
  8
ASSEMBLY_OUTLINES_TOP
100
AcDbPolyline
 90
        4
 70
         1
 43
0.1
 10
57.85
 20
142.65
 10
57.85
 20
155.95
 10
67.85
 20
155.95
 10
67.85
 20
142.65
  0
CIRCLE
  5
3B
100
AcDbEntity
  8
ASSEMBLY_OUTLINES_TOP
100
AcDbCircle
 10
74.7
 20
95.19
 30
0.0
 40
1.0
  0
HATCH
  5
3C
100
AcDbEntity
  8
ASSEMBLY_OUTLINES_TOP
100
AcDbHatch
 10
0.0
 20
0.0
 30
0.0
210
0.0
220
0.0
230
1.0
  2
SOLID
 70
         1
 71
         1
 91
        1
 92
        1
 93
        1
 72
         2
 10
74.700000000000003
 20
95.189999999999998
 40
1.0
 50
0.0
 51
360.0
 73
         1
 97
        1
330
3B
 75
         0
 76
         1
 98
        1
 10
0.0
 20
0.0
  0
LWPOLYLINE
  5
3D
100
AcDbEntity
  8
ASSEMBLY_OUTLINES_TOP
100
AcDbPolyline
 90
        2
 70
         0
 43
0.2032
 10
27.69909
 20
92.68626
 10
27.69909
 20
87.86695
  0
LWPOLYLINE
  5
3E
100
AcDbEntity
  8
ASSEMBLY_OUTLINES_TOP
100
AcDbPolyline
 90
        2
 70
         0
 43
0.2032
 10
74.7
 20
94.682
 10
74.7
 20
87.86695
  0
LWPOLYLINE
  5
3F
100
AcDbEntity
  8
ASSEMBLY_OUTLINES_TOP
100
AcDbPolyline
 90
        2
 70
         0
 43
0.2032
 10
28.27059
 20
88.37495
 10
48.446947
 20
88.37495
  0
LWPOLYLINE
  5
40
100
AcDbEntity
  8
ASSEMBLY_OUTLINES_TOP
100
AcDbPolyline
 90
        2
 70
         0
 43
0.2032
 10
53.952143
 20
88.37495
 10
74.1285
 20
88.37495
  0
LWPOLYLINE
  5
41
100
AcDbEntity
  8
ASSEMBLY_OUTLINES_TOP
100
AcDbPolyline
 90
        3
 70
         1
 10
27.69909
 20
88.37495
 10
28.84209
 20
88.94645
 10
28.84209
 20
87.80345
  0
HATCH
  5
42
100
AcDbEntity
  8
ASSEMBLY_OUTLINES_TOP
100
AcDbHatch
 10
0.0
 20
0.0
 30
0.0
210
0.0
220
0.0
230
1.0
  2
SOLID
 70
         1
 71
         1
 91
        1
 92
        2
 72
         0
 73
         1
 93
        3
 10
27.699090000000002
 20
88.374949999999998
 10
28.842089999999999
 20
88.946449999999999
 10
28.842089999999999
 20
87.803449999999998
 97
        1
330
41
 75
         0
 76
         1
 98
        1
 10
0.0
 20
0.0
  0
LWPOLYLINE
  5
43
100
AcDbEntity
  8
ASSEMBLY_OUTLINES_TOP
100
AcDbPolyline
 90
        3
 70
         1
 10
74.7
 20
88.37495
 10
73.557
 20
87.803451
 10
73.557
 20
88.94645
  0
HATCH
  5
44
100
AcDbEntity
  8
ASSEMBLY_OUTLINES_TOP
100
AcDbHatch
 10
0.0
 20
0.0
 30
0.0
210
0.0
220
0.0
230
1.0
  2
SOLID
 70
         1
 71
         1
 91
        1
 92
        2
 72
         0
 73
         1
 93
        3
 10
74.700000000000003
 20
88.374949999999998
 10
73.557000000000002
 20
87.803450999999995
 10
73.557000000000002
 20
88.946449999999999
 97
        1
330
43
 75
         0
 76
         1
 98
        1
 10
0.0
 20
0.0
  0
LWPOLYLINE
  5
45
100
AcDbEntity
  8
ASSEMBLY_OUTLINES_TOP
100
AcDbPolyline
 90
        2
 70
         0
 43
0.2032
 10
75.208
 20
95.19
 10
100.014025
 20
95.19
  0
LWPOLYLINE
  5
46
100
AcDbEntity
  8
ASSEMBLY_OUTLINES_TOP
100
AcDbPolyline
 90
        2
 70
         0
 43
0.2032
 10
86.20709
 20
93.19426
 10
100.014025
 20
93.19426
  0
LWPOLYLINE
  5
47
100
AcDbEntity
  8
ASSEMBLY_OUTLINES_TOP
100
AcDbPolyline
 90
        2
 70
         0
 43
0.2032
 10
99.506025
 20
95.7615
 10
99.506025
 20
98.0475
  0
LWPOLYLINE
  5
48
100
AcDbEntity
  8
ASSEMBLY_OUTLINES_TOP
100
AcDbPolyline
 90
        2
 70
         0
 43
0.2032
 10
99.506025
 20
92.62276
 10
99.506025
 20
90.33676
  0
LWPOLYLINE
  5
49
100
AcDbEntity
  8
ASSEMBLY_OUTLINES_TOP
100
AcDbPolyline
 90
        3
 70
         1
 10
99.506025
 20
95.19
 10
98.934525
 20
96.333
 10
100.077525
 20
96.333
  0
HATCH
  5
4A
100
AcDbEntity
  8
ASSEMBLY_OUTLINES_TOP
100
AcDbHatch
 10
0.0
 20
0.0
 30
0.0
210
0.0
220
0.0
230
1.0
  2
SOLID
 70
         1
 71
         1
 91
        1
 92
        2
 72
         0
 73
         1
 93
        3
 10
99.506024999999994
 20
95.189999999999998
 10
98.934524999999994
 20
96.332999999999998
 10
100.07752499999999
 20
96.332999999999998
 97
        1
330
49
 75
         0
 76
         1
 98
        1
 10
0.0
 20
0.0
  0
LWPOLYLINE
  5
4B
100
AcDbEntity
  8
ASSEMBLY_OUTLINES_TOP
100
AcDbPolyline
 90
        3
 70
         1
 10
99.506025
 20
93.19426
 10
100.077524
 20
92.05126
 10
98.934525
 20
92.051261
  0
HATCH
  5
4C
100
AcDbEntity
  8
ASSEMBLY_OUTLINES_TOP
100
AcDbHatch
 10
0.0
 20
0.0
 30
0.0
210
0.0
220
0.0
230
1.0
  2
SOLID
 70
         1
 71
         1
 91
        1
 92
        2
 72
         0
 73
         1
 93
        3
 10
99.506024999999994
 20
93.19426
 10
100.077524
 20
92.051259999999999
 10
98.934524999999994
 20
92.051260999999997
 97
        1
330
4B
 75
         0
 76
         1
 98
        1
 10
0.0
 20
0.0
  0
TEXT
  5
4E
100
AcDbEntity
  8
ASSEMBLY_OUTLINES_TOP
100
AcDbText
 10
90.901152
 20
123.542401
 30
0.0
 40
1.27
  1
67.6mm
 50
90.0
  7
VERIBEST_GERBER_1
 72
         1
 11
90.266152
 21
126.994261
 31
0.0
100
AcDbText
 73
         2
  0
TEXT
  5
4F
100
AcDbEntity
  8
ASSEMBLY_OUTLINES_TOP
100
AcDbText
 10
54.30133
 20
90.303214
 30
0.0
 40
1.27
  1
58mm
  7
VERIBEST_GERBER_1
 72
         1
 11
56.69909
 21
90.938214
 31
0.0
100
AcDbText
 73
         2
  0
TEXT
  5
50
100
AcDbEntity
  8
ASSEMBLY_OUTLINES_TOP
100
AcDbText
 10
48.801785
 20
87.73995
 30
0.0
 40
1.27
  1
47mm
  7
VERIBEST_GERBER_1
 72
         1
 11
51.199545
 21
88.37495
 31
0.0
100
AcDbText
 73
         2
  0
TEXT
  5
51
100
AcDbEntity
  8
ASSEMBLY_OUTLINES_TOP
100
AcDbText
 10
100.141025
 20
98.270734
 30
0.0
 40
1.27
  1
2mm
 50
90.0
  7
VERIBEST_GERBER_1
 72
         1
 11
99.506025
 21
100.068419
 31
0.0
100
AcDbText
 73
         2
  0
LWPOLYLINE
  5
52
100
AcDbEntity
  8
ASSEMBLY_OUTLINES_TOP
100
AcDbPolyline
 90
        4
 70
         1
 43
0.1
 10
83.55
 20
114.6
 10
83.55
 20
117.5
 10
84.85
 20
117.5
 10
84.85
 20
114.6
  0
LWPOLYLINE
  5
53
100
AcDbEntity
  8
ASSEMBLY_OUTLINES_TOP
100
AcDbPolyline
 90
        4
 70
         1
 43
0.1
 10
58.65
 20
134.55
 10
58.65
 20
135.85
 10
61.55
 20
135.85
 10
61.55
 20
134.55
  0
LWPOLYLINE
  5
54
100
AcDbEntity
  8
ASSEMBLY_OUTLINES_TOP
100
AcDbPolyline
 90
        4
 70
         1
 43
0.1
 10
65.775
 20
104.325
 10
65.775
 20
107.475
 10
66.825
 20
107.475
 10
66.825
 20
104.325
  0
LWPOLYLINE
  5
55
100
AcDbEntity
  8
ASSEMBLY_OUTLINES_TOP
100
AcDbPolyline
 90
        2
 70
         0
 43
0.1
 10
65.775
 20
107.475
 10
66.825
 20
107.475
  0
LWPOLYLINE
  5
56
100
AcDbEntity
  8
ASSEMBLY_OUTLINES_TOP
100
AcDbPolyline
 90
        2
 70
         0
 43
0.1
 10
65.775
 20
107.375
 10
66.825
 20
107.375
  0
LWPOLYLINE
  5
57
100
AcDbEntity
  8
ASSEMBLY_OUTLINES_TOP
100
AcDbPolyline
 90
        2
 70
         0
 43
0.1
 10
65.775
 20
107.275
 10
66.825
 20
107.275
  0
LWPOLYLINE
  5
58
100
AcDbEntity
  8
ASSEMBLY_OUTLINES_TOP
100
AcDbPolyline
 90
        2
 70
         0
 43
0.1
 10
65.775
 20
107.175
 10
66.825
 20
107.175
  0
LWPOLYLINE
  5
59
100
AcDbEntity
  8
ASSEMBLY_OUTLINES_TOP
100
AcDbPolyline
 90
        2
 70
         0
 43
0.1
 10
65.775
 20
107.075
 10
66.825
 20
107.075
  0
LWPOLYLINE
  5
5A
100
AcDbEntity
  8
ASSEMBLY_OUTLINES_TOP
100
AcDbPolyline
 90
        2
 70
         0
 43
0.1
 10
65.775
 20
106.975
 10
66.825
 20
106.975
  0
LWPOLYLINE
  5
5B
100
AcDbEntity
  8
ASSEMBLY_OUTLINES_TOP
100
AcDbPolyline
 90
        2
 70
         0
 43
0.1
 10
65.775
 20
106.875
 10
66.825
 20
106.875
  0
LWPOLYLINE
  5
5C
100
AcDbEntity
  8
ASSEMBLY_OUTLINES_TOP
100
AcDbPolyline
 90
        2
 70
         0
 43
0.1
 10
65.775
 20
106.775
 10
66.825
 20
106.775
  0
LWPOLYLINE
  5
5D
100
AcDbEntity
  8
ASSEMBLY_OUTLINES_TOP
100
AcDbPolyline
 90
        4
 70
         1
 43
0.1
 10
76.2
 20
122.25
 10
76.2
 20
123.55
 10
79.0
 20
123.55
 10
79.0
 20
122.25
  0
LWPOLYLINE
  5
5E
100
AcDbEntity
  8
ASSEMBLY_OUTLINES_TOP
100
AcDbPolyline
 90
        4
 70
         1
 43
0.1
 10
68.15
 20
150.2
 10
68.15
 20
153.0
 10
69.45
 20
153.0
 10
69.45
 20
150.2
  0
LWPOLYLINE
  5
5F
100
AcDbEntity
  8
ASSEMBLY_OUTLINES_TOP
100
AcDbPolyline
 90
        4
 70
         1
 43
0.1
 10
61.55
 20
109.05
 10
61.55
 20
110.35
 10
64.45
 20
110.35
 10
64.45
 20
109.05
  0
LWPOLYLINE
  5
60
100
AcDbEntity
  8
ASSEMBLY_OUTLINES_TOP
100
AcDbPolyline
 90
        4
 70
         1
 43
0.1
 10
45.85
 20
143.0
 10
45.85
 20
144.3
 10
48.65
 20
144.3
 10
48.65
 20
143.0
  0
LWPOLYLINE
  5
61
100
AcDbEntity
  8
ASSEMBLY_OUTLINES_TOP
100
AcDbPolyline
 90
        4
 70
         1
 43
0.1
 10
56.15
 20
146.6
 10
56.15
 20
149.4
 10
57.45
 20
149.4
 10
57.45
 20
146.6
  0
LWPOLYLINE
  5
62
100
AcDbEntity
  8
ASSEMBLY_OUTLINES_TOP
100
AcDbPolyline
 90
        4
 70
         1
 43
0.1
 10
49.9
 20
123.2
 10
49.9
 20
124.5
 10
52.7
 20
124.5
 10
52.7
 20
123.2
  0
LWPOLYLINE
  5
63
100
AcDbEntity
  8
ASSEMBLY_OUTLINES_TOP
100
AcDbPolyline
 90
        4
 70
         1
 43
0.1
 10
62.25
 20
156.3
 10
62.25
 20
157.6
 10
65.15
 20
157.6
 10
65.15
 20
156.3
  0
LWPOLYLINE
  5
64
100
AcDbEntity
  8
ASSEMBLY_OUTLINES_TOP
100
AcDbPolyline
 90
        4
 70
         1
 43
0.1
 10
50.9
 20
152.15
 10
50.9
 20
154.95
 10
52.2
 20
154.95
 10
52.2
 20
152.15
  0
LWPOLYLINE
  5
65
100
AcDbEntity
  8
ASSEMBLY_OUTLINES_TOP
100
AcDbPolyline
 90
        8
 70
         1
 43
0.1
 10
54.7
 20
150.85
 10
51.4
 20
150.85
 42
0.4142135624
 10
50.4
 20
149.85
 10
50.4
 20
146.65
 42
0.4142135624
 10
51.4
 20
145.65
 10
54.7
 20
145.65
 42
0.4142135624
 10
55.7
 20
146.65
 10
55.7
 20
149.85
 42
0.4142135624
  0
LWPOLYLINE
  5
66
100
AcDbEntity
  8
ASSEMBLY_OUTLINES_TOP
100
AcDbPolyline
 90
        4
 70
         1
 43
0.1
 10
66.7
 20
100.15
 10
66.7
 20
101.45
 10
69.5
 20
101.45
 10
69.5
 20
100.15
  0
LWPOLYLINE
  5
67
100
AcDbEntity
  8
ASSEMBLY_OUTLINES_TOP
100
AcDbPolyline
 90
        4
 70
         1
 43
0.1
 10
38.45
 20
115.35
 10
38.45
 20
118.25
 10
39.75
 20
118.25
 10
39.75
 20
115.35
  0
LWPOLYLINE
  5
68
100
AcDbEntity
  8
ASSEMBLY_OUTLINES_TOP
100
AcDbPolyline
 90
        4
 70
         1
 43
0.1
 10
75.35
 20
117.85
 10
75.35
 20
119.15
 10
78.15
 20
119.15
 10
78.15
 20
117.85
  0
LWPOLYLINE
  5
69
100
AcDbEntity
  8
ASSEMBLY_OUTLINES_TOP
100
AcDbPolyline
 90
        4
 70
         1
 43
0.1
 10
39.35
 20
112.05
 10
39.35
 20
115.05
 10
42.35
 20
115.05
 10
42.35
 20
112.05
  0
LWPOLYLINE
  5
6A
100
AcDbEntity
  8
ASSEMBLY_OUTLINES_TOP
100
AcDbPolyline
 90
        2
 70
         0
 43
0.1
 10
42.35
 20
112.15
 10
42.25
 20
112.05
  0
LWPOLYLINE
  5
6B
100
AcDbEntity
  8
ASSEMBLY_OUTLINES_TOP
100
AcDbPolyline
 90
        2
 70
         0
 43
0.1
 10
42.35
 20
112.25
 10
42.15
 20
112.05
  0
LWPOLYLINE
  5
6C
100
AcDbEntity
  8
ASSEMBLY_OUTLINES_TOP
100
AcDbPolyline
 90
        2
 70
         0
 43
0.1
 10
42.35
 20
112.35
 10
42.05
 20
112.05
  0
LWPOLYLINE
  5
6D
100
AcDbEntity
  8
ASSEMBLY_OUTLINES_TOP
100
AcDbPolyline
 90
        2
 70
         0
 43
0.1
 10
42.35
 20
112.45
 10
41.95
 20
112.05
  0
LWPOLYLINE
  5
6E
100
AcDbEntity
  8
ASSEMBLY_OUTLINES_TOP
100
AcDbPolyline
 90
        2
 70
         0
 43
0.1
 10
42.35
 20
112.55
 10
41.85
 20
112.05
  0
LWPOLYLINE
  5
6F
100
AcDbEntity
  8
ASSEMBLY_OUTLINES_TOP
100
AcDbPolyline
 90
        2
 70
         0
 43
0.1
 10
42.35
 20
112.65
 10
41.75
 20
112.05
  0
LWPOLYLINE
  5
70
100
AcDbEntity
  8
ASSEMBLY_OUTLINES_TOP
100
AcDbPolyline
 90
        4
 70
         1
 43
0.1
 10
54.35
 20
140.75
 10
54.35
 20
143.65
 10
55.65
 20
143.65
 10
55.65
 20
140.75
  0
LWPOLYLINE
  5
71
100
AcDbEntity
  8
ASSEMBLY_OUTLINES_TOP
100
AcDbPolyline
 90
        4
 70
         1
 43
0.1
 10
38.625
 20
123.0
 10
38.625
 20
124.3
 10
41.425
 20
124.3
 10
41.425
 20
123.0
  0
LWPOLYLINE
  5
72
100
AcDbEntity
  8
ASSEMBLY_OUTLINES_TOP
100
AcDbPolyline
 90
        4
 70
         1
 43
0.1
 10
61.65
 20
105.8
 10
61.65
 20
107.1
 10
64.45
 20
107.1
 10
64.45
 20
105.8
  0
LWPOLYLINE
  5
73
100
AcDbEntity
  8
ASSEMBLY_OUTLINES_TOP
100
AcDbPolyline
 90
        4
 70
         1
 43
0.1
 10
32.95
 20
124.45
 10
32.95
 20
127.35
 10
34.25
 20
127.35
 10
34.25
 20
124.45
  0
LWPOLYLINE
  5
74
100
AcDbEntity
  8
ASSEMBLY_OUTLINES_TOP
100
AcDbPolyline
 90
        4
 70
         1
 43
0.1
 10
75.6
 20
156.25
 10
75.6
 20
157.55
 10
78.5
 20
157.55
 10
78.5
 20
156.25
  0
LWPOLYLINE
  5
75
100
AcDbEntity
  8
ASSEMBLY_OUTLINES_TOP
100
AcDbPolyline
 90
        4
 70
         1
 43
0.1
 10
74.75
 20
97.95
 10
74.75
 20
100.85
 10
76.05
 20
100.85
 10
76.05
 20
97.95
  0
LWPOLYLINE
  5
76
100
AcDbEntity
  8
ASSEMBLY_OUTLINES_TOP
100
AcDbPolyline
 90
        4
 70
         1
 43
0.1
 10
82.1
 20
114.65
 10
82.1
 20
117.55
 10
83.4
 20
117.55
 10
83.4
 20
114.65
  0
LWPOLYLINE
  5
77
100
AcDbEntity
  8
ASSEMBLY_OUTLINES_TOP
100
AcDbPolyline
 90
        4
 70
         1
 43
0.1
 10
48.2
 20
145.85
 10
48.2
 20
149.15
 10
50.0
 20
149.15
 10
50.0
 20
145.85
  0
LWPOLYLINE
  5
78
100
AcDbEntity
  8
ASSEMBLY_OUTLINES_TOP
100
AcDbPolyline
 90
        4
 70
         1
 43
0.1
 10
32.05
 20
106.75
 10
32.05
 20
109.65
 10
33.35
 20
109.65
 10
33.35
 20
106.75
  0
LWPOLYLINE
  5
79
100
AcDbEntity
  8
ASSEMBLY_OUTLINES_TOP
100
AcDbPolyline
 90
        4
 70
         1
 43
0.1
 10
81.1
 20
111.6
 10
81.1
 20
112.9
 10
84.0
 20
112.9
 10
84.0
 20
111.6
  0
LWPOLYLINE
  5
7A
100
AcDbEntity
  8
ASSEMBLY_OUTLINES_TOP
100
AcDbPolyline
 90
        4
 70
         1
 43
0.1
 10
77.2
 20
105.0
 10
77.2
 20
107.9
 10
78.5
 20
107.9
 10
78.5
 20
105.0
  0
LWPOLYLINE
  5
7B
100
AcDbEntity
  8
ASSEMBLY_OUTLINES_TOP
100
AcDbPolyline
 90
        4
 70
         1
 43
0.1
 10
39.8
 20
95.65
 10
39.8
 20
107.75
 10
58.3
 20
107.75
 10
58.3
 20
95.65
  0
LWPOLYLINE
  5
7C
100
AcDbEntity
  8
ASSEMBLY_OUTLINES_TOP
100
AcDbPolyline
 90
        2
 70
         1
 43
0.1
 10
56.8
 20
96.65
 42
-1.0
 10
57.8
 20
96.65
 42
-1.0
  0
LWPOLYLINE
  5
7D
100
AcDbEntity
  8
ASSEMBLY_OUTLINES_TOP
100
AcDbPolyline
 90
        4
 70
         1
 43
0.1
 10
50.05
 20
119.25
 10
50.05
 20
120.55
 10
52.85
 20
120.55
 10
52.85
 20
119.25
  0
LWPOLYLINE
  5
7E
100
AcDbEntity
  8
ASSEMBLY_OUTLINES_TOP
100
AcDbPolyline
 90
        4
 70
         1
 43
0.1
 10
71.7
 20
153.15
 10
71.7
 20
155.95
 10
73.0
 20
155.95
 10
73.0
 20
153.15
  0
LWPOLYLINE
  5
7F
100
AcDbEntity
  8
ASSEMBLY_OUTLINES_TOP
100
AcDbPolyline
 90
        4
 70
         1
 43
0.1
 10
53.65
 20
113.05
 10
53.65
 20
134.05
 10
74.65
 20
134.05
 10
74.65
 20
113.05
  0
LWPOLYLINE
  5
80
100
AcDbEntity
  8
ASSEMBLY_OUTLINES_TOP
100
AcDbPolyline
 90
        2
 70
         0
 43
0.1
 10
74.55
 20
113.05
 10
74.65
 20
113.15
  0
LWPOLYLINE
  5
81
100
AcDbEntity
  8
ASSEMBLY_OUTLINES_TOP
100
AcDbPolyline
 90
        2
 70
         0
 43
0.1
 10
74.45
 20
113.05
 10
74.65
 20
113.25
  0
LWPOLYLINE
  5
82
100
AcDbEntity
  8
ASSEMBLY_OUTLINES_TOP
100
AcDbPolyline
 90
        2
 70
         0
 43
0.1
 10
74.35
 20
113.05
 10
74.65
 20
113.35
  0
LWPOLYLINE
  5
83
100
AcDbEntity
  8
ASSEMBLY_OUTLINES_TOP
100
AcDbPolyline
 90
        2
 70
         0
 43
0.1
 10
74.25
 20
113.05
 10
74.65
 20
113.45
  0
LWPOLYLINE
  5
84
100
AcDbEntity
  8
ASSEMBLY_OUTLINES_TOP
100
AcDbPolyline
 90
        2
 70
         0
 43
0.1
 10
74.15
 20
113.05
 10
74.65
 20
113.55
  0
LWPOLYLINE
  5
85
100
AcDbEntity
  8
ASSEMBLY_OUTLINES_TOP
100
AcDbPolyline
 90
        2
 70
         0
 43
0.1
 10
74.05
 20
113.05
 10
74.65
 20
113.65
  0
LWPOLYLINE
  5
86
100
AcDbEntity
  8
ASSEMBLY_OUTLINES_TOP
100
AcDbPolyline
 90
        2
 70
         0
 43
0.1
 10
73.95
 20
113.05
 10
74.65
 20
113.75
  0
LWPOLYLINE
  5
87
100
AcDbEntity
  8
ASSEMBLY_OUTLINES_TOP
100
AcDbPolyline
 90
        2
 70
         0
 43
0.1
 10
73.85
 20
113.05
 10
74.65
 20
113.85
  0
LWPOLYLINE
  5
88
100
AcDbEntity
  8
ASSEMBLY_OUTLINES_TOP
100
AcDbPolyline
 90
        2
 70
         0
 43
0.1
 10
73.75
 20
113.05
 10
74.65
 20
113.95
  0
LWPOLYLINE
  5
89
100
AcDbEntity
  8
ASSEMBLY_OUTLINES_TOP
100
AcDbPolyline
 90
        2
 70
         0
 43
0.1
 10
73.65
 20
113.05
 10
74.65
 20
114.05
  0
LWPOLYLINE
  5
8A
100
AcDbEntity
  8
ASSEMBLY_OUTLINES_TOP
100
AcDbPolyline
 90
        4
 70
         1
 43
0.1
 10
38.0
 20
119.4
 10
38.0
 20
122.3
 10
39.3
 20
122.3
 10
39.3
 20
119.4
  0
LWPOLYLINE
  5
8B
100
AcDbEntity
  8
ASSEMBLY_OUTLINES_TOP
100
AcDbPolyline
 90
        4
 70
         1
 43
0.1
 10
77.05
 20
111.25
 10
77.05
 20
112.55
 10
79.95
 20
112.55
 10
79.95
 20
111.25
  0
LWPOLYLINE
  5
8C
100
AcDbEntity
  8
ASSEMBLY_OUTLINES_TOP
100
AcDbPolyline
 90
        4
 70
         1
 43
0.1
 10
57.95
 20
140.95
 10
57.95
 20
142.25
 10
60.75
 20
142.25
 10
60.75
 20
140.95
  0
LWPOLYLINE
  5
8D
100
AcDbEntity
  8
ASSEMBLY_OUTLINES_TOP
100
AcDbPolyline
 90
        4
 70
         1
 43
0.1
 10
38.55
 20
137.25
 10
38.55
 20
140.15
 10
39.85
 20
140.15
 10
39.85
 20
137.25
  0
LWPOLYLINE
  5
8E
100
AcDbEntity
  8
ASSEMBLY_OUTLINES_TOP
100
AcDbPolyline
 90
        4
 70
         1
 43
0.1
 10
40.7
 20
119.4
 10
40.7
 20
122.3
 10
42.0
 20
122.3
 10
42.0
 20
119.4
  0
LWPOLYLINE
  5
8F
100
AcDbEntity
  8
ASSEMBLY_OUTLINES_TOP
100
AcDbPolyline
 90
        4
 70
         1
 43
0.1
 10
55.9
 20
142.75
 10
55.9
 20
146.05
 10
57.7
 20
146.05
 10
57.7
 20
142.75
  0
LWPOLYLINE
  5
90
100
AcDbEntity
  8
ASSEMBLY_OUTLINES_TOP
100
AcDbPolyline
 90
        4
 70
         1
 43
0.1
 10
75.95
 20
120.7
 10
75.95
 20
122.0
 10
78.75
 20
122.0
 10
78.75
 20
120.7
  0
LWPOLYLINE
  5
91
100
AcDbEntity
  8
ASSEMBLY_OUTLINES_TOP
100
AcDbPolyline
 90
        4
 70
         1
 43
0.1
 10
43.4
 20
119.35
 10
43.4
 20
122.25
 10
44.7
 20
122.25
 10
44.7
 20
119.35
  0
LWPOLYLINE
  5
92
100
AcDbEntity
  8
ASSEMBLY_OUTLINES_TOP
100
AcDbPolyline
 90
        4
 70
         1
 43
0.1
 10
66.15
 20
109.25
 10
66.15
 20
112.05
 10
67.45
 20
112.05
 10
67.45
 20
109.25
  0
LWPOLYLINE
  5
93
100
AcDbEntity
  8
ASSEMBLY_OUTLINES_TOP
100
AcDbPolyline
 90
        4
 70
         1
 43
0.1
 10
81.65
 20
127.95
 10
81.65
 20
130.75
 10
82.95
 20
130.75
 10
82.95
 20
127.95
  0
LWPOLYLINE
  5
94
100
AcDbEntity
  8
ASSEMBLY_OUTLINES_TOP
100
AcDbPolyline
 90
        8
 70
         1
 10
86.15
 20
95.35
 10
85.15
 20
95.35
 10
85.15
 20
93.75
 10
77.15
 20
93.75
 10
77.15
 20
104.65
 10
85.15
 20
104.65
 10
85.15
 20
103.1
 10
86.15
 20
103.1
  0
LWPOLYLINE
  5
95
100
AcDbEntity
  8
ASSEMBLY_OUTLINES_TOP
100
AcDbPolyline
 90
        4
 70
         1
 43
0.1
 10
49.15
 20
139.25
 10
49.15
 20
143.25
 10
53.15
 20
143.25
 10
53.15
 20
139.25
  0
LWPOLYLINE
  5
96
100
AcDbEntity
  8
ASSEMBLY_OUTLINES_TOP
100
AcDbPolyline
 90
        2
 70
         0
 43
0.1
 10
49.15
 20
139.35
 10
49.25
 20
139.25
  0
LWPOLYLINE
  5
97
100
AcDbEntity
  8
ASSEMBLY_OUTLINES_TOP
100
AcDbPolyline
 90
        2
 70
         0
 43
0.1
 10
49.15
 20
139.45
 10
49.35
 20
139.25
  0
LWPOLYLINE
  5
98
100
AcDbEntity
  8
ASSEMBLY_OUTLINES_TOP
100
AcDbPolyline
 90
        2
 70
         0
 43
0.1
 10
49.15
 20
139.55
 10
49.45
 20
139.25
  0
LWPOLYLINE
  5
99
100
AcDbEntity
  8
ASSEMBLY_OUTLINES_TOP
100
AcDbPolyline
 90
        2
 70
         0
 43
0.1
 10
49.15
 20
139.65
 10
49.55
 20
139.25
  0
LWPOLYLINE
  5
9A
100
AcDbEntity
  8
ASSEMBLY_OUTLINES_TOP
100
AcDbPolyline
 90
        2
 70
         0
 43
0.1
 10
49.15
 20
139.75
 10
49.65
 20
139.25
  0
LWPOLYLINE
  5
9B
100
AcDbEntity
  8
ASSEMBLY_OUTLINES_TOP
100
AcDbPolyline
 90
        2
 70
         0
 43
0.1
 10
49.15
 20
139.85
 10
49.75
 20
139.25
  0
LWPOLYLINE
  5
9C
100
AcDbEntity
  8
ASSEMBLY_OUTLINES_TOP
100
AcDbPolyline
 90
        2
 70
         0
 43
0.1
 10
49.15
 20
139.95
 10
49.85
 20
139.25
  0
LWPOLYLINE
  5
9D
100
AcDbEntity
  8
ASSEMBLY_OUTLINES_TOP
100
AcDbPolyline
 90
        2
 70
         0
 43
0.1
 10
49.15
 20
140.05
 10
49.95
 20
139.25
  0
LWPOLYLINE
  5
9E
100
AcDbEntity
  8
ASSEMBLY_OUTLINES_TOP
100
AcDbPolyline
 90
        2
 70
         0
 43
0.1
 10
49.15
 20
140.15
 10
50.05
 20
139.25
  0
LWPOLYLINE
  5
9F
100
AcDbEntity
  8
ASSEMBLY_OUTLINES_TOP
100
AcDbPolyline
 90
        2
 70
         0
 43
0.1
 10
49.15
 20
140.25
 10
50.15
 20
139.25
  0
LWPOLYLINE
  5
A0
100
AcDbEntity
  8
ASSEMBLY_OUTLINES_TOP
100
AcDbPolyline
 90
        4
 70
         1
 43
0.1
 10
44.35
 20
149.25
 10
44.35
 20
152.15
 10
45.65
 20
152.15
 10
45.65
 20
149.25
  0
LWPOLYLINE
  5
A1
100
AcDbEntity
  8
ASSEMBLY_OUTLINES_TOP
100
AcDbPolyline
 90
        4
 70
         1
 43
0.1
 10
42.05
 20
119.4
 10
42.05
 20
122.3
 10
43.35
 20
122.3
 10
43.35
 20
119.4
  0
LWPOLYLINE
  5
A2
100
AcDbEntity
  8
ASSEMBLY_OUTLINES_TOP
100
AcDbPolyline
 90
        4
 70
         1
 43
0.1
 10
44.35
 20
146.2
 10
44.35
 20
149.1
 10
45.65
 20
149.1
 10
45.65
 20
146.2
  0
LWPOLYLINE
  5
A3
100
AcDbEntity
  8
ASSEMBLY_OUTLINES_TOP
100
AcDbPolyline
 90
        4
 70
         1
 43
0.1
 10
75.2
 20
112.9
 10
75.2
 20
114.2
 10
78.1
 20
114.2
 10
78.1
 20
112.9
  0
LWPOLYLINE
  5
A4
100
AcDbEntity
  8
ASSEMBLY_OUTLINES_TOP
100
AcDbPolyline
 90
        4
 70
         1
 43
0.1
 10
32.35
 20
110.25
 10
32.35
 20
113.15
 10
33.65
 20
113.15
 10
33.65
 20
110.25
  0
LWPOLYLINE
  5
A5
100
AcDbEntity
  8
ASSEMBLY_OUTLINES_TOP
100
AcDbPolyline
 90
        4
 70
         1
 43
0.1
 10
38.65
 20
152.6
 10
38.65
 20
155.4
 10
39.95
 20
155.4
 10
39.95
 20
152.6
  0
LWPOLYLINE
  5
A6
100
AcDbEntity
  8
ASSEMBLY_OUTLINES_TOP
100
AcDbPolyline
 90
        4
 70
         1
 43
0.1
 10
83.5
 20
138.85
 10
83.5
 20
141.75
 10
84.8
 20
141.75
 10
84.8
 20
138.85
  0
LWPOLYLINE
  5
A7
100
AcDbEntity
  8
ASSEMBLY_OUTLINES_TOP
100
AcDbPolyline
 90
        4
 70
         1
 43
0.1
 10
67.15
 20
104.65
 10
67.15
 20
107.55
 10
68.45
 20
107.55
 10
68.45
 20
104.65
  0
LWPOLYLINE
  5
A8
100
AcDbEntity
  8
ASSEMBLY_OUTLINES_TOP
100
AcDbPolyline
 90
        4
 70
         1
 43
0.1
 10
43.15
 20
115.65
 10
43.15
 20
116.95
 10
46.05
 20
116.95
 10
46.05
 20
115.65
  0
LWPOLYLINE
  5
A9
100
AcDbEntity
  8
ASSEMBLY_OUTLINES_TOP
100
AcDbPolyline
 90
        8
 70
         1
 43
0.1
 10
42.7
 20
151.2
 10
39.4
 20
151.2
 42
0.4142135624
 10
38.4
 20
150.2
 10
38.4
 20
147.0
 42
0.4142135624
 10
39.4
 20
146.0
 10
42.7
 20
146.0
 42
0.4142135624
 10
43.7
 20
147.0
 10
43.7
 20
150.2
 42
0.4142135624
  0
LWPOLYLINE
  5
AA
100
AcDbEntity
  8
ASSEMBLY_OUTLINES_TOP
100
AcDbPolyline
 90
        4
 70
         1
 43
0.1
 10
56.15
 20
153.6
 10
56.15
 20
156.4
 10
57.45
 20
156.4
 10
57.45
 20
153.6
  0
LWPOLYLINE
  5
AB
100
AcDbEntity
  8
ASSEMBLY_OUTLINES_TOP
100
AcDbPolyline
 90
        4
 70
         1
 43
0.1
 10
56.15
 20
149.95
 10
56.15
 20
152.75
 10
57.45
 20
152.75
 10
57.45
 20
149.95
  0
LWPOLYLINE
  5
AC
100
AcDbEntity
  8
ASSEMBLY_OUTLINES_TOP
100
AcDbPolyline
 90
        4
 70
         1
 43
0.1
 10
71.7
 20
150.0
 10
71.7
 20
152.8
 10
73.0
 20
152.8
 10
73.0
 20
150.0
  0
LWPOLYLINE
  5
AD
100
AcDbEntity
  8
ASSEMBLY_OUTLINES_TOP
100
AcDbPolyline
 90
        4
 70
         1
 43
0.1
 10
71.7
 20
146.55
 10
71.7
 20
149.35
 10
73.0
 20
149.35
 10
73.0
 20
146.55
  0
LWPOLYLINE
  5
AE
100
AcDbEntity
  8
ASSEMBLY_OUTLINES_TOP
100
AcDbPolyline
 90
        4
 70
         1
 43
0.1
 10
36.3
 20
146.15
 10
36.3
 20
149.45
 10
38.1
 20
149.45
 10
38.1
 20
146.15
  0
LWPOLYLINE
  5
AF
100
AcDbEntity
  8
ASSEMBLY_OUTLINES_TOP
100
AcDbPolyline
 90
        4
 70
         1
 43
0.1
 10
81.3
 20
137.25
 10
81.3
 20
138.55
 10
84.1
 20
138.55
 10
84.1
 20
137.25
  0
LWPOLYLINE
  5
B0
100
AcDbEntity
  8
ASSEMBLY_OUTLINES_TOP
100
AcDbPolyline
 90
        4
 70
         1
 43
0.1
 10
80.0
 20
118.85
 10
80.0
 20
120.65
 10
83.3
 20
120.65
 10
83.3
 20
118.85
  0
LWPOLYLINE
  5
B1
100
AcDbEntity
  8
ASSEMBLY_OUTLINES_TOP
100
AcDbPolyline
 90
        4
 70
         1
 43
0.1
 10
47.1
 20
153.5
 10
47.1
 20
156.4
 10
48.4
 20
156.4
 10
48.4
 20
153.5
  0
LWPOLYLINE
  5
B2
100
AcDbEntity
  8
ASSEMBLY_OUTLINES_TOP
100
AcDbPolyline
 90
        4
 70
         1
 43
0.1
 10
40.425
 20
152.825
 10
40.425
 20
154.575
 10
43.475
 20
154.575
 10
43.475
 20
152.825
  0
LWPOLYLINE
  5
B3
100
AcDbEntity
  8
ASSEMBLY_OUTLINES_TOP
100
AcDbPolyline
 90
        2
 70
         0
 43
0.1
 10
40.525
 20
152.825
 10
40.425
 20
152.925
  0
LWPOLYLINE
  5
B4
100
AcDbEntity
  8
ASSEMBLY_OUTLINES_TOP
100
AcDbPolyline
 90
        2
 70
         0
 43
0.1
 10
40.625
 20
152.825
 10
40.425
 20
153.025
  0
LWPOLYLINE
  5
B5
100
AcDbEntity
  8
ASSEMBLY_OUTLINES_TOP
100
AcDbPolyline
 90
        2
 70
         0
 43
0.1
 10
40.725
 20
152.825
 10
40.425
 20
153.125
  0
LWPOLYLINE
  5
B6
100
AcDbEntity
  8
ASSEMBLY_OUTLINES_TOP
100
AcDbPolyline
 90
        2
 70
         0
 43
0.1
 10
40.825
 20
152.825
 10
40.425
 20
153.225
  0
LWPOLYLINE
  5
B7
100
AcDbEntity
  8
ASSEMBLY_OUTLINES_TOP
100
AcDbPolyline
 90
        2
 70
         0
 43
0.1
 10
40.925
 20
152.825
 10
40.425
 20
153.325
  0
LWPOLYLINE
  5
B8
100
AcDbEntity
  8
ASSEMBLY_OUTLINES_TOP
100
AcDbPolyline
 90
        2
 70
         0
 43
0.1
 10
41.025
 20
152.825
 10
40.425
 20
153.425
  0
LWPOLYLINE
  5
B9
100
AcDbEntity
  8
ASSEMBLY_OUTLINES_TOP
100
AcDbPolyline
 90
        4
 70
         1
 43
0.1
 10
50.85
 20
135.25
 10
50.85
 20
138.15
 10
52.15
 20
138.15
 10
52.15
 20
135.25
  0
LWPOLYLINE
  5
BA
100
AcDbEntity
  8
ASSEMBLY_OUTLINES_TOP
100
AcDbPolyline
 90
        4
 70
         1
 43
0.1
 10
59.85
 20
97.15
 10
59.85
 20
100.05
 10
61.15
 20
100.05
 10
61.15
 20
97.15
  0
LWPOLYLINE
  5
BB
100
AcDbEntity
  8
ASSEMBLY_OUTLINES_TOP
100
AcDbPolyline
 90
        8
 70
         1
 43
0.1
 10
43.975
 20
127.35
 10
43.975
 20
124.05
 42
0.4142135624
 10
44.975
 20
123.05
 10
48.175
 20
123.05
 42
0.4142135624
 10
49.175
 20
124.05
 10
49.175
 20
127.35
 42
0.4142135624
 10
48.175
 20
128.35
 10
44.975
 20
128.35
 42
0.4142135624
  0
LWPOLYLINE
  5
BC
100
AcDbEntity
  8
ASSEMBLY_OUTLINES_TOP
100
AcDbPolyline
 90
        4
 70
         1
 43
0.1
 10
37.575
 20
128.0
 10
37.575
 20
129.3
 10
40.475
 20
129.3
 10
40.475
 20
128.0
  0
LWPOLYLINE
  5
BD
100
AcDbEntity
  8
ASSEMBLY_OUTLINES_TOP
100
AcDbPolyline
 90
        4
 70
         1
 43
0.1
 10
35.45
 20
120.65
 10
35.45
 20
123.55
 10
36.75
 20
123.55
 10
36.75
 20
120.65
  0
LWPOLYLINE
  5
BE
100
AcDbEntity
  8
ASSEMBLY_OUTLINES_TOP
100
AcDbPolyline
 90
        4
 70
         1
 43
0.1
 10
36.95
 20
130.95
 10
36.95
 20
132.25
 10
39.85
 20
132.25
 10
39.85
 20
130.95
  0
LWPOLYLINE
  5
BF
100
AcDbEntity
  8
ASSEMBLY_OUTLINES_TOP
100
AcDbPolyline
 90
        4
 70
         1
 43
0.1
 10
40.5
 20
141.35
 10
40.5
 20
142.65
 10
43.3
 20
142.65
 10
43.3
 20
141.35
  0
LWPOLYLINE
  5
C0
100
AcDbEntity
  8
ASSEMBLY_OUTLINES_TOP
100
AcDbPolyline
 90
        4
 70
         1
 43
0.1
 10
74.65
 20
142.65
 10
74.65
 20
155.95
 10
82.15
 20
155.95
 10
82.15
 20
142.65
  0
LWPOLYLINE
  5
C1
100
AcDbEntity
  8
ASSEMBLY_OUTLINES_TOP
100
AcDbPolyline
 90
        2
 70
         0
 43
0.1
 10
82.0
 20
142.65
 10
82.1
 20
142.75
  0
LWPOLYLINE
  5
C2
100
AcDbEntity
  8
ASSEMBLY_OUTLINES_TOP
100
AcDbPolyline
 90
        2
 70
         0
 43
0.1
 10
81.9
 20
142.65
 10
82.1
 20
142.85
  0
LWPOLYLINE
  5
C3
100
AcDbEntity
  8
ASSEMBLY_OUTLINES_TOP
100
AcDbPolyline
 90
        2
 70
         0
 43
0.1
 10
81.8
 20
142.65
 10
82.1
 20
142.95
  0
LWPOLYLINE
  5
C4
100
AcDbEntity
  8
ASSEMBLY_OUTLINES_TOP
100
AcDbPolyline
 90
        2
 70
         0
 43
0.1
 10
81.7
 20
142.65
 10
82.1
 20
143.05
  0
LWPOLYLINE
  5
C5
100
AcDbEntity
  8
ASSEMBLY_OUTLINES_TOP
100
AcDbPolyline
 90
        2
 70
         0
 43
0.1
 10
81.6
 20
142.65
 10
82.1
 20
143.15
  0
LWPOLYLINE
  5
C6
100
AcDbEntity
  8
ASSEMBLY_OUTLINES_TOP
100
AcDbPolyline
 90
        2
 70
         0
 43
0.1
 10
81.5
 20
142.65
 10
82.1
 20
143.25
  0
LWPOLYLINE
  5
C7
100
AcDbEntity
  8
ASSEMBLY_OUTLINES_TOP
100
AcDbPolyline
 90
        2
 70
         0
 43
0.1
 10
81.4
 20
142.65
 10
82.1
 20
143.35
  0
LWPOLYLINE
  5
C8
100
AcDbEntity
  8
ASSEMBLY_OUTLINES_TOP
100
AcDbPolyline
 90
        2
 70
         0
 43
0.1
 10
81.3
 20
142.65
 10
82.1
 20
143.45
  0
LWPOLYLINE
  5
C9
100
AcDbEntity
  8
ASSEMBLY_OUTLINES_TOP
100
AcDbPolyline
 90
        2
 70
         0
 43
0.1
 10
81.2
 20
142.65
 10
82.1
 20
143.55
  0
LWPOLYLINE
  5
CA
100
AcDbEntity
  8
ASSEMBLY_OUTLINES_TOP
100
AcDbPolyline
 90
        2
 70
         0
 43
0.1
 10
81.1
 20
142.65
 10
82.1
 20
143.65
  0
LWPOLYLINE
  5
CB
100
AcDbEntity
  8
ASSEMBLY_OUTLINES_TOP
100
AcDbPolyline
 90
        4
 70
         1
 43
0.1
 10
35.45
 20
117.65
 10
35.45
 20
120.55
 10
36.75
 20
120.55
 10
36.75
 20
117.65
  0
LWPOLYLINE
  5
CC
100
AcDbEntity
  8
ASSEMBLY_OUTLINES_TOP
100
AcDbPolyline
 90
        4
 70
         1
 43
0.1
 10
32.25
 20
100.45
 10
32.25
 20
103.35
 10
33.55
 20
103.35
 10
33.55
 20
100.45
  0
LWPOLYLINE
  5
CD
100
AcDbEntity
  8
ASSEMBLY_OUTLINES_TOP
100
AcDbPolyline
 90
        4
 70
         1
 43
0.1
 10
45.4
 20
138.5
 10
45.4
 20
141.4
 10
46.7
 20
141.4
 10
46.7
 20
138.5
  0
LWPOLYLINE
  5
CE
100
AcDbEntity
  8
ASSEMBLY_OUTLINES_TOP
100
AcDbPolyline
 90
        4
 70
         1
 43
0.1
 10
37.05
 20
137.25
 10
37.05
 20
140.15
 10
38.35
 20
140.15
 10
38.35
 20
137.25
  0
LWPOLYLINE
  5
CF
100
AcDbEntity
  8
ASSEMBLY_OUTLINES_TOP
100
AcDbPolyline
 90
        4
 70
         1
 43
0.1
 10
83.8
 20
105.8
 10
83.8
 20
108.6
 10
85.1
 20
108.6
 10
85.1
 20
105.8
  0
LWPOLYLINE
  5
D0
100
AcDbEntity
  8
ASSEMBLY_OUTLINES_TOP
100
AcDbPolyline
 90
        4
 70
         1
 43
0.1
 10
52.75
 20
137.0
 10
52.75
 20
138.3
 10
55.55
 20
138.3
 10
55.55
 20
137.0
  0
LWPOLYLINE
  5
D1
100
AcDbEntity
  8
ASSEMBLY_OUTLINES_TOP
100
AcDbPolyline
 90
        4
 70
         1
 43
0.1
 10
83.7
 20
142.65
 10
83.7
 20
145.45
 10
85.0
 20
145.45
 10
85.0
 20
142.65
  0
LWPOLYLINE
  5
D2
100
AcDbEntity
  8
ASSEMBLY_OUTLINES_TOP
100
AcDbPolyline
 90
        4
 70
         1
 43
0.1
 10
46.6
 20
145.95
 10
46.6
 20
148.85
 10
47.9
 20
148.85
 10
47.9
 20
145.95
  0
LWPOLYLINE
  5
D3
100
AcDbEntity
  8
ASSEMBLY_OUTLINES_TOP
100
AcDbPolyline
 90
        4
 70
         1
 43
0.1
 10
32.25
 20
103.45
 10
32.25
 20
106.35
 10
33.55
 20
106.35
 10
33.55
 20
103.45
  0
LWPOLYLINE
  5
D4
100
AcDbEntity
  8
ASSEMBLY_OUTLINES_TOP
100
AcDbPolyline
 90
        4
 70
         1
 43
0.1
 10
83.0
 20
132.65
 10
83.0
 20
135.55
 10
84.3
 20
135.55
 10
84.3
 20
132.65
  0
LWPOLYLINE
  5
D5
100
AcDbEntity
  8
ASSEMBLY_OUTLINES_TOP
100
AcDbPolyline
 90
        4
 70
         1
 43
0.1
 10
70.1
 20
108.25
 10
70.1
 20
110.75
 10
73.3
 20
110.75
 10
73.3
 20
108.25
  0
LWPOLYLINE
  5
D6
100
AcDbEntity
  8
ASSEMBLY_OUTLINES_TOP
100
AcDbPolyline
 90
        2
 70
         0
 43
0.1
 10
70.1
 20
108.35
 10
70.2
 20
108.25
  0
LWPOLYLINE
  5
D7
100
AcDbEntity
  8
ASSEMBLY_OUTLINES_TOP
100
AcDbPolyline
 90
        2
 70
         0
 43
0.1
 10
70.1
 20
108.45
 10
70.3
 20
108.25
  0
LWPOLYLINE
  5
D8
100
AcDbEntity
  8
ASSEMBLY_OUTLINES_TOP
100
AcDbPolyline
 90
        2
 70
         0
 43
0.1
 10
70.1
 20
108.55
 10
70.4
 20
108.25
  0
LWPOLYLINE
  5
D9
100
AcDbEntity
  8
ASSEMBLY_OUTLINES_TOP
100
AcDbPolyline
 90
        2
 70
         0
 43
0.1
 10
70.1
 20
108.65
 10
70.5
 20
108.25
  0
LWPOLYLINE
  5
DA
100
AcDbEntity
  8
ASSEMBLY_OUTLINES_TOP
100
AcDbPolyline
 90
        2
 70
         0
 43
0.1
 10
70.1
 20
108.75
 10
70.6
 20
108.25
  0
LWPOLYLINE
  5
DB
100
AcDbEntity
  8
ASSEMBLY_OUTLINES_TOP
100
AcDbPolyline
 90
        2
 70
         0
 43
0.1
 10
70.1
 20
108.85
 10
70.7
 20
108.25
  0
LWPOLYLINE
  5
DC
100
AcDbEntity
  8
ASSEMBLY_OUTLINES_TOP
100
AcDbPolyline
 90
        2
 70
         0
 43
0.1
 10
70.1
 20
108.95
 10
70.8
 20
108.25
  0
LWPOLYLINE
  5
DD
100
AcDbEntity
  8
ASSEMBLY_OUTLINES_TOP
100
AcDbPolyline
 90
        2
 70
         0
 43
0.1
 10
70.1
 20
109.05
 10
70.9
 20
108.25
  0
LWPOLYLINE
  5
DE
100
AcDbEntity
  8
ASSEMBLY_OUTLINES_TOP
100
AcDbPolyline
 90
        2
 70
         0
 43
0.1
 10
70.1
 20
109.15
 10
71.0
 20
108.25
  0
LWPOLYLINE
  5
DF
100
AcDbEntity
  8
ASSEMBLY_OUTLINES_TOP
100
AcDbPolyline
 90
        2
 70
         0
 43
0.1
 10
70.1
 20
109.25
 10
71.1
 20
108.25
  0
LWPOLYLINE
  5
E0
100
AcDbEntity
  8
ASSEMBLY_OUTLINES_TOP
100
AcDbPolyline
 90
       15
 70
         1
 10
53.09909
 20
160.79426
 10
49.69909
 20
160.79426
 42
-0.4142135624
 10
47.69909
 20
158.79426
 42
-0.4142135624
 10
45.69909
 20
160.79426
 10
27.69909
 20
160.79426
 10
27.69909
 20
145.04426
 10
31.19909
 20
145.04426
 42
-0.4142135624
 10
31.69909
 20
144.54426
 42
-0.4142135624
 10
31.19909
 20
144.04426
 10
27.69909
 20
144.04426
 10
27.69909
 20
93.19426
 10
45.69909
 20
93.19426
 42
-0.4142135624
 10
47.69909
 20
95.19426
 42
-0.4142135624
 10
49.69909
 20
93.19426
 10
53.09909
 20
93.19426
  0
LWPOLYLINE
  5
E1
100
AcDbEntity
  8
ASSEMBLY_OUTLINES_TOP
100
AcDbPolyline
 90
        4
 70
         1
 43
0.1
 10
65.2
 20
156.3
 10
65.2
 20
157.6
 10
68.1
 20
157.6
 10
68.1
 20
156.3
  0
LWPOLYLINE
  5
E2
100
AcDbEntity
  8
ASSEMBLY_OUTLINES_TOP
100
AcDbPolyline
 90
        4
 70
         1
 43
0.1
 10
62.35
 20
104.3
 10
62.35
 20
105.6
 10
65.15
 20
105.6
 10
65.15
 20
104.3
  0
LWPOLYLINE
  5
E3
100
AcDbEntity
  8
ASSEMBLY_OUTLINES_TOP
100
AcDbPolyline
 90
        4
 70
         1
 43
0.1
 10
49.7
 20
120.65
 10
49.7
 20
122.45
 10
53.0
 20
122.45
 10
53.0
 20
120.65
  0
LWPOLYLINE
  5
E4
100
AcDbEntity
  8
ASSEMBLY_OUTLINES_TOP
100
AcDbPolyline
 90
        4
 70
         1
 43
0.1
 10
46.5
 20
149.45
 10
46.5
 20
152.25
 10
47.8
 20
152.25
 10
47.8
 20
149.45
  0
LWPOLYLINE
  5
E5
100
AcDbEntity
  8
ASSEMBLY_OUTLINES_TOP
100
AcDbPolyline
 90
        4
 70
         1
 43
0.1
 10
83.65
 20
150.25
 10
83.65
 20
153.05
 10
84.95
 20
153.05
 10
84.95
 20
150.25
  0
LWPOLYLINE
  5
E6
100
AcDbEntity
  8
ASSEMBLY_OUTLINES_TOP
100
AcDbPolyline
 90
        4
 70
         1
 43
0.1
 10
33.75
 20
101.15
 10
33.75
 20
104.05
 10
35.05
 20
104.05
 10
35.05
 20
101.15
  0
LWPOLYLINE
  5
E7
100
AcDbEntity
  8
ASSEMBLY_OUTLINES_TOP
100
AcDbPolyline
 90
        4
 70
         1
 43
0.1
 10
33.75
 20
154.55
 10
33.75
 20
155.75
 10
34.55
 20
155.75
 10
34.55
 20
154.55
  0
LWPOLYLINE
  5
E8
100
AcDbEntity
  8
ASSEMBLY_OUTLINES_TOP
100
AcDbPolyline
 90
        2
 70
         0
 43
0.1
 10
33.75
 20
155.75
 10
34.55
 20
155.75
  0
LWPOLYLINE
  5
E9
100
AcDbEntity
  8
ASSEMBLY_OUTLINES_TOP
100
AcDbPolyline
 90
        2
 70
         0
 43
0.1
 10
33.75
 20
155.65
 10
34.55
 20
155.65
  0
LWPOLYLINE
  5
EA
100
AcDbEntity
  8
ASSEMBLY_OUTLINES_TOP
100
AcDbPolyline
 90
        2
 70
         0
 43
0.1
 10
33.75
 20
155.55
 10
34.55
 20
155.55
  0
LWPOLYLINE
  5
EB
100
AcDbEntity
  8
ASSEMBLY_OUTLINES_TOP
100
AcDbPolyline
 90
        2
 70
         0
 43
0.1
 10
33.75
 20
155.45
 10
34.55
 20
155.45
  0
LWPOLYLINE
  5
EC
100
AcDbEntity
  8
ASSEMBLY_OUTLINES_TOP
100
AcDbPolyline
 90
        2
 70
         0
 43
0.1
 10
33.75
 20
155.35
 10
34.55
 20
155.35
  0
LWPOLYLINE
  5
ED
100
AcDbEntity
  8
ASSEMBLY_OUTLINES_TOP
100
AcDbPolyline
 90
        2
 70
         0
 43
0.1
 10
33.75
 20
155.25
 10
34.55
 20
155.25
  0
LWPOLYLINE
  5
EE
100
AcDbEntity
  8
ASSEMBLY_OUTLINES_TOP
100
AcDbPolyline
 90
        4
 70
         1
 43
0.1
 10
83.65
 20
153.15
 10
83.65
 20
155.95
 10
84.95
 20
155.95
 10
84.95
 20
153.15
  0
LWPOLYLINE
  5
EF
100
AcDbEntity
  8
ASSEMBLY_OUTLINES_TOP
100
AcDbPolyline
 90
        4
 70
         1
 43
0.1
 10
44.75
 20
119.35
 10
44.75
 20
122.25
 10
46.05
 20
122.25
 10
46.05
 20
119.35
  0
LWPOLYLINE
  5
F0
100
AcDbEntity
  8
ASSEMBLY_OUTLINES_TOP
100
AcDbPolyline
 90
        4
 70
         1
 43
0.1
 10
64.85
 20
109.25
 10
64.85
 20
112.05
 10
66.15
 20
112.05
 10
66.15
 20
109.25
  0
LWPOLYLINE
  5
F1
100
AcDbEntity
  8
ASSEMBLY_OUTLINES_TOP
100
AcDbPolyline
 90
        4
 70
         1
 43
0.1
 10
61.75
 20
100.35
 10
61.75
 20
101.65
 10
64.65
 20
101.65
 10
64.65
 20
100.35
  0
LWPOLYLINE
  5
F2
100
AcDbEntity
  8
ASSEMBLY_OUTLINES_TOP
100
AcDbPolyline
 90
        4
 70
         1
 43
0.1
 10
37.575
 20
129.4
 10
37.575
 20
130.7
 10
40.475
 20
130.7
 10
40.475
 20
129.4
  0
LWPOLYLINE
  5
F3
100
AcDbEntity
  8
ASSEMBLY_OUTLINES_TOP
100
AcDbPolyline
 90
        4
 70
         1
 43
0.1
 10
69.95
 20
146.8
 10
69.95
 20
149.6
 10
71.25
 20
149.6
 10
71.25
 20
146.8
  0
LWPOLYLINE
  5
F4
100
AcDbEntity
  8
ASSEMBLY_OUTLINES_TOP
100
AcDbPolyline
 90
        4
 70
         1
 43
0.1
 10
80.375
 20
106.425
 10
80.375
 20
108.175
 10
83.425
 20
108.175
 10
83.425
 20
106.425
  0
LWPOLYLINE
  5
F5
100
AcDbEntity
  8
ASSEMBLY_OUTLINES_TOP
100
AcDbPolyline
 90
        2
 70
         0
 43
0.1
 10
80.475
 20
106.425
 10
80.375
 20
106.525
  0
LWPOLYLINE
  5
F6
100
AcDbEntity
  8
ASSEMBLY_OUTLINES_TOP
100
AcDbPolyline
 90
        2
 70
         0
 43
0.1
 10
80.575
 20
106.425
 10
80.375
 20
106.625
  0
LWPOLYLINE
  5
F7
100
AcDbEntity
  8
ASSEMBLY_OUTLINES_TOP
100
AcDbPolyline
 90
        2
 70
         0
 43
0.1
 10
80.675
 20
106.425
 10
80.375
 20
106.725
  0
LWPOLYLINE
  5
F8
100
AcDbEntity
  8
ASSEMBLY_OUTLINES_TOP
100
AcDbPolyline
 90
        2
 70
         0
 43
0.1
 10
80.775
 20
106.425
 10
80.375
 20
106.825
  0
LWPOLYLINE
  5
F9
100
AcDbEntity
  8
ASSEMBLY_OUTLINES_TOP
100
AcDbPolyline
 90
        2
 70
         0
 43
0.1
 10
80.875
 20
106.425
 10
80.375
 20
106.925
  0
LWPOLYLINE
  5
FA
100
AcDbEntity
  8
ASSEMBLY_OUTLINES_TOP
100
AcDbPolyline
 90
        2
 70
         0
 43
0.1
 10
80.975
 20
106.425
 10
80.375
 20
107.025
  0
LWPOLYLINE
  5
FB
100
AcDbEntity
  8
ASSEMBLY_OUTLINES_TOP
100
AcDbPolyline
 90
        4
 70
         1
 43
0.1
 10
49.35
 20
115.5
 10
49.35
 20
116.8
 10
52.25
 20
116.8
 10
52.25
 20
115.5
  0
LWPOLYLINE
  5
FC
100
AcDbEntity
  8
ASSEMBLY_OUTLINES_TOP
100
AcDbPolyline
 90
        4
 70
         1
 43
0.1
 10
52.575
 20
152.775
 10
52.575
 20
154.525
 10
55.625
 20
154.525
 10
55.625
 20
152.775
  0
LWPOLYLINE
  5
FD
100
AcDbEntity
  8
ASSEMBLY_OUTLINES_TOP
100
AcDbPolyline
 90
        2
 70
         0
 43
0.1
 10
52.675
 20
152.775
 10
52.575
 20
152.875
  0
LWPOLYLINE
  5
FE
100
AcDbEntity
  8
ASSEMBLY_OUTLINES_TOP
100
AcDbPolyline
 90
        2
 70
         0
 43
0.1
 10
52.775
 20
152.775
 10
52.575
 20
152.975
  0
LWPOLYLINE
  5
FF
100
AcDbEntity
  8
ASSEMBLY_OUTLINES_TOP
100
AcDbPolyline
 90
        2
 70
         0
 43
0.1
 10
52.875
 20
152.775
 10
52.575
 20
153.075
  0
LWPOLYLINE
  5
100
100
AcDbEntity
  8
ASSEMBLY_OUTLINES_TOP
100
AcDbPolyline
 90
        2
 70
         0
 43
0.1
 10
52.975
 20
152.775
 10
52.575
 20
153.175
  0
LWPOLYLINE
  5
101
100
AcDbEntity
  8
ASSEMBLY_OUTLINES_TOP
100
AcDbPolyline
 90
        2
 70
         0
 43
0.1
 10
53.075
 20
152.775
 10
52.575
 20
153.275
  0
LWPOLYLINE
  5
102
100
AcDbEntity
  8
ASSEMBLY_OUTLINES_TOP
100
AcDbPolyline
 90
        2
 70
         0
 43
0.1
 10
53.175
 20
152.775
 10
52.575
 20
153.375
  0
LWPOLYLINE
  5
103
100
AcDbEntity
  8
ASSEMBLY_OUTLINES_TOP
100
AcDbPolyline
 90
        4
 70
         1
 43
0.1
 10
39.9
 20
115.45
 10
39.9
 20
118.25
 10
41.2
 20
118.25
 10
41.2
 20
115.45
  0
LWPOLYLINE
  5
104
100
AcDbEntity
  8
ASSEMBLY_OUTLINES_TOP
100
AcDbPolyline
 90
        4
 70
         1
 43
0.1
 10
44.3
 20
128.65
 10
44.3
 20
130.45
 10
47.6
 20
130.45
 10
47.6
 20
128.65
  0
LWPOLYLINE
  5
105
100
AcDbEntity
  8
ASSEMBLY_OUTLINES_TOP
100
AcDbPolyline
 90
        4
 70
         1
 43
0.1
 10
75.9
 20
127.05
 10
75.9
 20
128.35
 10
78.7
 20
128.35
 10
78.7
 20
127.05
  0
LWPOLYLINE
  5
106
100
AcDbEntity
  8
ASSEMBLY_OUTLINES_TOP
100
AcDbPolyline
 90
        4
 70
         1
 43
0.1
 10
39.35
 20
119.4
 10
39.35
 20
122.3
 10
40.65
 20
122.3
 10
40.65
 20
119.4
  0
LWPOLYLINE
  5
107
100
AcDbEntity
  8
ASSEMBLY_OUTLINES_TOP
100
AcDbPolyline
 90
        4
 70
         1
 43
0.1
 10
60.1
 20
100.35
 10
60.1
 20
103.15
 10
61.4
 20
103.15
 10
61.4
 20
100.35
  0
LWPOLYLINE
  5
108
100
AcDbEntity
  8
ASSEMBLY_OUTLINES_TOP
100
AcDbPolyline
 90
        4
 70
         1
 43
0.1
 10
70.35
 20
104.7
 10
70.35
 20
106.0
 10
73.25
 20
106.0
 10
73.25
 20
104.7
  0
LWPOLYLINE
  5
109
100
AcDbEntity
  8
ASSEMBLY_OUTLINES_TOP
100
AcDbPolyline
 90
        4
 70
         1
 43
0.1
 10
78.15
 20
108.05
 10
78.15
 20
111.05
 10
79.55
 20
111.05
 10
79.55
 20
108.05
  0
LWPOLYLINE
  5
10A
100
AcDbEntity
  8
ASSEMBLY_OUTLINES_TOP
100
AcDbPolyline
 90
        2
 70
         0
 43
0.1
 10
78.15
 20
110.95
 10
78.25
 20
111.05
  0
LWPOLYLINE
  5
10B
100
AcDbEntity
  8
ASSEMBLY_OUTLINES_TOP
100
AcDbPolyline
 90
        2
 70
         0
 43
0.1
 10
78.15
 20
110.85
 10
78.35
 20
111.05
  0
LWPOLYLINE
  5
10C
100
AcDbEntity
  8
ASSEMBLY_OUTLINES_TOP
100
AcDbPolyline
 90
        2
 70
         0
 43
0.1
 10
78.15
 20
110.75
 10
78.45
 20
111.05
  0
LWPOLYLINE
  5
10D
100
AcDbEntity
  8
ASSEMBLY_OUTLINES_TOP
100
AcDbPolyline
 90
        2
 70
         0
 43
0.1
 10
78.15
 20
110.65
 10
78.55
 20
111.05
  0
LWPOLYLINE
  5
10E
100
AcDbEntity
  8
ASSEMBLY_OUTLINES_TOP
100
AcDbPolyline
 90
        2
 70
         0
 43
0.1
 10
78.15
 20
110.55
 10
78.65
 20
111.05
  0
LWPOLYLINE
  5
10F
100
AcDbEntity
  8
ASSEMBLY_OUTLINES_TOP
100
AcDbPolyline
 90
        2
 70
         0
 43
0.1
 10
78.15
 20
110.45
 10
78.75
 20
111.05
  0
LWPOLYLINE
  5
110
100
AcDbEntity
  8
ASSEMBLY_OUTLINES_TOP
100
AcDbPolyline
 90
        4
 70
         1
 43
0.1
 10
68.15
 20
153.15
 10
68.15
 20
155.95
 10
69.45
 20
155.95
 10
69.45
 20
153.15
  0
LWPOLYLINE
  5
111
100
AcDbEntity
  8
ASSEMBLY_OUTLINES_TOP
100
AcDbPolyline
 90
        4
 70
         1
 43
0.1
 10
68.55
 20
104.85
 10
68.55
 20
107.65
 10
69.85
 20
107.65
 10
69.85
 20
104.85
  0
LWPOLYLINE
  5
112
100
AcDbEntity
  8
ASSEMBLY_OUTLINES_TOP
100
AcDbPolyline
 90
        4
 70
         1
 43
0.1
 10
61.75
 20
98.95
 10
61.75
 20
100.25
 10
64.65
 20
100.25
 10
64.65
 20
98.95
  0
LWPOLYLINE
  5
113
100
AcDbEntity
  8
ASSEMBLY_OUTLINES_TOP
100
AcDbPolyline
 90
        4
 70
         1
 43
0.1
 10
50.35
 20
110.6
 10
50.35
 20
113.9
 10
52.15
 20
113.9
 10
52.15
 20
110.6
  0
LWPOLYLINE
  5
114
100
AcDbEntity
  8
ASSEMBLY_OUTLINES_TOP
100
AcDbPolyline
 90
        4
 70
         1
 43
0.1
 10
48.9
 20
108.95
 10
48.9
 20
110.25
 10
51.7
 20
110.25
 10
51.7
 20
108.95
  0
LWPOLYLINE
  5
115
100
AcDbEntity
  8
ASSEMBLY_OUTLINES_TOP
100
AcDbPolyline
 90
        4
 70
         1
 43
0.1
 10
73.7
 20
141.05
 10
73.7
 20
142.35
 10
76.5
 20
142.35
 10
76.5
 20
141.05
  0
LWPOLYLINE
  5
116
100
AcDbEntity
  8
ASSEMBLY_OUTLINES_TOP
100
AcDbPolyline
 90
        4
 70
         1
 43
0.1
 10
42.05
 20
132.95
 10
42.05
 20
135.85
 10
43.35
 20
135.85
 10
43.35
 20
132.95
  0
LWPOLYLINE
  5
117
100
AcDbEntity
  8
ASSEMBLY_OUTLINES_TOP
100
AcDbPolyline
 90
        4
 70
         1
 43
0.1
 10
48.45
 20
110.6
 10
48.45
 20
113.9
 10
50.25
 20
113.9
 10
50.25
 20
110.6
  0
LWPOLYLINE
  5
118
100
AcDbEntity
  8
ASSEMBLY_OUTLINES_TOP
100
AcDbPolyline
 90
        4
 70
         1
 43
0.1
 10
41.6
 20
96.4
 10
41.6
 20
108.4
 10
57.6
 20
108.4
 10
57.6
 20
96.4
  0
LWPOLYLINE
  5
119
100
AcDbEntity
  8
ASSEMBLY_OUTLINES_TOP
100
AcDbPolyline
 90
        2
 70
         0
 43
0.1
 10
57.6
 20
108.3
 10
57.5
 20
108.4
  0
LWPOLYLINE
  5
11A
100
AcDbEntity
  8
ASSEMBLY_OUTLINES_TOP
100
AcDbPolyline
 90
        2
 70
         0
 43
0.1
 10
57.6
 20
108.2
 10
57.4
 20
108.4
  0
LWPOLYLINE
  5
11B
100
AcDbEntity
  8
ASSEMBLY_OUTLINES_TOP
100
AcDbPolyline
 90
        2
 70
         0
 43
0.1
 10
57.6
 20
108.1
 10
57.3
 20
108.4
  0
LWPOLYLINE
  5
11C
100
AcDbEntity
  8
ASSEMBLY_OUTLINES_TOP
100
AcDbPolyline
 90
        2
 70
         0
 43
0.1
 10
57.6
 20
108.0
 10
57.2
 20
108.4
  0
LWPOLYLINE
  5
11D
100
AcDbEntity
  8
ASSEMBLY_OUTLINES_TOP
100
AcDbPolyline
 90
        2
 70
         0
 43
0.1
 10
57.6
 20
107.9
 10
57.1
 20
108.4
  0
LWPOLYLINE
  5
11E
100
AcDbEntity
  8
ASSEMBLY_OUTLINES_TOP
100
AcDbPolyline
 90
        2
 70
         0
 43
0.1
 10
57.6
 20
107.8
 10
57.0
 20
108.4
  0
LWPOLYLINE
  5
11F
100
AcDbEntity
  8
ASSEMBLY_OUTLINES_TOP
100
AcDbPolyline
 90
        2
 70
         0
 43
0.1
 10
57.6
 20
107.7
 10
56.9
 20
108.4
  0
LWPOLYLINE
  5
120
100
AcDbEntity
  8
ASSEMBLY_OUTLINES_TOP
100
AcDbPolyline
 90
        2
 70
         0
 43
0.1
 10
57.6
 20
107.6
 10
56.8
 20
108.4
  0
LWPOLYLINE
  5
121
100
AcDbEntity
  8
ASSEMBLY_OUTLINES_TOP
100
AcDbPolyline
 90
        2
 70
         0
 43
0.1
 10
57.6
 20
107.5
 10
56.7
 20
108.4
  0
LWPOLYLINE
  5
122
100
AcDbEntity
  8
ASSEMBLY_OUTLINES_TOP
100
AcDbPolyline
 90
        2
 70
         0
 43
0.1
 10
57.6
 20
107.4
 10
56.6
 20
108.4
  0
LWPOLYLINE
  5
123
100
AcDbEntity
  8
ASSEMBLY_OUTLINES_TOP
100
AcDbPolyline
 90
        4
 70
         1
 43
0.1
 10
43.1
 20
96.65
 10
43.1
 20
108.15
 10
56.1
 20
108.15
 10
56.1
 20
96.65
  0
LWPOLYLINE
  5
124
100
AcDbEntity
  8
ASSEMBLY_OUTLINES_TOP
100
AcDbPolyline
 90
        2
 70
         0
 43
0.1
 10
56.1
 20
107.65
 10
55.6
 20
108.15
  0
LWPOLYLINE
  5
125
100
AcDbEntity
  8
ASSEMBLY_OUTLINES_TOP
100
AcDbPolyline
 90
        2
 70
         0
 43
0.1
 10
56.1
 20
107.55
 10
55.5
 20
108.15
  0
LWPOLYLINE
  5
126
100
AcDbEntity
  8
ASSEMBLY_OUTLINES_TOP
100
AcDbPolyline
 90
        2
 70
         0
 43
0.1
 10
56.1
 20
107.45
 10
55.4
 20
108.15
  0
LWPOLYLINE
  5
127
100
AcDbEntity
  8
ASSEMBLY_OUTLINES_TOP
100
AcDbPolyline
 90
        2
 70
         0
 43
0.1
 10
56.1
 20
107.35
 10
55.3
 20
108.15
  0
LWPOLYLINE
  5
128
100
AcDbEntity
  8
ASSEMBLY_OUTLINES_TOP
100
AcDbPolyline
 90
        2
 70
         0
 43
0.1
 10
56.1
 20
107.25
 10
55.2
 20
108.15
  0
LWPOLYLINE
  5
129
100
AcDbEntity
  8
ASSEMBLY_OUTLINES_TOP
100
AcDbPolyline
 90
        2
 70
         0
 43
0.1
 10
56.1
 20
107.15
 10
55.1
 20
108.15
  0
LWPOLYLINE
  5
12A
100
AcDbEntity
  8
ASSEMBLY_OUTLINES_TOP
100
AcDbPolyline
 90
        4
 70
         1
 43
0.1
 10
75.35
 20
115.95
 10
75.35
 20
117.25
 10
78.15
 20
117.25
 10
78.15
 20
115.95
  0
LWPOLYLINE
  5
12B
100
AcDbEntity
  8
ASSEMBLY_OUTLINES_TOP
100
AcDbPolyline
 90
        4
 70
         1
 43
0.1
 10
68.15
 20
143.05
 10
68.15
 20
145.85
 10
69.45
 20
145.85
 10
69.45
 20
143.05
  0
LWPOLYLINE
  5
12C
100
AcDbEntity
  8
ASSEMBLY_OUTLINES_TOP
100
AcDbPolyline
 90
        4
 70
         1
 43
0.1
 10
37.65
 20
134.7
 10
37.65
 20
136.0
 10
40.55
 20
136.0
 10
40.55
 20
134.7
  0
LWPOLYLINE
  5
12D
100
AcDbEntity
  8
ASSEMBLY_OUTLINES_TOP
100
AcDbPolyline
 90
        4
 70
         1
 43
0.1
 10
62.35
 20
102.9
 10
62.35
 20
104.2
 10
65.15
 20
104.2
 10
65.15
 20
102.9
  0
LWPOLYLINE
  5
12E
100
AcDbEntity
  8
ASSEMBLY_OUTLINES_TOP
100
AcDbPolyline
 90
        4
 70
         1
 43
0.1
 10
78.55
 20
156.25
 10
78.55
 20
157.55
 10
81.45
 20
157.55
 10
81.45
 20
156.25
  0
LWPOLYLINE
  5
12F
100
AcDbEntity
  8
ASSEMBLY_OUTLINES_TOP
100
AcDbPolyline
 90
        4
 70
         1
 43
0.1
 10
75.95
 20
119.4
 10
75.95
 20
120.7
 10
78.75
 20
120.7
 10
78.75
 20
119.4
  0
LWPOLYLINE
  5
130
100
AcDbEntity
  8
ASSEMBLY_OUTLINES_TOP
100
AcDbPolyline
 90
        4
 70
         1
 43
0.1
 10
75.9
 20
125.65
 10
75.9
 20
126.95
 10
78.7
 20
126.95
 10
78.7
 20
125.65
  0
LWPOLYLINE
  5
131
100
AcDbEntity
  8
ASSEMBLY_OUTLINES_TOP
100
AcDbPolyline
 90
        4
 70
         1
 43
0.1
 10
82.05
 20
138.85
 10
82.05
 20
141.75
 10
83.35
 20
141.75
 10
83.35
 20
138.85
  0
LWPOLYLINE
  5
132
100
AcDbEntity
  8
ASSEMBLY_OUTLINES_TOP
100
AcDbPolyline
 90
        4
 70
         1
 43
0.1
 10
52.85
 20
134.55
 10
52.85
 20
135.85
 10
55.75
 20
135.85
 10
55.75
 20
134.55
  0
LWPOLYLINE
  5
133
100
AcDbEntity
  8
ASSEMBLY_OUTLINES_TOP
100
AcDbPolyline
 90
        4
 70
         1
 43
0.1
 10
46.15
 20
115.65
 10
46.15
 20
116.95
 10
49.05
 20
116.95
 10
49.05
 20
115.65
  0
LWPOLYLINE
  5
134
100
AcDbEntity
  8
ASSEMBLY_OUTLINES_TOP
100
AcDbPolyline
 90
        4
 70
         1
 43
0.1
 10
61.55
 20
110.85
 10
61.55
 20
112.15
 10
64.45
 20
112.15
 10
64.45
 20
110.85
  0
LWPOLYLINE
  5
135
100
AcDbEntity
  8
ASSEMBLY_OUTLINES_TOP
100
AcDbPolyline
 90
        4
 70
         1
 43
0.1
 10
33.75
 20
135.95
 10
33.75
 20
138.85
 10
35.05
 20
138.85
 10
35.05
 20
135.95
  0
LWPOLYLINE
  5
136
100
AcDbEntity
  8
ASSEMBLY_OUTLINES_TOP
100
AcDbPolyline
 90
        4
 70
         1
 43
0.1
 10
48.1
 20
149.65
 10
48.1
 20
152.55
 10
49.4
 20
152.55
 10
49.4
 20
149.65
  0
LWPOLYLINE
  5
137
100
AcDbEntity
  8
ASSEMBLY_OUTLINES_TOP
100
AcDbPolyline
 90
        4
 70
         1
 43
0.1
 10
70.3
 20
150.0
 10
70.3
 20
152.8
 10
71.6
 20
152.8
 10
71.6
 20
150.0
  0
LWPOLYLINE
  5
138
100
AcDbEntity
  8
ASSEMBLY_OUTLINES_TOP
100
AcDbPolyline
 90
        4
 70
         1
 43
0.1
 10
75.75
 20
123.8
 10
75.75
 20
125.6
 10
79.05
 20
125.6
 10
79.05
 20
123.8
  0
LWPOLYLINE
  5
139
100
AcDbEntity
  8
ASSEMBLY_OUTLINES_TOP
100
AcDbPolyline
 90
        4
 70
         1
 43
0.1
 10
36.95
 20
132.8
 10
36.95
 20
134.1
 10
39.85
 20
134.1
 10
39.85
 20
132.8
  0
LWPOLYLINE
  5
13A
100
AcDbEntity
  8
ASSEMBLY_OUTLINES_TOP
100
AcDbPolyline
 90
        4
 70
         1
 43
0.1
 10
77.1
 20
128.55
 10
77.1
 20
130.35
 10
80.4
 20
130.35
 10
80.4
 20
128.55
  0
LWPOLYLINE
  5
13B
100
AcDbEntity
  8
ASSEMBLY_OUTLINES_TOP
100
AcDbPolyline
 90
        4
 70
         1
 43
0.1
 10
35.85
 20
110.55
 10
35.85
 20
113.45
 10
37.15
 20
113.45
 10
37.15
 20
110.55
  0
LWPOLYLINE
  5
13C
100
AcDbEntity
  8
ASSEMBLY_OUTLINES_TOP
100
AcDbPolyline
 90
        4
 70
         1
 43
0.1
 10
70.4
 20
106.2
 10
70.4
 20
107.5
 10
73.2
 20
107.5
 10
73.2
 20
106.2
  0
LWPOLYLINE
  5
13D
100
AcDbEntity
  8
ASSEMBLY_OUTLINES_TOP
100
AcDbPolyline
 90
        4
 70
         1
 43
0.1
 10
71.75
 20
143.0
 10
71.75
 20
145.8
 10
73.05
 20
145.8
 10
73.05
 20
143.0
  0
LWPOLYLINE
  5
13E
100
AcDbEntity
  8
ASSEMBLY_OUTLINES_TOP
100
AcDbPolyline
 90
        4
 70
         1
 43
0.1
 10
40.55
 20
131.75
 10
40.55
 20
134.65
 10
41.85
 20
134.65
 10
41.85
 20
131.75
  0
LWPOLYLINE
  5
13F
100
AcDbEntity
  8
ASSEMBLY_OUTLINES_TOP
100
AcDbPolyline
 90
        4
 70
         1
 43
0.1
 10
43.95
 20
141.6
 10
43.95
 20
144.5
 10
45.25
 20
144.5
 10
45.25
 20
141.6
  0
LWPOLYLINE
  5
140
100
AcDbEntity
  8
ASSEMBLY_OUTLINES_TOP
100
AcDbPolyline
 90
        4
 70
         1
 43
0.1
 10
81.5
 20
156.25
 10
81.5
 20
157.55
 10
84.4
 20
157.55
 10
84.4
 20
156.25
  0
LWPOLYLINE
  5
141
100
AcDbEntity
  8
ASSEMBLY_OUTLINES_TOP
100
AcDbPolyline
 90
        4
 70
         1
 43
0.1
 10
59.3
 20
156.3
 10
59.3
 20
157.6
 10
62.2
 20
157.6
 10
62.2
 20
156.3
  0
LWPOLYLINE
  5
142
100
AcDbEntity
  8
ASSEMBLY_OUTLINES_TOP
100
AcDbPolyline
 90
        4
 70
         1
 43
0.1
 10
43.75
 20
130.55
 10
43.75
 20
132.35
 10
47.05
 20
132.35
 10
47.05
 20
130.55
  0
LWPOLYLINE
  5
143
100
AcDbEntity
  8
ASSEMBLY_OUTLINES_TOP
100
AcDbPolyline
 90
        4
 70
         1
 43
0.1
 10
45.45
 20
152.45
 10
45.45
 20
155.35
 10
46.75
 20
155.35
 10
46.75
 20
152.45
  0
LWPOLYLINE
  5
144
100
AcDbEntity
  8
ASSEMBLY_OUTLINES_TOP
100
AcDbPolyline
 90
        4
 70
         1
 43
0.1
 10
67.7
 20
109.1
 10
67.7
 20
111.9
 10
69.0
 20
111.9
 10
69.0
 20
109.1
  0
LWPOLYLINE
  5
145
100
AcDbEntity
  8
ASSEMBLY_OUTLINES_TOP
100
AcDbPolyline
 90
        4
 70
         1
 43
0.1
 10
35.75
 20
141.3
 10
35.75
 20
142.6
 10
38.65
 20
142.6
 10
38.65
 20
141.3
  0
LWPOLYLINE
  5
146
100
AcDbEntity
  8
ASSEMBLY_OUTLINES_TOP
100
AcDbPolyline
 90
        4
 70
         1
 43
0.1
 10
75.2
 20
114.4
 10
75.2
 20
115.7
 10
78.0
 20
115.7
 10
78.0
 20
114.4
  0
LWPOLYLINE
  5
147
100
AcDbEntity
  8
ASSEMBLY_OUTLINES_TOP
100
AcDbPolyline
 90
        4
 70
         1
 43
0.1
 10
55.75
 20
134.55
 10
55.75
 20
135.85
 10
58.65
 20
135.85
 10
58.65
 20
134.55
  0
LWPOLYLINE
  5
148
100
AcDbEntity
  8
ASSEMBLY_OUTLINES_TOP
100
AcDbPolyline
 90
        4
 70
         1
 43
0.1
 10
79.6
 20
122.1
 10
79.6
 20
123.4
 10
82.5
 20
123.4
 10
82.5
 20
122.1
  0
LWPOLYLINE
  5
149
100
AcDbEntity
  8
ASSEMBLY_OUTLINES_TOP
100
AcDbPolyline
 90
        4
 70
         1
 43
0.1
 10
35.4
 20
135.95
 10
35.4
 20
138.85
 10
36.7
 20
138.85
 10
36.7
 20
135.95
  0
LWPOLYLINE
  5
14A
100
AcDbEntity
  8
ASSEMBLY_OUTLINES_TOP
100
AcDbPolyline
 90
        4
 70
         1
 43
0.1
 10
59.1
 20
142.65
 10
59.1
 20
155.95
 10
66.6
 20
155.95
 10
66.6
 20
142.65
  0
LWPOLYLINE
  5
14B
100
AcDbEntity
  8
ASSEMBLY_OUTLINES_TOP
100
AcDbPolyline
 90
        2
 70
         0
 43
0.1
 10
66.5
 20
142.65
 10
66.6
 20
142.75
  0
LWPOLYLINE
  5
14C
100
AcDbEntity
  8
ASSEMBLY_OUTLINES_TOP
100
AcDbPolyline
 90
        2
 70
         0
 43
0.1
 10
66.4
 20
142.65
 10
66.6
 20
142.85
  0
LWPOLYLINE
  5
14D
100
AcDbEntity
  8
ASSEMBLY_OUTLINES_TOP
100
AcDbPolyline
 90
        2
 70
         0
 43
0.1
 10
66.3
 20
142.65
 10
66.6
 20
142.95
  0
LWPOLYLINE
  5
14E
100
AcDbEntity
  8
ASSEMBLY_OUTLINES_TOP
100
AcDbPolyline
 90
        2
 70
         0
 43
0.1
 10
66.2
 20
142.65
 10
66.6
 20
143.05
  0
LWPOLYLINE
  5
14F
100
AcDbEntity
  8
ASSEMBLY_OUTLINES_TOP
100
AcDbPolyline
 90
        2
 70
         0
 43
0.1
 10
66.1
 20
142.65
 10
66.6
 20
143.15
  0
LWPOLYLINE
  5
150
100
AcDbEntity
  8
ASSEMBLY_OUTLINES_TOP
100
AcDbPolyline
 90
        2
 70
         0
 43
0.1
 10
66.0
 20
142.65
 10
66.6
 20
143.25
  0
LWPOLYLINE
  5
151
100
AcDbEntity
  8
ASSEMBLY_OUTLINES_TOP
100
AcDbPolyline
 90
        2
 70
         0
 43
0.1
 10
65.9
 20
142.65
 10
66.6
 20
143.35
  0
LWPOLYLINE
  5
152
100
AcDbEntity
  8
ASSEMBLY_OUTLINES_TOP
100
AcDbPolyline
 90
        2
 70
         0
 43
0.1
 10
65.8
 20
142.65
 10
66.6
 20
143.45
  0
LWPOLYLINE
  5
153
100
AcDbEntity
  8
ASSEMBLY_OUTLINES_TOP
100
AcDbPolyline
 90
        2
 70
         0
 43
0.1
 10
65.7
 20
142.65
 10
66.6
 20
143.55
  0
LWPOLYLINE
  5
154
100
AcDbEntity
  8
ASSEMBLY_OUTLINES_TOP
100
AcDbPolyline
 90
        2
 70
         0
 43
0.1
 10
65.6
 20
142.65
 10
66.6
 20
143.65
  0
LWPOLYLINE
  5
155
100
AcDbEntity
  8
ASSEMBLY_OUTLINES_TOP
100
AcDbPolyline
 90
        8
 70
         1
 43
0.1
 10
42.9
 20
114.25
 10
42.9
 20
110.95
 42
0.4142135624
 10
43.9
 20
109.95
 10
47.1
 20
109.95
 42
0.4142135624
 10
48.1
 20
110.95
 10
48.1
 20
114.25
 42
0.4142135624
 10
47.1
 20
115.25
 10
43.9
 20
115.25
 42
0.4142135624
  0
LWPOLYLINE
  5
156
100
AcDbEntity
  8
ASSEMBLY_OUTLINES_TOP
100
AcDbPolyline
 90
        4
 70
         1
 43
0.1
 10
79.6
 20
120.75
 10
79.6
 20
122.05
 10
82.5
 20
122.05
 10
82.5
 20
120.75
  0
LWPOLYLINE
  5
157
100
AcDbEntity
  8
ASSEMBLY_OUTLINES_TOP
100
AcDbPolyline
 90
        4
 70
         1
 43
0.1
 10
69.75
 20
142.65
 10
69.75
 20
145.95
 10
71.55
 20
145.95
 10
71.55
 20
142.65
  0
LWPOLYLINE
  5
158
100
AcDbEntity
  8
ASSEMBLY_OUTLINES_TOP
100
AcDbPolyline
 90
        4
 70
         1
 43
0.1
 10
78.4
 20
112.9
 10
78.4
 20
115.7
 10
79.7
 20
115.7
 10
79.7
 20
112.9
  0
LWPOLYLINE
  5
159
100
AcDbEntity
  8
ASSEMBLY_OUTLINES_TOP
100
AcDbPolyline
 90
        4
 70
         1
 43
0.1
 10
81.15
 20
113.05
 10
81.15
 20
114.35
 10
84.05
 20
114.35
 10
84.05
 20
113.05
  0
LWPOLYLINE
  5
15A
100
AcDbEntity
  8
ASSEMBLY_OUTLINES_TOP
100
AcDbPolyline
 90
        4
 70
         1
 43
0.1
 10
74.05
 20
107.7
 10
74.05
 20
110.5
 10
75.35
 20
110.5
 10
75.35
 20
107.7
  0
LWPOLYLINE
  5
15B
100
AcDbEntity
  8
ASSEMBLY_OUTLINES_TOP
100
AcDbPolyline
 90
        4
 70
         1
 43
0.1
 10
48.7
 20
153.4
 10
48.7
 20
156.2
 10
50.0
 20
156.2
 10
50.0
 20
153.4
  0
LWPOLYLINE
  5
15C
100
AcDbEntity
  8
ASSEMBLY_OUTLINES_TOP
100
AcDbPolyline
 90
        4
 70
         1
 43
0.1
 10
61.5
 20
107.3
 10
61.5
 20
108.6
 10
64.3
 20
108.6
 10
64.3
 20
107.3
  0
LWPOLYLINE
  5
15D
100
AcDbEntity
  8
ASSEMBLY_OUTLINES_TOP
100
AcDbPolyline
 90
        4
 70
         1
 43
0.1
 10
33.65
 20
139.45
 10
33.65
 20
140.75
 10
36.55
 20
140.75
 10
36.55
 20
139.45
  0
LWPOLYLINE
  5
15E
100
AcDbEntity
  8
ASSEMBLY_OUTLINES_TOP
100
AcDbPolyline
 90
        4
 70
         1
 43
0.1
 10
79.9
 20
125.05
 10
79.9
 20
127.95
 10
81.2
 20
127.95
 10
81.2
 20
125.05
  0
LWPOLYLINE
  5
15F
100
AcDbEntity
  8
ASSEMBLY_OUTLINES_TOP
100
AcDbPolyline
 90
        4
 70
         1
 43
0.1
 10
69.65
 20
135.8
 10
69.65
 20
139.1
 10
71.45
 20
139.1
 10
71.45
 20
135.8
  0
LWPOLYLINE
  5
160
100
AcDbEntity
  8
ASSEMBLY_OUTLINES_TOP
100
AcDbPolyline
 90
        4
 70
         1
 43
0.1
 10
75.2
 20
132.65
 10
75.2
 20
135.45
 10
76.5
 20
135.45
 10
76.5
 20
132.65
  0
LWPOLYLINE
  5
161
100
AcDbEntity
  8
ASSEMBLY_OUTLINES_TOP
100
AcDbPolyline
 90
        4
 70
         1
 43
0.1
 10
45.2
 20
144.45
 10
45.2
 20
145.75
 10
48.0
 20
145.75
 10
48.0
 20
144.45
  0
LWPOLYLINE
  5
162
100
AcDbEntity
  8
ASSEMBLY_OUTLINES_TOP
100
AcDbPolyline
 90
        4
 70
         1
 43
0.1
 10
43.85
 20
152.4
 10
43.85
 20
155.3
 10
45.15
 20
155.3
 10
45.15
 20
152.4
  0
LWPOLYLINE
  5
163
100
AcDbEntity
  8
ASSEMBLY_OUTLINES_TOP
100
AcDbPolyline
 90
        4
 70
         1
 43
0.1
 10
83.7
 20
146.6
 10
83.7
 20
149.4
 10
85.0
 20
149.4
 10
85.0
 20
146.6
  0
LWPOLYLINE
  5
164
100
AcDbEntity
  8
ASSEMBLY_OUTLINES_TOP
100
AcDbPolyline
 90
        4
 70
         1
 43
0.1
 10
39.3
 20
110.4
 10
39.3
 20
111.7
 10
42.1
 20
111.7
 10
42.1
 20
110.4
  0
LWPOLYLINE
  5
165
100
AcDbEntity
  8
ASSEMBLY_OUTLINES_TOP
100
AcDbPolyline
 90
        4
 70
         1
 43
0.1
 10
36.8
 20
100.4
 10
36.8
 20
103.2
 10
38.1
 20
103.2
 10
38.1
 20
100.4
  0
LWPOLYLINE
  5
166
100
AcDbEntity
  8
ASSEMBLY_OUTLINES_TOP
100
AcDbPolyline
 90
        4
 70
         1
 43
0.1
 10
68.15
 20
146.7
 10
68.15
 20
149.5
 10
69.45
 20
149.5
 10
69.45
 20
146.7
  0
LWPOLYLINE
  5
167
100
AcDbEntity
  8
ASSEMBLY_OUTLINES_TOP
100
AcDbPolyline
 90
        4
 70
         1
 43
0.1
 10
33.75
 20
104.15
 10
33.75
 20
107.05
 10
35.05
 20
107.05
 10
35.05
 20
104.15
  0
LWPOLYLINE
  5
168
100
AcDbEntity
  8
ASSEMBLY_OUTLINES_TOP
100
AcDbPolyline
 90
        4
 70
         1
 43
0.1
 10
40.675
 20
130.1
 10
40.675
 20
131.4
 10
43.575
 20
131.4
 10
43.575
 20
130.1
  0
LWPOLYLINE
  5
169
100
AcDbEntity
  8
ASSEMBLY_OUTLINES_TOP
100
AcDbPolyline
 90
        4
 70
         1
 43
0.1
 10
69.7
 20
153.0
 10
69.7
 20
156.3
 10
71.5
 20
156.3
 10
71.5
 20
153.0
  0
LWPOLYLINE
  5
16A
100
AcDbEntity
  8
ASSEMBLY_OUTLINES_TOP
100
AcDbPolyline
 90
        4
 70
         1
 43
0.1
 10
80.0
 20
115.45
 10
80.0
 20
118.75
 10
81.8
 20
118.75
 10
81.8
 20
115.45
  0
LWPOLYLINE
  5
16B
100
AcDbEntity
  8
ASSEMBLY_OUTLINES_TOP
100
AcDbPolyline
 90
        4
 70
         1
 43
0.1
 10
81.15
 20
110.15
 10
81.15
 20
111.45
 10
83.95
 20
111.45
 10
83.95
 20
110.15
  0
LWPOLYLINE
  5
16C
100
AcDbEntity
  8
ASSEMBLY_OUTLINES_TOP
100
AcDbPolyline
 90
        4
 70
         1
 43
0.1
 10
39.375
 20
124.75
 10
39.375
 20
127.75
 10
42.375
 20
127.75
 10
42.375
 20
124.75
  0
LWPOLYLINE
  5
16D
100
AcDbEntity
  8
ASSEMBLY_OUTLINES_TOP
100
AcDbPolyline
 90
        2
 70
         0
 43
0.1
 10
42.375
 20
124.85
 10
42.275
 20
124.75
  0
LWPOLYLINE
  5
16E
100
AcDbEntity
  8
ASSEMBLY_OUTLINES_TOP
100
AcDbPolyline
 90
        2
 70
         0
 43
0.1
 10
42.375
 20
124.95
 10
42.175
 20
124.75
  0
LWPOLYLINE
  5
16F
100
AcDbEntity
  8
ASSEMBLY_OUTLINES_TOP
100
AcDbPolyline
 90
        2
 70
         0
 43
0.1
 10
42.375
 20
125.05
 10
42.075
 20
124.75
  0
LWPOLYLINE
  5
170
100
AcDbEntity
  8
ASSEMBLY_OUTLINES_TOP
100
AcDbPolyline
 90
        2
 70
         0
 43
0.1
 10
42.375
 20
125.15
 10
41.975
 20
124.75
  0
LWPOLYLINE
  5
171
100
AcDbEntity
  8
ASSEMBLY_OUTLINES_TOP
100
AcDbPolyline
 90
        2
 70
         0
 43
0.1
 10
42.375
 20
125.25
 10
41.875
 20
124.75
  0
LWPOLYLINE
  5
172
100
AcDbEntity
  8
ASSEMBLY_OUTLINES_TOP
100
AcDbPolyline
 90
        2
 70
         0
 43
0.1
 10
42.375
 20
125.35
 10
41.775
 20
124.75
  0
LWPOLYLINE
  5
173
100
AcDbEntity
  8
ASSEMBLY_OUTLINES_TOP
100
AcDbPolyline
 90
        4
 70
         1
 43
0.1
 10
58.15
 20
108.2
 10
58.15
 20
111.5
 10
59.95
 20
111.5
 10
59.95
 20
108.2
  0
LWPOLYLINE
  5
174
100
AcDbEntity
  8
ASSEMBLY_OUTLINES_TOP
100
AcDbPolyline
 90
        4
 70
         1
 43
0.1
 10
60.0
 20
108.9
 10
60.0
 20
111.7
 10
61.3
 20
111.7
 10
61.3
 20
108.9
  0
TEXT
  5
176
100
AcDbEntity
  8
ASSEMBLY_REF_DES_TOP
100
AcDbText
 10
83.90455
 20
116.7525
 30
0.0
 40
0.7
  1
R55
 50
270.0
  7
GOST_TYPE_B
 72
         1
 11
84.25
 21
116.0
 31
0.0
100
AcDbText
 73
         2
  0
TEXT
  5
177
100
AcDbEntity
  8
ASSEMBLY_REF_DES_TOP
100
AcDbText
 10
59.236675
 20
134.830525
 30
0.0
 40
0.85
  1
R29
  7
GOST_TYPE_B
 72
         1
 11
60.15
 21
135.25
 31
0.0
100
AcDbText
 73
         2
  0
TEXT
  5
178
100
AcDbEntity
  8
ASSEMBLY_REF_DES_TOP
100
AcDbText
 10
65.9052
 20
106.8768
 30
0.0
 40
0.8
  1
ZQ2
 50
270.0
  7
GOST_TYPE_B
 72
         1
 11
66.3
 21
105.9
 31
0.0
100
AcDbText
 73
         2
  0
TEXT
  5
179
100
AcDbEntity
  8
ASSEMBLY_REF_DES_TOP
100
AcDbText
 10
76.686675
 20
122.480525
 30
0.0
 40
0.85
  1
C47
  7
GOST_TYPE_B
 72
         1
 11
77.6
 21
122.9
 31
0.0
100
AcDbText
 73
         2
  0
TEXT
  5
17A
100
AcDbEntity
  8
ASSEMBLY_REF_DES_TOP
100
AcDbText
 10
68.380525
 20
152.3888
 30
0.0
 40
0.85
  1
C10
 50
270.0
  7
GOST_TYPE_B
 72
         1
 11
68.8
 21
151.6
 31
0.0
100
AcDbText
 73
         2
  0
TEXT
  5
17B
100
AcDbEntity
  8
ASSEMBLY_REF_DES_TOP
100
AcDbText
 10
62.29785
 20
109.40455
 30
0.0
 40
0.7
  1
R63
  7
GOST_TYPE_B
 72
         1
 11
63.05
 21
109.75
 31
0.0
100
AcDbText
 73
         2
  0
TEXT
  5
17C
100
AcDbEntity
  8
ASSEMBLY_REF_DES_TOP
100
AcDbText
 10
46.737
 20
143.40325
 30
0.0
 40
0.5
  1
C23
  7
GOST_TYPE_B
 72
         1
 11
47.25
 21
143.65
 31
0.0
100
AcDbText
 73
         2
  0
TEXT
  5
17D
100
AcDbEntity
  8
ASSEMBLY_REF_DES_TOP
100
AcDbText
 10
56.380525
 20
148.7888
 30
0.0
 40
0.85
  1
C17
 50
270.0
  7
GOST_TYPE_B
 72
         1
 11
56.8
 21
148.0
 31
0.0
100
AcDbText
 73
         2
  0
TEXT
  5
17E
100
AcDbEntity
  8
ASSEMBLY_REF_DES_TOP
100
AcDbText
 10
50.386675
 20
123.430525
 30
0.0
 40
0.85
  1
C43
  7
GOST_TYPE_B
 72
         1
 11
51.3
 21
123.85
 31
0.0
100
AcDbText
 73
         2
  0
TEXT
  5
17F
100
AcDbEntity
  8
ASSEMBLY_REF_DES_TOP
100
AcDbText
 10
63.077375
 20
156.530525
 30
0.0
 40
0.85
  1
R2
  7
GOST_TYPE_B
 72
         1
 11
63.7
 21
156.95
 31
0.0
100
AcDbText
 73
         2
  0
TEXT
  5
180
100
AcDbEntity
  8
ASSEMBLY_REF_DES_TOP
100
AcDbText
 10
51.130525
 20
154.1314
 30
0.0
 40
0.85
  1
C3
 50
270.0
  7
GOST_TYPE_B
 72
         1
 11
51.55
 21
153.55
 31
0.0
100
AcDbText
 73
         2
  0
TEXT
  5
181
100
AcDbEntity
  8
ASSEMBLY_REF_DES_TOP
100
AcDbText
 10
52.469109
 20
147.830016
 30
0.0
 40
0.85
  1
L2
  7
GOST_TYPE_B
 72
         1
 11
53.050509
 21
148.249491
 31
0.0
100
AcDbText
 73
         2
  0
TEXT
  5
182
100
AcDbEntity
  8
ASSEMBLY_REF_DES_TOP
100
AcDbText
 10
67.2279
 20
100.380525
 30
0.0
 40
0.85
  1
C77
  7
GOST_TYPE_B
 72
         1
 11
68.1
 21
100.8
 31
0.0
100
AcDbText
 73
         2
  0
TEXT
  5
183
100
AcDbEntity
  8
ASSEMBLY_REF_DES_TOP
100
AcDbText
 10
38.680525
 20
117.71375
 30
0.0
 40
0.85
  1
R50
 50
270.0
  7
GOST_TYPE_B
 72
         1
 11
39.1
 21
116.8
 31
0.0
100
AcDbText
 73
         2
  0
TEXT
  5
184
100
AcDbEntity
  8
ASSEMBLY_REF_DES_TOP
100
AcDbText
 10
75.9612
 20
118.080525
 30
0.0
 40
0.85
  1
C51
  7
GOST_TYPE_B
 72
         1
 11
76.75
 21
118.5
 31
0.0
100
AcDbText
 73
         2
  0
TEXT
  5
185
100
AcDbEntity
  8
ASSEMBLY_REF_DES_TOP
100
AcDbText
 10
39.762575
 20
112.530525
 30
0.0
 40
0.85
  1
DA4
  7
GOST_TYPE_B
 72
         1
 11
40.8
 21
112.95
 31
0.0
100
AcDbText
 73
         2
  0
TEXT
  5
186
100
AcDbEntity
  8
ASSEMBLY_REF_DES_TOP
100
AcDbText
 10
54.70455
 20
142.8339
 30
0.0
 40
0.7
  1
R16
 50
270.0
  7
GOST_TYPE_B
 72
         1
 11
55.05
 21
142.15
 31
0.0
100
AcDbText
 73
         2
  0
TEXT
  5
187
100
AcDbEntity
  8
ASSEMBLY_REF_DES_TOP
100
AcDbText
 10
39.111675
 20
123.230525
 30
0.0
 40
0.85
  1
C42
  7
GOST_TYPE_B
 72
         1
 11
40.025
 21
123.65
 31
0.0
100
AcDbText
 73
         2
  0
TEXT
  5
188
100
AcDbEntity
  8
ASSEMBLY_REF_DES_TOP
100
AcDbText
 10
62.3318
 20
106.10455
 30
0.0
 40
0.7
  1
C70
  7
GOST_TYPE_B
 72
         1
 11
63.05
 21
106.45
 31
0.0
100
AcDbText
 73
         2
  0
TEXT
  5
189
100
AcDbEntity
  8
ASSEMBLY_REF_DES_TOP
100
AcDbText
 10
33.230525
 20
126.8054
 30
0.0
 40
0.85
  1
R38
 50
270.0
  7
GOST_TYPE_B
 72
         1
 11
33.65
 21
125.85
 31
0.0
100
AcDbText
 73
         2
  0
TEXT
  5
18A
100
AcDbEntity
  8
ASSEMBLY_REF_DES_TOP
100
AcDbText
 10
76.38615
 20
156.480525
 30
0.0
 40
0.85
  1
R4
  7
GOST_TYPE_B
 72
         1
 11
77.05
 21
156.9
 31
0.0
100
AcDbText
 73
         2
  0
TEXT
  5
18B
100
AcDbEntity
  8
ASSEMBLY_REF_DES_TOP
100
AcDbText
 10
75.00455
 20
100.2368
 30
0.0
 40
0.7
  1
R74
 50
270.0
  7
GOST_TYPE_B
 72
         1
 11
75.35
 21
99.45
 31
0.0
100
AcDbText
 73
         2
  0
TEXT
  5
18C
100
AcDbEntity
  8
ASSEMBLY_REF_DES_TOP
100
AcDbText
 10
82.35455
 20
116.9368
 30
0.0
 40
0.7
  1
R54
 50
270.0
  7
GOST_TYPE_B
 72
         1
 11
82.7
 21
116.15
 31
0.0
100
AcDbText
 73
         2
  0
TEXT
  5
18D
100
AcDbEntity
  8
ASSEMBLY_REF_DES_TOP
100
AcDbText
 10
48.680525
 20
148.2888
 30
0.0
 40
0.85
  1
C16
 50
270.0
  7
GOST_TYPE_B
 72
         1
 11
49.1
 21
147.5
 31
0.0
100
AcDbText
 73
         2
  0
TEXT
  5
18E
100
AcDbEntity
  8
ASSEMBLY_REF_DES_TOP
100
AcDbText
 10
32.30455
 20
109.0368
 30
0.0
 40
0.7
  1
R64
 50
270.0
  7
GOST_TYPE_B
 72
         1
 11
32.65
 21
108.25
 31
0.0
100
AcDbText
 73
         2
  0
TEXT
  5
18F
100
AcDbEntity
  8
ASSEMBLY_REF_DES_TOP
100
AcDbText
 10
81.74785
 20
111.85455
 30
0.0
 40
0.7
  1
R62
  7
GOST_TYPE_B
 72
         1
 11
82.5
 21
112.2
 31
0.0
100
AcDbText
 73
         2
  0
TEXT
  5
190
100
AcDbEntity
  8
ASSEMBLY_REF_DES_TOP
100
AcDbText
 10
77.480525
 20
107.3554
 30
0.0
 40
0.85
  1
R68
 50
270.0
  7
GOST_TYPE_B
 72
         1
 11
77.9
 21
106.4
 31
0.0
100
AcDbText
 73
         2
  0
TEXT
  5
191
100
AcDbEntity
  8
ASSEMBLY_REF_DES_TOP
100
AcDbText
 10
48.709426
 20
102.635319
 30
0.0
 40
0.85
  1
DD5
 50
270.0
  7
GOST_TYPE_B
 72
         1
 11
49.128901
 21
101.679919
 31
0.0
100
AcDbText
 73
         2
  0
TEXT
  5
192
100
AcDbEntity
  8
ASSEMBLY_REF_DES_TOP
100
AcDbText
 10
50.49545
 20
119.480525
 30
0.0
 40
0.85
  1
C48
  7
GOST_TYPE_B
 72
         1
 11
51.45
 21
119.9
 31
0.0
100
AcDbText
 73
         2
  0
TEXT
  5
193
100
AcDbEntity
  8
ASSEMBLY_REF_DES_TOP
100
AcDbText
 10
71.930525
 20
155.1314
 30
0.0
 40
0.85
  1
C7
 50
270.0
  7
GOST_TYPE_B
 72
         1
 11
72.35
 21
154.55
 31
0.0
100
AcDbText
 73
         2
  0
TEXT
  5
194
100
AcDbEntity
  8
ASSEMBLY_REF_DES_TOP
100
AcDbText
 10
64.598885
 20
122.33236
 30
0.0
 40
0.85
  1
DD4
 50
90.0
  7
GOST_TYPE_B
 72
         1
 11
64.17941
 21
123.32941
 31
0.0
100
AcDbText
 73
         2
  0
TEXT
  5
195
100
AcDbEntity
  8
ASSEMBLY_REF_DES_TOP
100
AcDbText
 10
38.280525
 20
121.7554
 30
0.0
 40
0.85
  1
R43
 50
270.0
  7
GOST_TYPE_B
 72
         1
 11
38.7
 21
120.8
 31
0.0
100
AcDbText
 73
         2
  0
TEXT
  5
196
100
AcDbEntity
  8
ASSEMBLY_REF_DES_TOP
100
AcDbText
 10
77.719975
 20
111.530525
 30
0.0
 40
0.85
  1
R61
  7
GOST_TYPE_B
 72
         1
 11
78.55
 21
111.95
 31
0.0
100
AcDbText
 73
         2
  0
TEXT
  5
197
100
AcDbEntity
  8
ASSEMBLY_REF_DES_TOP
100
AcDbText
 10
58.4779
 20
141.180525
 30
0.0
 40
0.85
  1
C30
  7
GOST_TYPE_B
 72
         1
 11
59.35
 21
141.6
 31
0.0
100
AcDbText
 73
         2
  0
TEXT
  5
198
100
AcDbEntity
  8
ASSEMBLY_REF_DES_TOP
100
AcDbText
 10
38.80455
 20
139.5368
 30
0.0
 40
0.7
  1
R24
 50
270.0
  7
GOST_TYPE_B
 72
         1
 11
39.15
 21
138.75
 31
0.0
100
AcDbText
 73
         2
  0
TEXT
  5
199
100
AcDbEntity
  8
ASSEMBLY_REF_DES_TOP
100
AcDbText
 10
40.880525
 20
121.8554
 30
0.0
 40
0.85
  1
R45
 50
270.0
  7
GOST_TYPE_B
 72
         1
 11
41.3
 21
120.9
 31
0.0
100
AcDbText
 73
         2
  0
TEXT
  5
19A
100
AcDbEntity
  8
ASSEMBLY_REF_DES_TOP
100
AcDbText
 10
56.380525
 20
145.31375
 30
0.0
 40
0.85
  1
C24
 50
270.0
  7
GOST_TYPE_B
 72
         1
 11
56.8
 21
144.4
 31
0.0
100
AcDbText
 73
         2
  0
TEXT
  5
19B
100
AcDbEntity
  8
ASSEMBLY_REF_DES_TOP
100
AcDbText
 10
76.436675
 20
120.930525
 30
0.0
 40
0.85
  1
C46
  7
GOST_TYPE_B
 72
         1
 11
77.35
 21
121.35
 31
0.0
100
AcDbText
 73
         2
  0
TEXT
  5
19C
100
AcDbEntity
  8
ASSEMBLY_REF_DES_TOP
100
AcDbText
 10
43.580525
 20
121.8054
 30
0.0
 40
0.85
  1
R47
 50
270.0
  7
GOST_TYPE_B
 72
         1
 11
44.0
 21
120.85
 31
0.0
100
AcDbText
 73
         2
  0
TEXT
  5
19D
100
AcDbEntity
  8
ASSEMBLY_REF_DES_TOP
100
AcDbText
 10
66.380525
 20
111.56375
 30
0.0
 40
0.85
  1
C64
 50
270.0
  7
GOST_TYPE_B
 72
         1
 11
66.8
 21
110.65
 31
0.0
100
AcDbText
 73
         2
  0
TEXT
  5
19E
100
AcDbEntity
  8
ASSEMBLY_REF_DES_TOP
100
AcDbText
 10
81.880525
 20
130.2221
 30
0.0
 40
0.85
  1
C39
 50
270.0
  7
GOST_TYPE_B
 72
         1
 11
82.3
 21
129.35
 31
0.0
100
AcDbText
 73
         2
  0
TEXT
  5
1A0
100
AcDbEntity
  8
ASSEMBLY_REF_DES_TOP
100
AcDbText
 10
81.3033
 20
98.60805
 30
0.0
 40
0.7
  1
X2
  7
GOST_D
 72
         1
 11
81.85
 21
98.95
 31
0.0
100
AcDbText
 73
         2
  0
TEXT
  5
1A1
100
AcDbEntity
  8
ASSEMBLY_REF_DES_TOP
100
AcDbText
 10
49.899325
 20
142.450375
 30
0.0
 40
1.0
  1
DD3
 50
270.0
  7
GOST_TYPE_B
 72
         1
 11
50.392825
 21
141.326375
 31
0.0
100
AcDbText
 73
         2
  0
TEXT
  5
1A2
100
AcDbEntity
  8
ASSEMBLY_REF_DES_TOP
100
AcDbText
 10
44.580525
 20
151.53045
 30
0.0
 40
0.85
  1
R10
 50
270.0
  7
GOST_TYPE_B
 72
         1
 11
45.0
 21
150.7
 31
0.0
100
AcDbText
 73
         2
  0
TEXT
  5
1A3
100
AcDbEntity
  8
ASSEMBLY_REF_DES_TOP
100
AcDbText
 10
42.330525
 20
121.7554
 30
0.0
 40
0.85
  1
R46
 50
270.0
  7
GOST_TYPE_B
 72
         1
 11
42.75
 21
120.8
 31
0.0
100
AcDbText
 73
         2
  0
TEXT
  5
1A4
100
AcDbEntity
  8
ASSEMBLY_REF_DES_TOP
100
AcDbText
 10
44.580525
 20
148.48045
 30
0.0
 40
0.85
  1
R12
 50
270.0
  7
GOST_TYPE_B
 72
         1
 11
45.0
 21
147.65
 31
0.0
100
AcDbText
 73
         2
  0
TEXT
  5
1A5
100
AcDbEntity
  8
ASSEMBLY_REF_DES_TOP
100
AcDbText
 10
75.686675
 20
113.080525
 30
0.0
 40
0.85
  1
R56
  7
GOST_TYPE_B
 72
         1
 11
76.6
 21
113.5
 31
0.0
100
AcDbText
 73
         2
  0
TEXT
  5
1A6
100
AcDbEntity
  8
ASSEMBLY_REF_DES_TOP
100
AcDbText
 10
32.70455
 20
112.4368
 30
0.0
 40
0.7
  1
R58
 50
270.0
  7
GOST_TYPE_B
 72
         1
 11
33.05
 21
111.65
 31
0.0
100
AcDbText
 73
         2
  0
TEXT
  5
1A7
100
AcDbEntity
  8
ASSEMBLY_REF_DES_TOP
100
AcDbText
 10
38.880525
 20
154.4981
 30
0.0
 40
0.85
  1
C1
 50
270.0
  7
GOST_TYPE_B
 72
         1
 11
39.3
 21
154.0
 31
0.0
100
AcDbText
 73
         2
  0
TEXT
  5
1A8
100
AcDbEntity
  8
ASSEMBLY_REF_DES_TOP
100
AcDbText
 10
83.730525
 20
141.21375
 30
0.0
 40
0.85
  1
R20
 50
270.0
  7
GOST_TYPE_B
 72
         1
 11
84.15
 21
140.3
 31
0.0
100
AcDbText
 73
         2
  0
TEXT
  5
1A9
100
AcDbEntity
  8
ASSEMBLY_REF_DES_TOP
100
AcDbText
 10
67.40455
 20
106.9025
 30
0.0
 40
0.7
  1
R66
 50
270.0
  7
GOST_TYPE_B
 72
         1
 11
67.75
 21
106.15
 31
0.0
100
AcDbText
 73
         2
  0
TEXT
  5
1AA
100
AcDbEntity
  8
ASSEMBLY_REF_DES_TOP
100
AcDbText
 10
43.719975
 20
115.830525
 30
0.0
 40
0.85
  1
R51
  7
GOST_TYPE_B
 72
         1
 11
44.55
 21
116.25
 31
0.0
100
AcDbText
 73
         2
  0
TEXT
  5
1AB
100
AcDbEntity
  8
ASSEMBLY_REF_DES_TOP
100
AcDbText
 10
40.552409
 20
148.180016
 30
0.0
 40
0.85
  1
L1
  7
GOST_TYPE_B
 72
         1
 11
41.050509
 21
148.599491
 31
0.0
100
AcDbText
 73
         2
  0
TEXT
  5
1AC
100
AcDbEntity
  8
ASSEMBLY_REF_DES_TOP
100
AcDbText
 10
56.380525
 20
155.62305
 30
0.0
 40
0.85
  1
C4
 50
270.0
  7
GOST_TYPE_B
 72
         1
 11
56.8
 21
155.0
 31
0.0
100
AcDbText
 73
         2
  0
TEXT
  5
1AD
100
AcDbEntity
  8
ASSEMBLY_REF_DES_TOP
100
AcDbText
 10
56.380525
 20
151.9314
 30
0.0
 40
0.85
  1
C9
 50
270.0
  7
GOST_TYPE_B
 72
         1
 11
56.8
 21
151.35
 31
0.0
100
AcDbText
 73
         2
  0
TEXT
  5
1AE
100
AcDbEntity
  8
ASSEMBLY_REF_DES_TOP
100
AcDbText
 10
71.930525
 20
152.1888
 30
0.0
 40
0.85
  1
C12
 50
270.0
  7
GOST_TYPE_B
 72
         1
 11
72.35
 21
151.4
 31
0.0
100
AcDbText
 73
         2
  0
TEXT
  5
1AF
100
AcDbEntity
  8
ASSEMBLY_REF_DES_TOP
100
AcDbText
 10
71.930525
 20
148.8221
 30
0.0
 40
0.85
  1
C20
 50
270.0
  7
GOST_TYPE_B
 72
         1
 11
72.35
 21
147.95
 31
0.0
100
AcDbText
 73
         2
  0
TEXT
  5
1B0
100
AcDbEntity
  8
ASSEMBLY_REF_DES_TOP
100
AcDbText
 10
36.780525
 20
148.5888
 30
0.0
 40
0.85
  1
C15
 50
270.0
  7
GOST_TYPE_B
 72
         1
 11
37.2
 21
147.8
 31
0.0
100
AcDbText
 73
         2
  0
TEXT
  5
1B1
100
AcDbEntity
  8
ASSEMBLY_REF_DES_TOP
100
AcDbText
 10
81.786675
 20
137.480525
 30
0.0
 40
0.85
  1
C34
  7
GOST_TYPE_B
 72
         1
 11
82.7
 21
137.9
 31
0.0
100
AcDbText
 73
         2
  0
TEXT
  5
1B2
100
AcDbEntity
  8
ASSEMBLY_REF_DES_TOP
100
AcDbText
 10
81.137
 20
119.50325
 30
0.0
 40
0.5
  1
C50
  7
GOST_TYPE_B
 72
         1
 11
81.65
 21
119.75
 31
0.0
100
AcDbText
 73
         2
  0
TEXT
  5
1B3
100
AcDbEntity
  8
ASSEMBLY_REF_DES_TOP
100
AcDbText
 10
47.330525
 20
155.57305
 30
0.0
 40
0.85
  1
R9
 50
270.0
  7
GOST_TYPE_B
 72
         1
 11
47.75
 21
154.95
 31
0.0
100
AcDbText
 73
         2
  0
TEXT
  5
1B4
100
AcDbEntity
  8
ASSEMBLY_REF_DES_TOP
100
AcDbText
 10
40.987609
 20
153.580016
 30
0.0
 40
0.85
  1
DA1
  7
GOST_TYPE_B
 72
         1
 11
41.900509
 21
153.999491
 31
0.0
100
AcDbText
 73
         2
  0
TEXT
  5
1B5
100
AcDbEntity
  8
ASSEMBLY_REF_DES_TOP
100
AcDbText
 10
51.10455
 20
137.5025
 30
0.0
 40
0.7
  1
R26
 50
270.0
  7
GOST_TYPE_B
 72
         1
 11
51.45
 21
136.75
 31
0.0
100
AcDbText
 73
         2
  0
TEXT
  5
1B6
100
AcDbEntity
  8
ASSEMBLY_REF_DES_TOP
100
AcDbText
 10
60.10455
 20
99.4025
 30
0.0
 40
0.7
  1
R76
 50
270.0
  7
GOST_TYPE_B
 72
         1
 11
60.45
 21
98.65
 31
0.0
100
AcDbText
 73
         2
  0
TEXT
  5
1B7
100
AcDbEntity
  8
ASSEMBLY_REF_DES_TOP
100
AcDbText
 10
46.0436
 20
125.330525
 30
0.0
 40
0.85
  1
L3
  7
GOST_TYPE_B
 72
         1
 11
46.625
 21
125.75
 31
0.0
100
AcDbText
 73
         2
  0
TEXT
  5
1B8
100
AcDbEntity
  8
ASSEMBLY_REF_DES_TOP
100
AcDbText
 10
38.161675
 20
128.280525
 30
0.0
 40
0.85
  1
R37
  7
GOST_TYPE_B
 72
         1
 11
39.075
 21
128.7
 31
0.0
100
AcDbText
 73
         2
  0
TEXT
  5
1B9
100
AcDbEntity
  8
ASSEMBLY_REF_DES_TOP
100
AcDbText
 10
35.630525
 20
123.1054
 30
0.0
 40
0.85
  1
R40
 50
270.0
  7
GOST_TYPE_B
 72
         1
 11
36.05
 21
122.15
 31
0.0
100
AcDbText
 73
         2
  0
TEXT
  5
1BA
100
AcDbEntity
  8
ASSEMBLY_REF_DES_TOP
100
AcDbText
 10
37.49545
 20
131.230525
 30
0.0
 40
0.85
  1
R34
  7
GOST_TYPE_B
 72
         1
 11
38.45
 21
131.65
 31
0.0
100
AcDbText
 73
         2
  0
TEXT
  5
1BB
100
AcDbEntity
  8
ASSEMBLY_REF_DES_TOP
100
AcDbText
 10
41.0279
 20
141.580525
 30
0.0
 40
0.85
  1
C29
  7
GOST_TYPE_B
 72
         1
 11
41.9
 21
142.0
 31
0.0
100
AcDbText
 73
         2
  0
TEXT
  5
1BC
100
AcDbEntity
  8
ASSEMBLY_REF_DES_TOP
100
AcDbText
 10
77.212726
 20
148.897799
 30
0.0
 40
0.85
  1
DD2
  7
GOST_TYPE_B
 72
         1
 11
78.167276
 21
149.317274
 31
0.0
100
AcDbText
 73
         2
  0
TEXT
  5
1BD
100
AcDbEntity
  8
ASSEMBLY_REF_DES_TOP
100
AcDbText
 10
35.630525
 20
120.1054
 30
0.0
 40
0.85
  1
R49
 50
270.0
  7
GOST_TYPE_B
 72
         1
 11
36.05
 21
119.15
 31
0.0
100
AcDbText
 73
         2
  0
TEXT
  5
1BE
100
AcDbEntity
  8
ASSEMBLY_REF_DES_TOP
100
AcDbText
 10
32.60455
 20
102.6025
 30
0.0
 40
0.7
  1
R70
 50
270.0
  7
GOST_TYPE_B
 72
         1
 11
32.95
 21
101.85
 31
0.0
100
AcDbText
 73
         2
  0
TEXT
  5
1BF
100
AcDbEntity
  8
ASSEMBLY_REF_DES_TOP
100
AcDbText
 10
45.65455
 20
140.7182
 30
0.0
 40
0.7
  1
R18
 50
270.0
  7
GOST_TYPE_B
 72
         1
 11
46.0
 21
140.0
 31
0.0
100
AcDbText
 73
         2
  0
TEXT
  5
1C0
100
AcDbEntity
  8
ASSEMBLY_REF_DES_TOP
100
AcDbText
 10
37.40455
 20
139.4025
 30
0.0
 40
0.7
  1
R23
 50
270.0
  7
GOST_TYPE_B
 72
         1
 11
37.75
 21
138.65
 31
0.0
100
AcDbText
 73
         2
  0
TEXT
  5
1C1
100
AcDbEntity
  8
ASSEMBLY_REF_DES_TOP
100
AcDbText
 10
84.10455
 20
107.9182
 30
0.0
 40
0.7
  1
C69
 50
270.0
  7
GOST_TYPE_B
 72
         1
 11
84.45
 21
107.2
 31
0.0
100
AcDbText
 73
         2
  0
TEXT
  5
1C2
100
AcDbEntity
  8
ASSEMBLY_REF_DES_TOP
100
AcDbText
 10
53.637
 20
137.40325
 30
0.0
 40
0.5
  1
C32
  7
GOST_TYPE_B
 72
         1
 11
54.15
 21
137.65
 31
0.0
100
AcDbText
 73
         2
  0
TEXT
  5
1C3
100
AcDbEntity
  8
ASSEMBLY_REF_DES_TOP
100
AcDbText
 10
83.930525
 20
144.96375
 30
0.0
 40
0.85
  1
C28
 50
270.0
  7
GOST_TYPE_B
 72
         1
 11
84.35
 21
144.05
 31
0.0
100
AcDbText
 73
         2
  0
TEXT
  5
1C4
100
AcDbEntity
  8
ASSEMBLY_REF_DES_TOP
100
AcDbText
 10
46.830525
 20
148.23045
 30
0.0
 40
0.85
  1
R13
 50
270.0
  7
GOST_TYPE_B
 72
         1
 11
47.25
 21
147.4
 31
0.0
100
AcDbText
 73
         2
  0
TEXT
  5
1C5
100
AcDbEntity
  8
ASSEMBLY_REF_DES_TOP
100
AcDbText
 10
32.60455
 20
105.6025
 30
0.0
 40
0.7
  1
R69
 50
270.0
  7
GOST_TYPE_B
 72
         1
 11
32.95
 21
104.85
 31
0.0
100
AcDbText
 73
         2
  0
TEXT
  5
1C6
100
AcDbEntity
  8
ASSEMBLY_REF_DES_TOP
100
AcDbText
 10
83.35455
 20
134.8025
 30
0.0
 40
0.7
  1
R33
 50
270.0
  7
GOST_TYPE_B
 72
         1
 11
83.7
 21
134.05
 31
0.0
100
AcDbText
 73
         2
  0
TEXT
  5
1C7
100
AcDbEntity
  8
ASSEMBLY_REF_DES_TOP
100
AcDbText
 10
71.180862
 20
110.712812
 30
0.0
 40
1.0
  1
ZQ1
 50
270.0
  7
GOST_TYPE_B
 72
         1
 11
71.674362
 21
109.589812
 31
0.0
100
AcDbText
 73
         2
  0
TEXT
  5
1C9
100
AcDbEntity
  8
ASSEMBLY_REF_DES_TOP
100
AcDbText
 10
28.69909
 20
127.52176
 30
0.0
 40
1.0
  1
X1
 50
270.0
  7
VERIBEST_GERBER_0
 72
         1
 11
29.19909
 21
126.59426
 31
0.0
100
AcDbText
 73
         2
  0
TEXT
  5
1CA
100
AcDbEntity
  8
ASSEMBLY_REF_DES_TOP
100
AcDbText
 10
66.027375
 20
156.530525
 30
0.0
 40
0.85
  1
R3
  7
GOST_TYPE_B
 72
         1
 11
66.65
 21
156.95
 31
0.0
100
AcDbText
 73
         2
  0
TEXT
  5
1CB
100
AcDbEntity
  8
ASSEMBLY_REF_DES_TOP
100
AcDbText
 10
62.8779
 20
104.530525
 30
0.0
 40
0.85
  1
C73
  7
GOST_TYPE_B
 72
         1
 11
63.75
 21
104.95
 31
0.0
100
AcDbText
 73
         2
  0
TEXT
  5
1CC
100
AcDbEntity
  8
ASSEMBLY_REF_DES_TOP
100
AcDbText
 10
50.81275
 20
121.30325
 30
0.0
 40
0.5
  1
C45
  7
GOST_TYPE_B
 72
         1
 11
51.35
 21
121.55
 31
0.0
100
AcDbText
 73
         2
  0
TEXT
  5
1CD
100
AcDbEntity
  8
ASSEMBLY_REF_DES_TOP
100
AcDbText
 10
46.730525
 20
151.68045
 30
0.0
 40
0.85
  1
C14
 50
270.0
  7
GOST_TYPE_B
 72
         1
 11
47.15
 21
150.85
 31
0.0
100
AcDbText
 73
         2
  0
TEXT
  5
1CE
100
AcDbEntity
  8
ASSEMBLY_REF_DES_TOP
100
AcDbText
 10
83.880525
 20
152.4388
 30
0.0
 40
0.85
  1
C13
 50
270.0
  7
GOST_TYPE_B
 72
         1
 11
84.3
 21
151.65
 31
0.0
100
AcDbText
 73
         2
  0
TEXT
  5
1CF
100
AcDbEntity
  8
ASSEMBLY_REF_DES_TOP
100
AcDbText
 10
34.10455
 20
103.2339
 30
0.0
 40
0.7
  1
R71
 50
270.0
  7
GOST_TYPE_B
 72
         1
 11
34.45
 21
102.55
 31
0.0
100
AcDbText
 73
         2
  0
TEXT
  5
1D0
100
AcDbEntity
  8
ASSEMBLY_REF_DES_TOP
100
AcDbText
 10
33.90325
 20
155.68725
 30
0.0
 40
0.5
  1
VD1
 50
270.0
  7
GOST_TYPE_B
 72
         1
 11
34.15
 21
155.15
 31
0.0
100
AcDbText
 73
         2
  0
TEXT
  5
1D1
100
AcDbEntity
  8
ASSEMBLY_REF_DES_TOP
100
AcDbText
 10
83.880525
 20
155.17305
 30
0.0
 40
0.85
  1
C8
 50
270.0
  7
GOST_TYPE_B
 72
         1
 11
84.3
 21
154.55
 31
0.0
100
AcDbText
 73
         2
  0
TEXT
  5
1D2
100
AcDbEntity
  8
ASSEMBLY_REF_DES_TOP
100
AcDbText
 10
45.10455
 20
121.5711
 30
0.0
 40
0.7
  1
R48
 50
270.0
  7
GOST_TYPE_B
 72
         1
 11
45.45
 21
120.75
 31
0.0
100
AcDbText
 73
         2
  0
TEXT
  5
1D3
100
AcDbEntity
  8
ASSEMBLY_REF_DES_TOP
100
AcDbText
 10
65.080525
 20
111.5221
 30
0.0
 40
0.85
  1
C63
 50
270.0
  7
GOST_TYPE_B
 72
         1
 11
65.5
 21
110.65
 31
0.0
100
AcDbText
 73
         2
  0
TEXT
  5
1D4
100
AcDbEntity
  8
ASSEMBLY_REF_DES_TOP
100
AcDbText
 10
62.39785
 20
100.60455
 30
0.0
 40
0.7
  1
R72
  7
GOST_TYPE_B
 72
         1
 11
63.15
 21
100.95
 31
0.0
100
AcDbText
 73
         2
  0
TEXT
  5
1D5
100
AcDbEntity
  8
ASSEMBLY_REF_DES_TOP
100
AcDbText
 10
38.061675
 20
129.580525
 30
0.0
 40
0.85
  1
R35
  7
GOST_TYPE_B
 72
         1
 11
38.975
 21
130.0
 31
0.0
100
AcDbText
 73
         2
  0
TEXT
  5
1D6
100
AcDbEntity
  8
ASSEMBLY_REF_DES_TOP
100
AcDbText
 10
70.180525
 20
148.9888
 30
0.0
 40
0.85
  1
C19
 50
270.0
  7
GOST_TYPE_B
 72
         1
 11
70.6
 21
148.2
 31
0.0
100
AcDbText
 73
         2
  0
TEXT
  5
1D7
100
AcDbEntity
  8
ASSEMBLY_REF_DES_TOP
100
AcDbText
 10
80.9324
 20
106.7952
 30
0.0
 40
0.8
  1
DA5
  7
GOST_TYPE_B
 72
         1
 11
81.87
 21
107.19
 31
0.0
100
AcDbText
 73
         2
  0
TEXT
  5
1D8
100
AcDbEntity
  8
ASSEMBLY_REF_DES_TOP
100
AcDbText
 10
49.836675
 20
115.680525
 30
0.0
 40
0.85
  1
R53
  7
GOST_TYPE_B
 72
         1
 11
50.75
 21
116.1
 31
0.0
100
AcDbText
 73
         2
  0
TEXT
  5
1D9
100
AcDbEntity
  8
ASSEMBLY_REF_DES_TOP
100
AcDbText
 10
53.054309
 20
153.280016
 30
0.0
 40
0.85
  1
DA2
  7
GOST_TYPE_B
 72
         1
 11
54.050509
 21
153.699491
 31
0.0
100
AcDbText
 73
         2
  0
TEXT
  5
1DA
100
AcDbEntity
  8
ASSEMBLY_REF_DES_TOP
100
AcDbText
 10
40.130525
 20
117.7221
 30
0.0
 40
0.85
  1
C52
 50
270.0
  7
GOST_TYPE_B
 72
         1
 11
40.55
 21
116.85
 31
0.0
100
AcDbText
 73
         2
  0
TEXT
  5
1DB
100
AcDbEntity
  8
ASSEMBLY_REF_DES_TOP
100
AcDbText
 10
45.437
 20
129.30325
 30
0.0
 40
0.5
  1
C37
  7
GOST_TYPE_B
 72
         1
 11
45.95
 21
129.55
 31
0.0
100
AcDbText
 73
         2
  0
TEXT
  5
1DC
100
AcDbEntity
  8
ASSEMBLY_REF_DES_TOP
100
AcDbText
 10
76.386675
 20
127.280525
 30
0.0
 40
0.85
  1
C40
  7
GOST_TYPE_B
 72
         1
 11
77.3
 21
127.7
 31
0.0
100
AcDbText
 73
         2
  0
TEXT
  5
1DD
100
AcDbEntity
  8
ASSEMBLY_REF_DES_TOP
100
AcDbText
 10
39.530525
 20
121.89705
 30
0.0
 40
0.85
  1
R44
 50
270.0
  7
GOST_TYPE_B
 72
         1
 11
39.95
 21
120.9
 31
0.0
100
AcDbText
 73
         2
  0
TEXT
  5
1DE
100
AcDbEntity
  8
ASSEMBLY_REF_DES_TOP
100
AcDbText
 10
60.330525
 20
102.6221
 30
0.0
 40
0.85
  1
C76
 50
270.0
  7
GOST_TYPE_B
 72
         1
 11
60.75
 21
101.75
 31
0.0
100
AcDbText
 73
         2
  0
TEXT
  5
1DF
100
AcDbEntity
  8
ASSEMBLY_REF_DES_TOP
100
AcDbText
 10
70.886675
 20
104.930525
 30
0.0
 40
0.85
  1
R67
  7
GOST_TYPE_B
 72
         1
 11
71.8
 21
105.35
 31
0.0
100
AcDbText
 73
         2
  0
TEXT
  5
1E0
100
AcDbEntity
  8
ASSEMBLY_REF_DES_TOP
100
AcDbText
 10
78.430525
 20
110.546625
 30
0.0
 40
0.85
  1
VD2
 50
270.0
  7
GOST_TYPE_B
 72
         1
 11
78.85
 21
109.55
 31
0.0
100
AcDbText
 73
         2
  0
TEXT
  5
1E1
100
AcDbEntity
  8
ASSEMBLY_REF_DES_TOP
100
AcDbText
 10
68.380525
 20
155.1314
 30
0.0
 40
0.85
  1
C5
 50
270.0
  7
GOST_TYPE_B
 72
         1
 11
68.8
 21
154.55
 31
0.0
100
AcDbText
 73
         2
  0
TEXT
  5
1E2
100
AcDbEntity
  8
ASSEMBLY_REF_DES_TOP
100
AcDbText
 10
68.85455
 20
106.8996
 30
0.0
 40
0.7
  1
C71
 50
270.0
  7
GOST_TYPE_B
 72
         1
 11
69.2
 21
106.25
 31
0.0
100
AcDbText
 73
         2
  0
TEXT
  5
1E3
100
AcDbEntity
  8
ASSEMBLY_REF_DES_TOP
100
AcDbText
 10
62.286675
 20
99.180525
 30
0.0
 40
0.85
  1
R73
  7
GOST_TYPE_B
 72
         1
 11
63.2
 21
99.6
 31
0.0
100
AcDbText
 73
         2
  0
TEXT
  5
1E4
100
AcDbEntity
  8
ASSEMBLY_REF_DES_TOP
100
AcDbText
 10
51.00325
 20
112.7875
 30
0.0
 40
0.5
  1
C58
 50
270.0
  7
GOST_TYPE_B
 72
         1
 11
51.25
 21
112.25
 31
0.0
100
AcDbText
 73
         2
  0
TEXT
  5
1E5
100
AcDbEntity
  8
ASSEMBLY_REF_DES_TOP
100
AcDbText
 10
49.5818
 20
109.25455
 30
0.0
 40
0.7
  1
C60
  7
GOST_TYPE_B
 72
         1
 11
50.3
 21
109.6
 31
0.0
100
AcDbText
 73
         2
  0
TEXT
  5
1E6
100
AcDbEntity
  8
ASSEMBLY_REF_DES_TOP
100
AcDbText
 10
74.3112
 20
141.280525
 30
0.0
 40
0.85
  1
C31
  7
GOST_TYPE_B
 72
         1
 11
75.1
 21
141.7
 31
0.0
100
AcDbText
 73
         2
  0
TEXT
  5
1E7
100
AcDbEntity
  8
ASSEMBLY_REF_DES_TOP
100
AcDbText
 10
42.40455
 20
135.1025
 30
0.0
 40
0.7
  1
R32
 50
270.0
  7
GOST_TYPE_B
 72
         1
 11
42.75
 21
134.35
 31
0.0
100
AcDbText
 73
         2
  0
TEXT
  5
1E8
100
AcDbEntity
  8
ASSEMBLY_REF_DES_TOP
100
AcDbText
 10
49.10325
 20
112.763
 30
0.0
 40
0.5
  1
C57
 50
270.0
  7
GOST_TYPE_B
 72
         1
 11
49.35
 21
112.25
 31
0.0
100
AcDbText
 73
         2
  0
TEXT
  5
1E9
100
AcDbEntity
  8
ASSEMBLY_REF_DES_TOP
100
AcDbText
 10
49.3365
 20
103.294
 30
0.0
 40
1.0
  1
DD6
 50
270.0
  7
GOST_TYPE_B
 72
         1
 11
49.83
 21
102.17
 31
0.0
100
AcDbText
 73
         2
  0
TEXT
  5
1EA
100
AcDbEntity
  8
ASSEMBLY_REF_DES_TOP
100
AcDbText
 10
75.8779
 20
116.180525
 30
0.0
 40
0.85
  1
C53
  7
GOST_TYPE_B
 72
         1
 11
76.75
 21
116.6
 31
0.0
100
AcDbText
 73
         2
  0
TEXT
  5
1EB
100
AcDbEntity
  8
ASSEMBLY_REF_DES_TOP
100
AcDbText
 10
68.380525
 20
145.3221
 30
0.0
 40
0.85
  1
C25
 50
270.0
  7
GOST_TYPE_B
 72
         1
 11
68.8
 21
144.45
 31
0.0
100
AcDbText
 73
         2
  0
TEXT
  5
1EC
100
AcDbEntity
  8
ASSEMBLY_REF_DES_TOP
100
AcDbText
 10
38.29785
 20
134.95455
 30
0.0
 40
0.7
  1
R25
  7
GOST_TYPE_B
 72
         1
 11
39.05
 21
135.3
 31
0.0
100
AcDbText
 73
         2
  0
TEXT
  5
1ED
100
AcDbEntity
  8
ASSEMBLY_REF_DES_TOP
100
AcDbText
 10
62.836675
 20
103.130525
 30
0.0
 40
0.85
  1
C74
  7
GOST_TYPE_B
 72
         1
 11
63.75
 21
103.55
 31
0.0
100
AcDbText
 73
         2
  0
TEXT
  5
1EE
100
AcDbEntity
  8
ASSEMBLY_REF_DES_TOP
100
AcDbText
 10
79.377375
 20
156.480525
 30
0.0
 40
0.85
  1
R5
  7
GOST_TYPE_B
 72
         1
 11
80.0
 21
156.9
 31
0.0
100
AcDbText
 73
         2
  0
TEXT
  5
1EF
100
AcDbEntity
  8
ASSEMBLY_REF_DES_TOP
100
AcDbText
 10
76.436675
 20
119.630525
 30
0.0
 40
0.85
  1
C49
  7
GOST_TYPE_B
 72
         1
 11
77.35
 21
120.05
 31
0.0
100
AcDbText
 73
         2
  0
TEXT
  5
1F0
100
AcDbEntity
  8
ASSEMBLY_REF_DES_TOP
100
AcDbText
 10
76.469975
 20
125.880525
 30
0.0
 40
0.85
  1
C41
  7
GOST_TYPE_B
 72
         1
 11
77.3
 21
126.3
 31
0.0
100
AcDbText
 73
         2
  0
TEXT
  5
1F1
100
AcDbEntity
  8
ASSEMBLY_REF_DES_TOP
100
AcDbText
 10
82.280525
 20
141.13045
 30
0.0
 40
0.85
  1
R19
 50
270.0
  7
GOST_TYPE_B
 72
         1
 11
82.7
 21
140.3
 31
0.0
100
AcDbText
 73
         2
  0
TEXT
  5
1F2
100
AcDbEntity
  8
ASSEMBLY_REF_DES_TOP
100
AcDbText
 10
53.436675
 20
134.830525
 30
0.0
 40
0.85
  1
R27
  7
GOST_TYPE_B
 72
         1
 11
54.35
 21
135.25
 31
0.0
100
AcDbText
 73
         2
  0
TEXT
  5
1F3
100
AcDbEntity
  8
ASSEMBLY_REF_DES_TOP
100
AcDbText
 10
46.636675
 20
115.830525
 30
0.0
 40
0.85
  1
R52
  7
GOST_TYPE_B
 72
         1
 11
47.55
 21
116.25
 31
0.0
100
AcDbText
 73
         2
  0
TEXT
  5
1F4
100
AcDbEntity
  8
ASSEMBLY_REF_DES_TOP
100
AcDbText
 10
62.19785
 20
111.10455
 30
0.0
 40
0.7
  1
R60
  7
GOST_TYPE_B
 72
         1
 11
62.95
 21
111.45
 31
0.0
100
AcDbText
 73
         2
  0
TEXT
  5
1F5
100
AcDbEntity
  8
ASSEMBLY_REF_DES_TOP
100
AcDbText
 10
34.00455
 20
138.1339
 30
0.0
 40
0.7
  1
R21
 50
270.0
  7
GOST_TYPE_B
 72
         1
 11
34.35
 21
137.45
 31
0.0
100
AcDbText
 73
         2
  0
TEXT
  5
1F6
100
AcDbEntity
  8
ASSEMBLY_REF_DES_TOP
100
AcDbText
 10
48.330525
 20
151.84715
 30
0.0
 40
0.85
  1
R11
 50
270.0
  7
GOST_TYPE_B
 72
         1
 11
48.75
 21
151.1
 31
0.0
100
AcDbText
 73
         2
  0
TEXT
  5
1F7
100
AcDbEntity
  8
ASSEMBLY_REF_DES_TOP
100
AcDbText
 10
70.530525
 20
152.1055
 30
0.0
 40
0.85
  1
C11
 50
270.0
  7
GOST_TYPE_B
 72
         1
 11
70.95
 21
151.4
 31
0.0
100
AcDbText
 73
         2
  0
TEXT
  5
1F8
100
AcDbEntity
  8
ASSEMBLY_REF_DES_TOP
100
AcDbText
 10
76.44545
 20
124.280525
 30
0.0
 40
0.85
  1
C44
  7
GOST_TYPE_B
 72
         1
 11
77.4
 21
124.7
 31
0.0
100
AcDbText
 73
         2
  0
TEXT
  5
1F9
100
AcDbEntity
  8
ASSEMBLY_REF_DES_TOP
100
AcDbText
 10
37.59785
 20
133.05455
 30
0.0
 40
0.7
  1
R30
  7
GOST_TYPE_B
 72
         1
 11
38.35
 21
133.4
 31
0.0
100
AcDbText
 73
         2
  0
TEXT
  5
1FA
100
AcDbEntity
  8
ASSEMBLY_REF_DES_TOP
100
AcDbText
 10
78.21275
 20
129.20325
 30
0.0
 40
0.5
  1
C38
  7
GOST_TYPE_B
 72
         1
 11
78.75
 21
129.45
 31
0.0
100
AcDbText
 73
         2
  0
TEXT
  5
1FB
100
AcDbEntity
  8
ASSEMBLY_REF_DES_TOP
100
AcDbText
 10
36.130525
 20
112.86375
 30
0.0
 40
0.85
  1
R59
 50
270.0
  7
GOST_TYPE_B
 72
         1
 11
36.55
 21
111.95
 31
0.0
100
AcDbText
 73
         2
  0
TEXT
  5
1FC
100
AcDbEntity
  8
ASSEMBLY_REF_DES_TOP
100
AcDbText
 10
70.9279
 20
106.430525
 30
0.0
 40
0.85
  1
C72
  7
GOST_TYPE_B
 72
         1
 11
71.8
 21
106.85
 31
0.0
100
AcDbText
 73
         2
  0
TEXT
  5
1FD
100
AcDbEntity
  8
ASSEMBLY_REF_DES_TOP
100
AcDbText
 10
71.980525
 20
145.2721
 30
0.0
 40
0.85
  1
C27
 50
270.0
  7
GOST_TYPE_B
 72
         1
 11
72.4
 21
144.4
 31
0.0
100
AcDbText
 73
         2
  0
TEXT
  5
1FE
100
AcDbEntity
  8
ASSEMBLY_REF_DES_TOP
100
AcDbText
 10
40.80455
 20
133.9339
 30
0.0
 40
0.7
  1
R31
 50
270.0
  7
GOST_TYPE_B
 72
         1
 11
41.15
 21
133.25
 31
0.0
100
AcDbText
 73
         2
  0
TEXT
  5
1FF
100
AcDbEntity
  8
ASSEMBLY_REF_DES_TOP
100
AcDbText
 10
44.20455
 20
143.7839
 30
0.0
 40
0.7
  1
R15
 50
270.0
  7
GOST_TYPE_B
 72
         1
 11
44.55
 21
143.1
 31
0.0
100
AcDbText
 73
         2
  0
TEXT
  5
200
100
AcDbEntity
  8
ASSEMBLY_REF_DES_TOP
100
AcDbText
 10
82.327375
 20
156.480525
 30
0.0
 40
0.85
  1
R6
  7
GOST_TYPE_B
 72
         1
 11
82.95
 21
156.9
 31
0.0
100
AcDbText
 73
         2
  0
TEXT
  5
201
100
AcDbEntity
  8
ASSEMBLY_REF_DES_TOP
100
AcDbText
 10
60.210675
 20
156.530525
 30
0.0
 40
0.85
  1
R1
  7
GOST_TYPE_B
 72
         1
 11
60.75
 21
156.95
 31
0.0
100
AcDbText
 73
         2
  0
TEXT
  5
202
100
AcDbEntity
  8
ASSEMBLY_REF_DES_TOP
100
AcDbText
 10
44.887
 20
131.20325
 30
0.0
 40
0.5
  1
C36
  7
GOST_TYPE_B
 72
         1
 11
45.4
 21
131.45
 31
0.0
100
AcDbText
 73
         2
  0
TEXT
  5
203
100
AcDbEntity
  8
ASSEMBLY_REF_DES_TOP
100
AcDbText
 10
45.730525
 20
154.5147
 30
0.0
 40
0.85
  1
R8
 50
270.0
  7
GOST_TYPE_B
 72
         1
 11
46.15
 21
153.85
 31
0.0
100
AcDbText
 73
         2
  0
TEXT
  5
204
100
AcDbEntity
  8
ASSEMBLY_REF_DES_TOP
100
AcDbText
 10
67.930525
 20
111.3721
 30
0.0
 40
0.85
  1
C65
 50
270.0
  7
GOST_TYPE_B
 72
         1
 11
68.35
 21
110.5
 31
0.0
100
AcDbText
 73
         2
  0
TEXT
  5
205
100
AcDbEntity
  8
ASSEMBLY_REF_DES_TOP
100
AcDbText
 10
36.32875
 20
141.530525
 30
0.0
 40
0.85
  1
R14
  7
GOST_TYPE_B
 72
         1
 11
37.2
 21
141.95
 31
0.0
100
AcDbText
 73
         2
  0
TEXT
  5
206
100
AcDbEntity
  8
ASSEMBLY_REF_DES_TOP
100
AcDbText
 10
75.7279
 20
114.630525
 30
0.0
 40
0.85
  1
C55
  7
GOST_TYPE_B
 72
         1
 11
76.6
 21
115.05
 31
0.0
100
AcDbText
 73
         2
  0
TEXT
  5
207
100
AcDbEntity
  8
ASSEMBLY_REF_DES_TOP
100
AcDbText
 10
56.29545
 20
134.830525
 30
0.0
 40
0.85
  1
R28
  7
GOST_TYPE_B
 72
         1
 11
57.25
 21
135.25
 31
0.0
100
AcDbText
 73
         2
  0
TEXT
  5
208
100
AcDbEntity
  8
ASSEMBLY_REF_DES_TOP
100
AcDbText
 10
80.22875
 20
122.380525
 30
0.0
 40
0.85
  1
R41
  7
GOST_TYPE_B
 72
         1
 11
81.1
 21
122.8
 31
0.0
100
AcDbText
 73
         2
  0
TEXT
  5
209
100
AcDbEntity
  8
ASSEMBLY_REF_DES_TOP
100
AcDbText
 10
35.680525
 20
138.26375
 30
0.0
 40
0.85
  1
R22
 50
270.0
  7
GOST_TYPE_B
 72
         1
 11
36.1
 21
137.35
 31
0.0
100
AcDbText
 73
         2
  0
TEXT
  5
20A
100
AcDbEntity
  8
ASSEMBLY_REF_DES_TOP
100
AcDbText
 10
61.746026
 20
148.897799
 30
0.0
 40
0.85
  1
DD1
  7
GOST_TYPE_B
 72
         1
 11
62.617276
 21
149.317274
 31
0.0
100
AcDbText
 73
         2
  0
TEXT
  5
20B
100
AcDbEntity
  8
ASSEMBLY_REF_DES_TOP
100
AcDbText
 10
44.927375
 20
112.230525
 30
0.0
 40
0.85
  1
L4
  7
GOST_TYPE_B
 72
         1
 11
45.55
 21
112.65
 31
0.0
100
AcDbText
 73
         2
  0
TEXT
  5
20C
100
AcDbEntity
  8
ASSEMBLY_REF_DES_TOP
100
AcDbText
 10
80.04545
 20
120.930525
 30
0.0
 40
0.85
  1
R42
  7
GOST_TYPE_B
 72
         1
 11
81.0
 21
121.35
 31
0.0
100
AcDbText
 73
         2
  0
TEXT
  5
20D
100
AcDbEntity
  8
ASSEMBLY_REF_DES_TOP
100
AcDbText
 10
70.230525
 20
145.1721
 30
0.0
 40
0.85
  1
C26
 50
270.0
  7
GOST_TYPE_B
 72
         1
 11
70.65
 21
144.3
 31
0.0
100
AcDbText
 73
         2
  0
TEXT
  5
20E
100
AcDbEntity
  8
ASSEMBLY_REF_DES_TOP
100
AcDbText
 10
78.630525
 20
115.1721
 30
0.0
 40
0.85
  1
C56
 50
270.0
  7
GOST_TYPE_B
 72
         1
 11
79.05
 21
114.3
 31
0.0
100
AcDbText
 73
         2
  0
TEXT
  5
20F
100
AcDbEntity
  8
ASSEMBLY_REF_DES_TOP
100
AcDbText
 10
81.89785
 20
113.40455
 30
0.0
 40
0.7
  1
R57
  7
GOST_TYPE_B
 72
         1
 11
82.65
 21
113.75
 31
0.0
100
AcDbText
 73
         2
  0
TEXT
  5
210
100
AcDbEntity
  8
ASSEMBLY_REF_DES_TOP
100
AcDbText
 10
74.280525
 20
110.01375
 30
0.0
 40
0.85
  1
C68
 50
270.0
  7
GOST_TYPE_B
 72
         1
 11
74.7
 21
109.1
 31
0.0
100
AcDbText
 73
         2
  0
TEXT
  5
211
100
AcDbEntity
  8
ASSEMBLY_REF_DES_TOP
100
AcDbText
 10
48.930525
 20
155.3814
 30
0.0
 40
0.85
  1
C2
 50
270.0
  7
GOST_TYPE_B
 72
         1
 11
49.35
 21
154.8
 31
0.0
100
AcDbText
 73
         2
  0
TEXT
  5
212
100
AcDbEntity
  8
ASSEMBLY_REF_DES_TOP
100
AcDbText
 10
62.0279
 20
107.530525
 30
0.0
 40
0.85
  1
C67
  7
GOST_TYPE_B
 72
         1
 11
62.9
 21
107.95
 31
0.0
100
AcDbText
 73
         2
  0
TEXT
  5
213
100
AcDbEntity
  8
ASSEMBLY_REF_DES_TOP
100
AcDbText
 10
34.46645
 20
139.80455
 30
0.0
 40
0.7
  1
R17
  7
GOST_TYPE_B
 72
         1
 11
35.15
 21
140.15
 31
0.0
100
AcDbText
 73
         2
  0
TEXT
  5
214
100
AcDbEntity
  8
ASSEMBLY_REF_DES_TOP
100
AcDbText
 10
80.180525
 20
127.36375
 30
0.0
 40
0.85
  1
R39
 50
270.0
  7
GOST_TYPE_B
 72
         1
 11
80.6
 21
126.45
 31
0.0
100
AcDbText
 73
         2
  0
TEXT
  5
215
100
AcDbEntity
  8
ASSEMBLY_REF_DES_TOP
100
AcDbText
 10
70.130525
 20
138.3221
 30
0.0
 40
0.85
  1
C33
 50
270.0
  7
GOST_TYPE_B
 72
         1
 11
70.55
 21
137.45
 31
0.0
100
AcDbText
 73
         2
  0
TEXT
  5
216
100
AcDbEntity
  8
ASSEMBLY_REF_DES_TOP
100
AcDbText
 10
75.430525
 20
134.9221
 30
0.0
 40
0.85
  1
C35
 50
270.0
  7
GOST_TYPE_B
 72
         1
 11
75.85
 21
134.05
 31
0.0
100
AcDbText
 73
         2
  0
TEXT
  5
217
100
AcDbEntity
  8
ASSEMBLY_REF_DES_TOP
100
AcDbText
 10
45.8818
 20
144.75455
 30
0.0
 40
0.7
  1
C22
  7
GOST_TYPE_B
 72
         1
 11
46.6
 21
145.1
 31
0.0
100
AcDbText
 73
         2
  0
TEXT
  5
218
100
AcDbEntity
  8
ASSEMBLY_REF_DES_TOP
100
AcDbText
 10
44.080525
 20
154.47305
 30
0.0
 40
0.85
  1
R7
 50
270.0
  7
GOST_TYPE_B
 72
         1
 11
44.5
 21
153.85
 31
0.0
100
AcDbText
 73
         2
  0
TEXT
  5
219
100
AcDbEntity
  8
ASSEMBLY_REF_DES_TOP
100
AcDbText
 10
83.930525
 20
148.7888
 30
0.0
 40
0.85
  1
C21
 50
270.0
  7
GOST_TYPE_B
 72
         1
 11
84.35
 21
148.0
 31
0.0
100
AcDbText
 73
         2
  0
TEXT
  5
21A
100
AcDbEntity
  8
ASSEMBLY_REF_DES_TOP
100
AcDbText
 10
39.8279
 20
110.630525
 30
0.0
 40
0.85
  1
C59
  7
GOST_TYPE_B
 72
         1
 11
40.7
 21
111.05
 31
0.0
100
AcDbText
 73
         2
  0
TEXT
  5
21B
100
AcDbEntity
  8
ASSEMBLY_REF_DES_TOP
100
AcDbText
 10
37.030525
 20
102.6721
 30
0.0
 40
0.85
  1
C75
 50
270.0
  7
GOST_TYPE_B
 72
         1
 11
37.45
 21
101.8
 31
0.0
100
AcDbText
 73
         2
  0
TEXT
  5
21C
100
AcDbEntity
  8
ASSEMBLY_REF_DES_TOP
100
AcDbText
 10
68.380525
 20
148.93045
 30
0.0
 40
0.85
  1
C18
 50
270.0
  7
GOST_TYPE_B
 72
         1
 11
68.8
 21
148.1
 31
0.0
100
AcDbText
 73
         2
  0
TEXT
  5
21D
100
AcDbEntity
  8
ASSEMBLY_REF_DES_TOP
100
AcDbText
 10
34.10455
 20
106.3025
 30
0.0
 40
0.7
  1
R65
 50
270.0
  7
GOST_TYPE_B
 72
         1
 11
34.45
 21
105.55
 31
0.0
100
AcDbText
 73
         2
  0
TEXT
  5
21E
100
AcDbEntity
  8
ASSEMBLY_REF_DES_TOP
100
AcDbText
 10
41.161675
 20
130.280525
 30
0.0
 40
0.85
  1
R36
  7
GOST_TYPE_B
 72
         1
 11
42.075
 21
130.7
 31
0.0
100
AcDbText
 73
         2
  0
TEXT
  5
21F
100
AcDbEntity
  8
ASSEMBLY_REF_DES_TOP
100
AcDbText
 10
70.180525
 20
155.2314
 30
0.0
 40
0.85
  1
C6
 50
270.0
  7
GOST_TYPE_B
 72
         1
 11
70.6
 21
154.65
 31
0.0
100
AcDbText
 73
         2
  0
TEXT
  5
220
100
AcDbEntity
  8
ASSEMBLY_REF_DES_TOP
100
AcDbText
 10
80.65325
 20
117.6375
 30
0.0
 40
0.5
  1
C54
 50
270.0
  7
GOST_TYPE_B
 72
         1
 11
80.9
 21
117.1
 31
0.0
100
AcDbText
 73
         2
  0
TEXT
  5
221
100
AcDbEntity
  8
ASSEMBLY_REF_DES_TOP
100
AcDbText
 10
81.8318
 20
110.45455
 30
0.0
 40
0.7
  1
C66
  7
GOST_TYPE_B
 72
         1
 11
82.55
 21
110.8
 31
0.0
100
AcDbText
 73
         2
  0
TEXT
  5
222
100
AcDbEntity
  8
ASSEMBLY_REF_DES_TOP
100
AcDbText
 10
39.9288
 20
125.780525
 30
0.0
 40
0.85
  1
DA3
  7
GOST_TYPE_B
 72
         1
 11
40.925
 21
126.2
 31
0.0
100
AcDbText
 73
         2
  0
TEXT
  5
223
100
AcDbEntity
  8
ASSEMBLY_REF_DES_TOP
100
AcDbText
 10
58.80325
 20
110.314
 30
0.0
 40
0.5
  1
C61
 50
270.0
  7
GOST_TYPE_B
 72
         1
 11
59.05
 21
109.85
 31
0.0
100
AcDbText
 73
         2
  0
TEXT
  5
224
100
AcDbEntity
  8
ASSEMBLY_REF_DES_TOP
100
AcDbText
 10
60.230525
 20
111.1721
 30
0.0
 40
0.85
  1
C62
 50
270.0
  7
GOST_TYPE_B
 72
         1
 11
60.65
 21
110.3
 31
0.0
100
AcDbText
 73
         2
  0
LWPOLYLINE
  5
225
100
AcDbEntity
  8
BOARD_OUTLINE
100
AcDbPolyline
 90
       15
 70
         1
 43
0.1
 10
85.69909
 20
160.79426
 10
49.69909
 20
160.79426
 42
-0.4142135624
 10
47.69909
 20
158.79426
 42
-0.4142135624
 10
45.69909
 20
160.79426
 10
27.69909
 20
160.79426
 10
27.69909
 20
145.04426
 10
31.19909
 20
145.04426
 42
-0.4142135624
 10
31.69909
 20
144.54426
 42
-0.4142135624
 10
31.19909
 20
144.04426
 10
27.69909
 20
144.04426
 10
27.69909
 20
93.19426
 10
45.69909
 20
93.19426
 42
-0.4142135624
 10
47.69909
 20
95.19426
 42
-0.4142135624
 10
49.69909
 20
93.19426
 10
85.69909
 20
93.19426
  0
CIRCLE
  5
226
100
AcDbEntity
  8
MOUNTING_HOLES_LAYER_TOP
100
AcDbCircle
 10
74.7
 20
95.19
 30
0.0
 40
1.0
  0
HATCH
  5
227
100
AcDbEntity
  8
MOUNTING_HOLES_LAYER_TOP
100
AcDbHatch
 10
0.0
 20
0.0
 30
0.0
210
0.0
220
0.0
230
1.0
  2
SOLID
 70
         1
 71
         1
 91
        1
 92
        1
 93
        1
 72
         2
 10
74.700000000000003
 20
95.189999999999998
 40
1.0
 50
0.0
 51
360.0
 73
         1
 97
        1
330
226
 75
         0
 76
         1
 98
        1
 10
0.0
 20
0.0
  0
CIRCLE
  5
228
100
AcDbEntity
  8
MOUNTING_HOLES_LAYER_TOP
100
AcDbCircle
 10
33.69909
 20
95.19426
 30
0.0
 40
0.9
  0
HATCH
  5
229
100
AcDbEntity
  8
MOUNTING_HOLES_LAYER_TOP
100
AcDbHatch
 10
0.0
 20
0.0
 30
0.0
210
0.0
220
0.0
230
1.0
  2
SOLID
 70
         1
 71
         1
 91
        1
 92
        1
 93
        1
 72
         2
 10
33.699089999999998
 20
95.19426
 40
0.9
 50
0.0
 51
360.0
 73
         1
 97
        1
330
228
 75
         0
 76
         1
 98
        1
 10
0.0
 20
0.0
  0
CIRCLE
  5
22A
100
AcDbEntity
  8
MOUNTING_HOLES_LAYER_TOP
100
AcDbCircle
 10
33.69909
 20
158.79426
 30
0.0
 40
0.9
  0
HATCH
  5
22B
100
AcDbEntity
  8
MOUNTING_HOLES_LAYER_TOP
100
AcDbHatch
 10
0.0
 20
0.0
 30
0.0
210
0.0
220
0.0
230
1.0
  2
SOLID
 70
         1
 71
         1
 91
        1
 92
        1
 93
        1
 72
         2
 10
33.699089999999998
 20
158.79426000000001
 40
0.9
 50
0.0
 51
360.0
 73
         1
 97
        1
330
22A
 75
         0
 76
         1
 98
        1
 10
0.0
 20
0.0
  0
CIRCLE
  5
22C
100
AcDbEntity
  8
PART_HOLES_LAYER_TOP
100
AcDbCircle
 10
80.9
 20
101.4
 30
0.0
 40
0.45
  0
HATCH
  5
22D
100
AcDbEntity
  8
PART_HOLES_LAYER_TOP
100
AcDbHatch
 10
0.0
 20
0.0
 30
0.0
210
0.0
220
0.0
230
1.0
  2
SOLID
 70
         1
 71
         1
 91
        1
 92
        1
 93
        1
 72
         2
 10
80.900000000000006
 20
101.40000000000001
 40
0.45
 50
0.0
 51
360.0
 73
         1
 97
        1
330
22C
 75
         0
 76
         1
 98
        1
 10
0.0
 20
0.0
  0
CIRCLE
  5
22E
100
AcDbEntity
  8
PART_HOLES_LAYER_TOP
100
AcDbCircle
 10
80.9
 20
97.0
 30
0.0
 40
0.45
  0
HATCH
  5
22F
100
AcDbEntity
  8
PART_HOLES_LAYER_TOP
100
AcDbHatch
 10
0.0
 20
0.0
 30
0.0
210
0.0
220
0.0
230
1.0
  2
SOLID
 70
         1
 71
         1
 91
        1
 92
        1
 93
        1
 72
         2
 10
80.900000000000006
 20
97.0
 40
0.45
 50
0.0
 51
360.0
 73
         1
 97
        1
330
22E
 75
         0
 76
         1
 98
        1
 10
0.0
 20
0.0
  0
ENDSEC
  0
SECTION
  2
OBJECTS
  0
DICTIONARY
  5
19
100
AcDbDictionary
  3
ACAD_GROUP
350
1A
  3
ACAD_MLINESTYLE
350
1B
  0
DICTIONARY
  5
1A
102
{ACAD_REACTORS
330
19
102
}
100
AcDbDictionary
  0
DICTIONARY
  5
1B
102
{ACAD_REACTORS
330
19
102
}
100
AcDbDictionary
  3
STANDARD
350
1C
  0
MLINESTYLE
  5
1C
102
{ACAD_REACTORS
330
1B
102
}
100
AcDbMlineStyle
  2
STANDARD
 70
         0
  3

 62
         0
 51
90.0
 52
90.0
 71
         2
 49
0.5
 62
       256
  6
BYLAYER
 49
-0.5
 62
       256
  6
BYLAYER
  0
DICTIONARY
  5
22
102
{ACAD_REACTORS
330
19
102
}
100
AcDbDictionary
  0
ENDSEC
  0
EOF
