  0
SECTION
  2
HEADER
  9
$ACADVER
  1
AC1014
  9
$ACADMAINTVER
 70
         0
  9
$DWGCODEPAGE
  3
ANSI_1252
  9
$INSBASE
 10
0.0
 20
0.0
 30
0.0
  9
$EXTMIN
 10
-122.63035
 20
-8.6
 30
0.0
  9
$EXTMAX
 10
59.0
 20
114.21
 30
0.0
  9
$LIMMIN
 10
0.0
 20
0.0
  9
$LIMMAX
 10
0.0
 20
0.0
  9
$ORTHOMODE
 70
         0
  9
$REGENMODE
 70
         1
  9
$FILLMODE
 70
         1
  9
$QTEXTMODE
 70
         0
  9
$MIRRTEXT
 70
         1
  9
$DRAGMODE
 70
         2
  9
$LTSCALE
 40
1.0
  9
$OSMODE
 70
         0
  9
$ATTMODE
 70
         1
  9
$TEXTSIZE
 40
0.2
  9
$TRACEWID
 40
0.05
  9
$TEXTSTYLE
  7
STANDARD
  9
$CLAYER
  8
0
  9
$CELTYPE
  6
CONTINUOUS
  9
$CECOLOR
 62
       256
  9
$CELTSCALE
 40
1.0
  9
$DELOBJ
 70
         1
  9
$DISPSILH
 70
         0
  9
$DIMSCALE
 40
1.0
  9
$DIMASZ
 40
0.18
  9
$DIMEXO
 40
0.0625
  9
$DIMDLI
 40
0.38
  9
$DIMRND
 40
0.0
  9
$DIMDLE
 40
0.0
  9
$DIMEXE
 40
0.18
  9
$DIMTP
 40
0.0
  9
$DIMTM
 40
0.0
  9
$DIMTXT
 40
0.18
  9
$DIMCEN
 40
0.09
  9
$DIMTSZ
 40
0.0
  9
$DIMTOL
 70
         0
  9
$DIMLIM
 70
         0
  9
$DIMTIH
 70
         1
  9
$DIMTOH
 70
         1
  9
$DIMSE1
 70
         0
  9
$DIMSE2
 70
         0
  9
$DIMTAD
 70
         0
  9
$DIMZIN
 70
         0
  9
$DIMBLK
  1

  9
$DIMASO
 70
         1
  9
$DIMSHO
 70
         1
  9
$DIMPOST
  1

  9
$DIMAPOST
  1

  9
$DIMALT
 70
         0
  9
$DIMALTD
 70
         2
  9
$DIMALTF
 40
25.4
  9
$DIMLFAC
 40
1.0
  9
$DIMTOFL
 70
         0
  9
$DIMTVP
 40
0.0
  9
$DIMTIX
 70
         0
  9
$DIMSOXD
 70
         0
  9
$DIMSAH
 70
         0
  9
$DIMBLK1
  1

  9
$DIMBLK2
  1

  9
$DIMSTYLE
  2
STANDARD
  9
$DIMCLRD
 70
         0
  9
$DIMCLRE
 70
         0
  9
$DIMCLRT
 70
         0
  9
$DIMTFAC
 40
1.0
  9
$DIMGAP
 40
0.09
  9
$DIMJUST
 70
         0
  9
$DIMSD1
 70
         0
  9
$DIMSD2
 70
         0
  9
$DIMTOLJ
 70
         1
  9
$DIMTZIN
 70
         0
  9
$DIMALTZ
 70
         0
  9
$DIMALTTZ
 70
         0
  9
$DIMFIT
 70
         3
  9
$DIMUPT
 70
         0
  9
$DIMUNIT
 70
         2
  9
$DIMDEC
 70
         4
  9
$DIMTDEC
 70
         4
  9
$DIMALTU
 70
         2
  9
$DIMALTTD
 70
         2
  9
$DIMTXSTY
  7
STANDARD
  9
$DIMAUNIT
 70
         0
  9
$LUNITS
 70
         2
  9
$LUPREC
 70
         4
  9
$SKETCHINC
 40
0.1
  9
$FILLETRAD
 40
0.0
  9
$AUNITS
 70
         0
  9
$AUPREC
 70
         0
  9
$MENU
  1
acad
  9
$ELEVATION
 40
0.0
  9
$PELEVATION
 40
0.0
  9
$THICKNESS
 40
0.0
  9
$LIMCHECK
 70
         0
  9
$BLIPMODE
 70
         1
  9
$CHAMFERA
 40
0.0
  9
$CHAMFERB
 40
0.0
  9
$CHAMFERC
 40
0.0
  9
$CHAMFERD
 40
0.0
  9
$SKPOLY
 70
         0
  9
$TDCREATE
 40
20200221.153024
  9
$TDUPDATE
 40
0.0
  9
$TDINDWG
 40
0.0
  9
$TDUSRTIMER
 40
0.0
  9
$USRTIMER
 70
         1
  9
$ANGBASE
 50
0.0
  9
$ANGDIR
 70
         0
  9
$PDMODE
 70
         0
  9
$PDSIZE
 40
0.0
  9
$PLINEWID
 40
0.0
  9
$COORDS
 70
         0
  9
$SPLFRAME
 70
         0
  9
$SPLINETYPE
 70
         6
  9
$SPLINESEGS
 70
         8
  9
$ATTDIA
 70
         0
  9
$ATTREQ
 70
         1
  9
$HANDLING
 70
         1
  9
$HANDSEED
  5
292
  9
$SURFTAB1
 70
         6
  9
$SURFTAB2
 70
         6
  9
$SURFTYPE
 70
         6
  9
$SURFU
 70
         6
  9
$SURFV
 70
         6
  9
$UCSNAME
  2

  9
$UCSORG
 10
0.0
 20
0.0
 30
0.0
  9
$UCSXDIR
 10
1.0
 20
0.0
 30
0.0
  9
$UCSYDIR
 10
0.0
 20
1.0
 30
0.0
  9
$PUCSNAME
  2

  9
$PUCSORG
 10
0.0
 20
0.0
 30
0.0
  9
$PUCSXDIR
 10
1.0
 20
0.0
 30
0.0
  9
$PUCSYDIR
 10
0.0
 20
1.0
 30
0.0
  9
$USERI1
 70
         -3
  9
$USERI2
 70
         0
  9
$USERI3
 70
         0
  9
$USERI4
 70
         0
  9
$USERI5
 70
         0
  9
$USERR1
 40
0.0
  9
$USERR2
 40
0.0
  9
$USERR3
 40
0.0
  9
$USERR4
 40
0.0
  9
$USERR5
 40
0.0
  9
$WORLDVIEW
 70
         1
  9
$SHADEDGE
 70
         3
  9
$SHADEDIF
 70
        70
  9
$TILEMODE
 70
         1
  9
$MAXACTVP
 70
         16
  9
$PINSBASE
 10
0.0
 20
0.0
 30
0.0
  9
$PLIMCHECK
 70
         0
  9
$PEXTMIN
 10
100000000000000000000.0
 20
100000000000000000000.0
 30
100000000000000000000.0
  9
$PEXTMAX
 10
-100000000000000000000.0
 20
-100000000000000000000.0
 30
-100000000000000000000.0
  9
$PLIMMIN
 10
0.0
 20
0.0
  9
$PLIMMAX
 10
12.0
 20
9.0
  9
$UNITMODE
 70
         0
  9
$VISRETAIN
 70
         0
  9
$PLINEGEN
 70
         1
  9
$PSLTSCALE
 70
         0
  9
$TREEDEPTH
 70
      3020
  9
$PICKSTYLE
 70
         1
  9
$CMLSTYLE
  2
STANDARD
  9
$CMLJUST
 70
         0
  9
$CMLSCALE
 40
1.0
  9
$PROXYGRAPHICS
 70
         0
  9
$MEASUREMENT
 70
         0
  0
ENDSEC
  0
SECTION
  2
CLASSES
  0
CLASS
  1
LWPOLYLINE
  2
AcDbPolyline
  3
"AutoCAD"
 90
        0
280
         0
281
         1
  0
CLASS
  1
IMAGE
  2
AcDbRasterImage
  3
ISM
 90
      127
280
         0
281
         1
  0
CLASS
  1
OLE2FRAME
  2
AcDbOle2Frame
  3
""
 90
        0
280
         0
281
         1
  0
CLASS
  1
HATCH
  2
AcDbHatch
  3
"ACAD_SEDONA"
 90
        0
280
         0
281
         1
  0
CLASS
  1
DICTIONARYVAR
  2
AcDbDictionaryVar
  3
"AutoCAD"
 90
        0
280
         0
281
         0
  0
CLASS
  1
RASTERVARIABLES
  2
AcDbRasterVariables
  3
ISM
 90
        0
280
         0
281
         0
  0
CLASS
  1
IMAGEDEF
  2
AcDbRasterImageDef
  3
ISM
 90
        0
280
         0
281
         0
  0
CLASS
  1
IMAGEDEF_REACTOR
  2
AcDbRasterImageDefReactor
  3
ISM
 90
        1
280
         0
281
         0
  0
CLASS
  1
IDBUFFER
  2
AcDbIdBuffer
  3
"Acad"
 90
        0
280
         0
281
         0
  0
CLASS
  1
SPATIAL_FILTER
  2
AcDbSpatialFilter
  3
"Acad"
 90
        0
280
         0
281
         0
  0
CLASS
  1
XRECORD
  2
AcDbXrecord
  3
"<Built In>"
 90
        0
280
         0
281
         0
  0
CLASS
  1
SORTENTSTABLE
  2
AcDbSortentsTable
  3
"AutoCAD"
 90
        0
280
         0
281
         0
  0
CLASS
  1
LAYER_INDEX
  2
AcDbLayerIndex
  3
"Acad"
 90
        0
280
         0
281
         0
  0
CLASS
  1
SPATIAL_INDEX
  2
AcDbSpatialIndex
  3
"Acad"
 90
        0
280
         0
281
         0
  0
CLASS
  1
OBJECT_PTR
  2
CAseDLPNTableRecord
  3
"ASE-LPNTableRecord"
 90
        1
280
         0
281
         0
  0
CLASS
  1
LAYOUT
  2
AcDbLayout
  3
"AutoCAD 2000"
 90
        0
280
         0
281
         0
  0
CLASS
  1
PLOTSETTINGS
  2
AcDbPlotSettings
  3
"AutoCAD 2000"
 90
        0
280
         0
281
         0
  0
CLASS
  1
ACDBDICTIONARYWDFLT
  2
AcDbDictionaryWithDefault
  3
"AutoCAD 2000"
 90
        0
280
         0
281
         0
  0
CLASS
  1
ACDBPLACEHOLDER
  2
AcDbPlaceHolder
  3
"AutoCAD 2000"
 90
        0
280
         0
281
         0
  0
CLASS
  1
VBA_PROJECT
  2
AcDbVbaProject
  3
"acadvba"
 90
        0
280
         0
281
         0
  0
CLASS
  1
WIPEOUT
  2
AcDbWipeout
  3
WipeOut|AutoCAD Express Tool|expresstools@autodesk.com
 90
      127
280
         0
281
         1
  0
CLASS
  1
WIPEOUTVARIABLES
  2
AcDbWipeoutVariables
  3
WipeOut|AutoCAD Express Tool|expresstools@autodesk.com
 90
        0
280
         0
281
         0
  0
CLASS
  1
RTEXT
  2
RText
  3
RText|AutoCAD Express Tool|expresstools@autodesk.com
 90
        0
280
         0
281
         1
  0
CLASS
  1
ARCALIGNEDTEXT
  2
AcDbArcAlignedText
  3
ATEXT|AutoCAD Express Tool|expresstools@autodesk.com
 90
        0
280
         0
281
         1
  0
ENDSEC
  0
SECTION
  2
TABLES
  0
TABLE
  2
VPORT
  5
7
100
AcDbSymbolTable
70
    1
  0
VPORT
  5
13
100
AcDbSymbolTableRecord
100
AcDbViewportTableRecord
  2
*ACTIVE
 70
         0
 10
0.0
 20
0.0
 11
1.0
 21
1.0
 12
6.591288
 22
4.579184
 13
0.0
 23
0.0
 14
1.0
 24
1.0
 15
0.0
 25
0.0
 16
0.0
 26
0.0
 36
1.0
 17
0.0
 27
0.0
 37
0.0
  40
9.158369
  41
0.688564
  42
50.0
  43
0.0
  44
0.0
  50
0.0
  51
0.0
 71
    0
 72
    100
 73
    1
 74
    1
 75
    0
 76
    0
 77
    0
 78
    0
  0
ENDTAB
  0
TABLE
  2
LTYPE
  5
4
100
AcDbSymbolTable
70
    3
  0
LTYPE
  5
10
100
AcDbSymbolTableRecord
100
AcDbLinetypeTableRecord
  2
BYBLOCK
 70
         64
  3

 72
       65
 73
       0
  40
0.0
  0
LTYPE
  5
11
100
AcDbSymbolTableRecord
100
AcDbLinetypeTableRecord
  2
BYLAYER
 70
         64
  3

 72
       65
 73
       0
  40
0.0
  0
LTYPE
  5
12
100
AcDbSymbolTableRecord
100
AcDbLinetypeTableRecord
  2
CONTINUOUS
 70
         64
  3
Solid Line
 72
       65
 73
       0
  40
0.0
  0
ENDTAB
  0
TABLE
  2
LAYER
  5
2
100
AcDbSymbolTable
 70
         6
  0
LAYER
  5
287
100
AcDbSymbolTableRecord
100
AcDbLayerTableRecord
  2
0
 70
         0
 62
         7
  6
CONTINUOUS
  0
LAYER
  5
288
100
AcDbSymbolTableRecord
100
AcDbLayerTableRecord
  2
ASSEMBLY_OUTLINES_TOP
 70
         0
 62
         102
  6
CONTINUOUS
  0
LAYER
  5
289
100
AcDbSymbolTableRecord
100
AcDbLayerTableRecord
  2
ASSEMBLY_REF_DES_TOP
 70
         0
 62
         102
  6
CONTINUOUS
  0
LAYER
  5
28A
100
AcDbSymbolTableRecord
100
AcDbLayerTableRecord
  2
BOARD_OUTLINE
 70
         0
 62
         10
  6
CONTINUOUS
  0
LAYER
  5
28B
100
AcDbSymbolTableRecord
100
AcDbLayerTableRecord
  2
MOUNTING_HOLES_LAYER_TOP
 70
         0
 62
         42
  6
CONTINUOUS
  0
LAYER
  5
28C
100
AcDbSymbolTableRecord
100
AcDbLayerTableRecord
  2
PART_HOLES_LAYER_TOP
 70
         0
 62
         30
  6
CONTINUOUS
  0
ENDTAB
  0
TABLE
  2
STYLE
  5
3
100
AcDbSymbolTable
 70
         5
  0
STYLE
  5
28D
100
AcDbSymbolTableRecord
100
AcDbTextStyleTableRecord
  2
STANDARD
 70
         0
 40
0.0
 41
1.0
 50
0.0
 71
         0
 42
0.0
  3
txt
  4

  0
STYLE
  5
28E
100
AcDbSymbolTableRecord
100
AcDbTextStyleTableRecord
  2
VERIBEST_GERBER_1
 70
         0
 40
0.0
 41
1.0
 50
0.0
 71
         0
 42
0.0
  3
VBest1.ttf
  4

  0
STYLE
  5
28F
100
AcDbSymbolTableRecord
100
AcDbTextStyleTableRecord
  2
GOST_TYPE_B
 70
         0
 40
0.0
 41
1.0
 50
0.0
 71
         0
 42
0.0
  3
txt
  4

  0
STYLE
  5
290
100
AcDbSymbolTableRecord
100
AcDbTextStyleTableRecord
  2
VERIBEST_GERBER_0
 70
         0
 40
0.0
 41
1.0
 50
0.0
 71
         0
 42
0.0
  3
VBest0.ttf
  4

  0
STYLE
  5
291
100
AcDbSymbolTableRecord
100
AcDbTextStyleTableRecord
  2
GOST_D
 70
         0
 40
0.0
 41
1.0
 50
0.0
 71
         0
 42
0.0
  3
txt
  4

  0
ENDTAB
  0
TABLE
  2
VIEW
  5
5
100
AcDbSymbolTable
 70
         0
  0
ENDTAB
  0
TABLE
  2
UCS
  5
6
100
AcDbSymbolTable
 70
         0
  0
ENDTAB
  0
TABLE
  2
APPID
  5
8
100
AcDbSymbolTable
 70
         1
  0
APPID
  5
14
100
AcDbSymbolTableRecord
100
AcDbRegAppTableRecord
  2
ACAD
 70
         0
  0
ENDTAB
  0
TABLE
  2
DIMSTYLE
  5
9
100
AcDbSymbolTable
 70
         1
  0
DIMSTYLE
105
15
100
AcDbSymbolTableRecord
100
AcDbDimStyleTableRecord
  2
STANDARD
 70
         0
  3

  4

  5

  6

 7

 40
1.0
 41
0.18
 42
0.0625
 43
0.38
 44
0.18
 45
0.0
 46
0.0
 47
0.0
 48
0.0
 71
         0
 72
         0
 73
         1
 74
         1
 75
         0
 76
         0
 77
         0
 78
         0
140
0.18
141
0.09
142
0.0
143
25.4
144
1.0
145
0.0
146
1.0
147
0.09
170
         0
171
         2
172
         0
173
         0
174
         0
175
         0
176
         0
177
         0
178
         0
270
         2
271
         4
272
         4
273
         2
274
         2
275
         0
280
         0
281
         0
282
         0
283
         1
284
         0
285
         0
286
         0
287
         3
288
         0
340
17
  0
ENDTAB
  0
TABLE
  2
BLOCK_RECORD
  5
1
100
AcDbSymbolTable
 70
         0
  0
BLOCK_RECORD
  5
A
100
AcDbSymbolTableRecord
100
AcDbBlockTableRecord
  2
*MODEL_SPACE
  0
BLOCK_RECORD
  5
B
100
AcDbSymbolTableRecord
100
AcDbBlockTableRecord
  2
*PAPER_SPACE
  0
ENDTAB
  0
ENDSEC
  0
SECTION
  2
BLOCKS
  0
BLOCK
  5
C
100
AcDbEntity
  8
0
100
AcDbBlockBegin
  2
*MODEL_SPACE
 70
         0
 10
0.0
 20
0.0
 30
0.0
  3
*MODEL_SPACE
  1

  0
ENDBLK
  5
D
100
AcDbEntity
  8
0
100
AcDbBlockEnd
  0
BLOCK
  5
E
100
AcDbEntity
 67
        1
  8
0
100
AcDbBlockBegin
  2
*PAPER_SPACE
 70
         0
 10
0.0
 20
0.0
 30
0.0
  3
*PAPER_SPACE
  1

  0
ENDBLK
  5
F
100
AcDbEntity
 67
        1
  8
0
100
AcDbBlockEnd
  0
ENDSEC
  0
SECTION
  2
ENTITIES
  0
LWPOLYLINE
  5
1B
100
AcDbEntity
  8
ASSEMBLY_OUTLINES_TOP
100
AcDbPolyline
 90
        3
 70
         1
 43
0.0
 10
-110.0
 20
113.6
 10
-108.86
 20
114.17
 10
-108.86
 20
113.03
  0
HATCH
  5
1C
100
AcDbEntity
  8
ASSEMBLY_OUTLINES_TOP
100
AcDbHatch
 10
0.0
 20
0.0
 30
0.0
 210
0.0
 220
0.0
 230
1.0
  2
SOLID
 70
         1
 71
        1
 91
        1
  92
     2
 72
     0
 73
     1
  93
     3
 10
-110.0
 20
113.6
 10
-108.86
 20
114.17
 10
-108.86
 20
113.03
  97
     1
  330
    27
 75
     0
 76
     1
  98
     1
 10
0.0
 20
0.0
  0
LWPOLYLINE
  5
1D
100
AcDbEntity
  8
ASSEMBLY_OUTLINES_TOP
100
AcDbPolyline
 90
        3
 70
         1
 43
0.0
 10
-117.0
 20
113.6
 10
-118.14
 20
113.03
 10
-118.14
 20
114.17
  0
HATCH
  5
1E
100
AcDbEntity
  8
ASSEMBLY_OUTLINES_TOP
100
AcDbHatch
 10
0.0
 20
0.0
 30
0.0
 210
0.0
 220
0.0
 230
1.0
  2
SOLID
 70
         1
 71
        1
 91
        1
  92
     2
 72
     0
 73
     1
  93
     3
 10
-117.0
 20
113.6
 10
-118.14
 20
113.03
 10
-118.14
 20
114.17
  97
     1
  330
    29
 75
     0
 76
     1
  98
     1
 10
0.0
 20
0.0
  0
LWPOLYLINE
  5
1F
100
AcDbEntity
  8
ASSEMBLY_OUTLINES_TOP
100
AcDbPolyline
 90
        2
 70
         0
 43
0.2
 10
-109.43
 20
113.6
 10
-107.15
 20
113.6
  0
LWPOLYLINE
  5
20
100
AcDbEntity
  8
ASSEMBLY_OUTLINES_TOP
100
AcDbPolyline
 90
        2
 70
         0
 43
0.2
 10
-117.57
 20
113.6
 10
-119.85
 20
113.6
  0
LWPOLYLINE
  5
21
100
AcDbEntity
  8
ASSEMBLY_OUTLINES_TOP
100
AcDbPolyline
 90
        2
 70
         0
 43
0.2
 10
-110.0
 20
103.51
 10
-110.0
 20
114.11
  0
LWPOLYLINE
  5
22
100
AcDbEntity
  8
ASSEMBLY_OUTLINES_TOP
100
AcDbPolyline
 90
        2
 70
         0
 43
0.2
 10
-117.0
 20
111.01
 10
-117.0
 20
114.11
  0
LWPOLYLINE
  5
23
100
AcDbEntity
  8
ASSEMBLY_OUTLINES_TOP
100
AcDbPolyline
 90
        3
 70
         1
 43
0.0
 10
6.330351
 20
35.55
 10
5.760351
 20
36.69
 10
6.900351
 20
36.69
  0
HATCH
  5
24
100
AcDbEntity
  8
ASSEMBLY_OUTLINES_TOP
100
AcDbHatch
 10
0.0
 20
0.0
 30
0.0
 210
0.0
 220
0.0
 230
1.0
  2
SOLID
 70
         1
 71
        1
 91
        1
  92
     2
 72
     0
 73
     1
  93
     3
 10
6.330351
 20
35.55
 10
5.760351
 20
36.69
 10
6.900351
 20
36.69
  97
     1
  330
    35
 75
     0
 76
     1
  98
     1
 10
0.0
 20
0.0
  0
LWPOLYLINE
  5
25
100
AcDbEntity
  8
ASSEMBLY_OUTLINES_TOP
100
AcDbPolyline
 90
        3
 70
         1
 43
0.0
 10
6.330351
 20
97.05
 10
6.90035
 20
95.91
 10
5.760351
 20
95.91
  0
HATCH
  5
26
100
AcDbEntity
  8
ASSEMBLY_OUTLINES_TOP
100
AcDbHatch
 10
0.0
 20
0.0
 30
0.0
 210
0.0
 220
0.0
 230
1.0
  2
SOLID
 70
         1
 71
        1
 91
        1
  92
     2
 72
     0
 73
     1
  93
     3
 10
6.330351
 20
97.05
 10
6.90035
 20
95.91
 10
5.760351
 20
95.91
  97
     1
  330
    37
 75
     0
 76
     1
  98
     1
 10
0.0
 20
0.0
  0
LWPOLYLINE
  5
27
100
AcDbEntity
  8
ASSEMBLY_OUTLINES_TOP
100
AcDbPolyline
 90
        2
 70
         0
 43
0.2
 10
6.330351
 20
62.51764
 10
6.330351
 20
36.12
  0
LWPOLYLINE
  5
28
100
AcDbEntity
  8
ASSEMBLY_OUTLINES_TOP
100
AcDbPolyline
 90
        2
 70
         0
 43
0.2
 10
6.330351
 20
96.48
 10
6.330351
 20
70.08236
  0
LWPOLYLINE
  5
29
100
AcDbEntity
  8
ASSEMBLY_OUTLINES_TOP
100
AcDbPolyline
 90
        2
 70
         0
 43
0.2
 10
-0.79
 20
35.55
 10
6.840351
 20
35.55
  0
LWPOLYLINE
  5
2A
100
AcDbEntity
  8
ASSEMBLY_OUTLINES_TOP
100
AcDbPolyline
 90
        2
 70
         0
 43
0.2
 10
-0.79
 20
97.05
 10
6.840351
 20
97.05
  0
LWPOLYLINE
  5
2B
100
AcDbEntity
  8
ASSEMBLY_OUTLINES_TOP
100
AcDbPolyline
 90
        3
 70
         1
 43
0.0
 10
9.13205
 20
0.0
 10
8.56205
 20
1.14
 10
9.70205
 20
1.14
  0
HATCH
  5
2C
100
AcDbEntity
  8
ASSEMBLY_OUTLINES_TOP
100
AcDbHatch
 10
0.0
 20
0.0
 30
0.0
 210
0.0
 220
0.0
 230
1.0
  2
SOLID
 70
         1
 71
        1
 91
        1
  92
     2
 72
     0
 73
     1
  93
     3
 10
9.13205
 20
0.0
 10
8.56205
 20
1.14
 10
9.70205
 20
1.14
  97
     1
  330
    43
 75
     0
 76
     1
  98
     1
 10
0.0
 20
0.0
  0
LWPOLYLINE
  5
2D
100
AcDbEntity
  8
ASSEMBLY_OUTLINES_TOP
100
AcDbPolyline
 90
        3
 70
         1
 43
0.0
 10
9.13205
 20
102.5
 10
9.702049
 20
101.36
 10
8.56205
 20
101.36
  0
HATCH
  5
2E
100
AcDbEntity
  8
ASSEMBLY_OUTLINES_TOP
100
AcDbHatch
 10
0.0
 20
0.0
 30
0.0
 210
0.0
 220
0.0
 230
1.0
  2
SOLID
 70
         1
 71
        1
 91
        1
  92
     2
 72
     0
 73
     1
  93
     3
 10
9.13205
 20
102.5
 10
9.702049
 20
101.36
 10
8.56205
 20
101.36
  97
     1
  330
    45
 75
     0
 76
     1
  98
     1
 10
0.0
 20
0.0
  0
LWPOLYLINE
  5
2F
100
AcDbEntity
  8
ASSEMBLY_OUTLINES_TOP
100
AcDbPolyline
 90
        2
 70
         0
 43
0.2
 10
9.13205
 20
46.837561
 10
9.13205
 20
0.57
  0
LWPOLYLINE
  5
30
100
AcDbEntity
  8
ASSEMBLY_OUTLINES_TOP
100
AcDbPolyline
 90
        2
 70
         0
 43
0.2
 10
9.13205
 20
101.93
 10
9.13205
 20
55.662438
  0
LWPOLYLINE
  5
31
100
AcDbEntity
  8
ASSEMBLY_OUTLINES_TOP
100
AcDbPolyline
 90
        2
 70
         0
 43
0.2
 10
0.51
 20
0.0
 10
9.64205
 20
0.0
  0
LWPOLYLINE
  5
32
100
AcDbEntity
  8
ASSEMBLY_OUTLINES_TOP
100
AcDbPolyline
 90
        2
 70
         0
 43
0.2
 10
0.51
 20
102.5
 10
9.64205
 20
102.5
  0
CIRCLE
  5
33
100
AcDbEntity
  8
ASSEMBLY_OUTLINES_TOP
100
AcDbCircle
 10
-50.890941
 20
55.121522
 30
0.0
 40
2.5
  0
CIRCLE
  5
34
100
AcDbEntity
  8
ASSEMBLY_OUTLINES_TOP
100
AcDbCircle
 10
-50.94086
 20
55.112516
 30
0.0
 40
1.25
  0
HATCH
  5
35
100
AcDbEntity
  8
ASSEMBLY_OUTLINES_TOP
100
AcDbHatch
 10
0.0
 20
0.0
 30
0.0
 210
0.0
 220
0.0
 230
1.0
  2
SOLID
 70
         1
 71
        1
 91
        1
  92
     1
  93
     1
 72
     2
 10
-50.94086
 20
55.112516
  40
1.25
  50
     0.0
  51
     360.0
 73
     0
  97
     1
  330
    52
 75
     0
 76
     1
  98
     1
 10
0.0
 20
0.0
  0
CIRCLE
  5
36
100
AcDbEntity
  8
ASSEMBLY_OUTLINES_TOP
100
AcDbCircle
 10
-76.8353
 20
99.547056
 30
0.0
 40
1.25
  0
HATCH
  5
37
100
AcDbEntity
  8
ASSEMBLY_OUTLINES_TOP
100
AcDbHatch
 10
0.0
 20
0.0
 30
0.0
 210
0.0
 220
0.0
 230
1.0
  2
SOLID
 70
         1
 71
        1
 91
        1
  92
     1
  93
     1
 72
     2
 10
-76.8353
 20
99.547056
  40
1.25
  50
     0.0
  51
     360.0
 73
     0
  97
     1
  330
    54
 75
     0
 76
     1
  98
     1
 10
0.0
 20
0.0
  0
LWPOLYLINE
  5
38
100
AcDbEntity
  8
ASSEMBLY_OUTLINES_TOP
100
AcDbPolyline
 90
        4
 70
         1
 43
0.0
 10
-79.3
 20
52.6
 10
-79.3
 20
102.1
 10
-41.3
 20
102.1
 10
-41.3
 20
52.6
  0
LWPOLYLINE
  5
39
100
AcDbEntity
  8
ASSEMBLY_OUTLINES_TOP
100
AcDbPolyline
 90
        2
 70
         0
 43
0.0
 10
-95.4
 20
23.3
 10
-94.13
 20
23.3
  0
LWPOLYLINE
  5
3A
100
AcDbEntity
  8
ASSEMBLY_OUTLINES_TOP
100
AcDbPolyline
 90
        2
 70
         0
 43
0.0
 10
-92.859999
 20
23.3
 10
-91.589999
 20
23.3
  0
LWPOLYLINE
  5
3B
100
AcDbEntity
  8
ASSEMBLY_OUTLINES_TOP
100
AcDbPolyline
 90
        2
 70
         0
 43
0.0
 10
-90.319998
 20
23.3
 10
-89.049998
 20
23.3
  0
LWPOLYLINE
  5
3C
100
AcDbEntity
  8
ASSEMBLY_OUTLINES_TOP
100
AcDbPolyline
 90
        2
 70
         0
 43
0.0
 10
-87.779997
 20
23.3
 10
-86.509997
 20
23.3
  0
LWPOLYLINE
  5
3D
100
AcDbEntity
  8
ASSEMBLY_OUTLINES_TOP
100
AcDbPolyline
 90
        2
 70
         0
 43
0.0
 10
-85.239996
 20
23.3
 10
-83.969996
 20
23.3
  0
LWPOLYLINE
  5
3E
100
AcDbEntity
  8
ASSEMBLY_OUTLINES_TOP
100
AcDbPolyline
 90
        2
 70
         0
 43
0.0
 10
-82.699995
 20
23.3
 10
-81.429995
 20
23.3
  0
LWPOLYLINE
  5
3F
100
AcDbEntity
  8
ASSEMBLY_OUTLINES_TOP
100
AcDbPolyline
 90
        2
 70
         0
 43
0.0
 10
-80.159994
 20
23.3
 10
-79.3
 20
23.3
  0
LWPOLYLINE
  5
40
100
AcDbEntity
  8
ASSEMBLY_OUTLINES_TOP
100
AcDbPolyline
 90
        2
 70
         0
 43
0.0
 10
-103.0
 20
87.1
 10
-101.73
 20
87.1
  0
LWPOLYLINE
  5
41
100
AcDbEntity
  8
ASSEMBLY_OUTLINES_TOP
100
AcDbPolyline
 90
        2
 70
         0
 43
0.0
 10
-100.459999
 20
87.1
 10
-99.189999
 20
87.1
  0
LWPOLYLINE
  5
42
100
AcDbEntity
  8
ASSEMBLY_OUTLINES_TOP
100
AcDbPolyline
 90
        2
 70
         0
 43
0.0
 10
-97.919998
 20
87.1
 10
-96.649998
 20
87.1
  0
LWPOLYLINE
  5
43
100
AcDbEntity
  8
ASSEMBLY_OUTLINES_TOP
100
AcDbPolyline
 90
        2
 70
         0
 43
0.0
 10
-96.0
 20
87.1
 10
-96.0
 20
85.83
  0
LWPOLYLINE
  5
44
100
AcDbEntity
  8
ASSEMBLY_OUTLINES_TOP
100
AcDbPolyline
 90
        2
 70
         0
 43
0.0
 10
-96.0
 20
84.559999
 10
-96.0
 20
83.289999
  0
LWPOLYLINE
  5
45
100
AcDbEntity
  8
ASSEMBLY_OUTLINES_TOP
100
AcDbPolyline
 90
        2
 70
         0
 43
0.0
 10
-96.0
 20
82.019998
 10
-96.0
 20
80.749998
  0
LWPOLYLINE
  5
46
100
AcDbEntity
  8
ASSEMBLY_OUTLINES_TOP
100
AcDbPolyline
 90
        2
 70
         0
 43
0.0
 10
-96.0
 20
79.479997
 10
-96.0
 20
78.209997
  0
LWPOLYLINE
  5
47
100
AcDbEntity
  8
ASSEMBLY_OUTLINES_TOP
100
AcDbPolyline
 90
        2
 70
         0
 43
0.0
 10
-96.0
 20
76.939996
 10
-96.0
 20
75.669996
  0
LWPOLYLINE
  5
48
100
AcDbEntity
  8
ASSEMBLY_OUTLINES_TOP
100
AcDbPolyline
 90
        2
 70
         0
 43
0.0
 10
-96.0
 20
74.399995
 10
-96.0
 20
73.129995
  0
LWPOLYLINE
  5
49
100
AcDbEntity
  8
ASSEMBLY_OUTLINES_TOP
100
AcDbPolyline
 90
        2
 70
         0
 43
0.0
 10
-96.0
 20
71.859994
 10
-96.0
 20
70.589994
  0
LWPOLYLINE
  5
4A
100
AcDbEntity
  8
ASSEMBLY_OUTLINES_TOP
100
AcDbPolyline
 90
        2
 70
         0
 43
0.0
 10
-96.0
 20
69.319993
 10
-96.0
 20
68.049993
  0
LWPOLYLINE
  5
4B
100
AcDbEntity
  8
ASSEMBLY_OUTLINES_TOP
100
AcDbPolyline
 90
        2
 70
         0
 43
0.0
 10
-96.0
 20
66.779992
 10
-96.0
 20
65.509992
  0
LWPOLYLINE
  5
4C
100
AcDbEntity
  8
ASSEMBLY_OUTLINES_TOP
100
AcDbPolyline
 90
        2
 70
         0
 43
0.0
 10
-96.0
 20
64.239991
 10
-96.0
 20
62.969991
  0
LWPOLYLINE
  5
4D
100
AcDbEntity
  8
ASSEMBLY_OUTLINES_TOP
100
AcDbPolyline
 90
        2
 70
         0
 43
0.0
 10
-103.0
 20
62.1
 10
-101.73
 20
62.1
  0
LWPOLYLINE
  5
4E
100
AcDbEntity
  8
ASSEMBLY_OUTLINES_TOP
100
AcDbPolyline
 90
        2
 70
         0
 43
0.0
 10
-100.459999
 20
62.1
 10
-99.189999
 20
62.1
  0
LWPOLYLINE
  5
4F
100
AcDbEntity
  8
ASSEMBLY_OUTLINES_TOP
100
AcDbPolyline
 90
        2
 70
         0
 43
0.0
 10
-97.919998
 20
62.1
 10
-96.649998
 20
62.1
  0
LWPOLYLINE
  5
50
100
AcDbEntity
  8
ASSEMBLY_OUTLINES_TOP
100
AcDbPolyline
 90
        2
 70
         0
 43
0.0
 10
-103.0
 20
62.1
 10
-103.0
 20
63.37
  0
LWPOLYLINE
  5
51
100
AcDbEntity
  8
ASSEMBLY_OUTLINES_TOP
100
AcDbPolyline
 90
        2
 70
         0
 43
0.0
 10
-103.0
 20
64.640001
 10
-103.0
 20
65.910001
  0
LWPOLYLINE
  5
52
100
AcDbEntity
  8
ASSEMBLY_OUTLINES_TOP
100
AcDbPolyline
 90
        2
 70
         0
 43
0.0
 10
-103.0
 20
67.180002
 10
-103.0
 20
68.450002
  0
LWPOLYLINE
  5
53
100
AcDbEntity
  8
ASSEMBLY_OUTLINES_TOP
100
AcDbPolyline
 90
        2
 70
         0
 43
0.0
 10
-103.0
 20
69.720003
 10
-103.0
 20
70.990003
  0
LWPOLYLINE
  5
54
100
AcDbEntity
  8
ASSEMBLY_OUTLINES_TOP
100
AcDbPolyline
 90
        2
 70
         0
 43
0.0
 10
-103.0
 20
72.260004
 10
-103.0
 20
73.530004
  0
LWPOLYLINE
  5
55
100
AcDbEntity
  8
ASSEMBLY_OUTLINES_TOP
100
AcDbPolyline
 90
        2
 70
         0
 43
0.0
 10
-103.0
 20
74.800005
 10
-103.0
 20
76.070005
  0
LWPOLYLINE
  5
56
100
AcDbEntity
  8
ASSEMBLY_OUTLINES_TOP
100
AcDbPolyline
 90
        2
 70
         0
 43
0.0
 10
-103.0
 20
77.340006
 10
-103.0
 20
78.610006
  0
LWPOLYLINE
  5
57
100
AcDbEntity
  8
ASSEMBLY_OUTLINES_TOP
100
AcDbPolyline
 90
        2
 70
         0
 43
0.0
 10
-103.0
 20
79.880007
 10
-103.0
 20
81.150007
  0
LWPOLYLINE
  5
58
100
AcDbEntity
  8
ASSEMBLY_OUTLINES_TOP
100
AcDbPolyline
 90
        2
 70
         0
 43
0.0
 10
-103.0
 20
82.420008
 10
-103.0
 20
83.690008
  0
LWPOLYLINE
  5
59
100
AcDbEntity
  8
ASSEMBLY_OUTLINES_TOP
100
AcDbPolyline
 90
        2
 70
         0
 43
0.0
 10
-103.0
 20
84.960009
 10
-103.0
 20
86.230009
  0
LWPOLYLINE
  5
5A
100
AcDbEntity
  8
ASSEMBLY_OUTLINES_TOP
100
AcDbPolyline
 90
        4
 70
         1
 43
0.0
 10
-110.0
 20
13.5
 10
-110.0
 20
88.5
 10
-94.0
 20
88.5
 10
-94.0
 20
13.5
  0
LWPOLYLINE
  5
5B
100
AcDbEntity
  8
ASSEMBLY_OUTLINES_TOP
100
AcDbPolyline
 90
        4
 70
         1
 43
0.0
 10
-117.0
 20
-8.5
 10
-117.0
 20
110.5
 10
59.0
 20
110.5
 10
59.0
 20
-8.5
  0
LWPOLYLINE
  5
5C
100
AcDbEntity
  8
ASSEMBLY_OUTLINES_TOP
100
AcDbPolyline
 90
        4
 70
         1
 43
0.0
 10
-110.0
 20
-0.5
 10
-110.0
 20
103.0
 10
51.0
 20
103.0
 10
51.0
 20
-0.5
  0
LWPOLYLINE
  5
5D
100
AcDbEntity
  8
ASSEMBLY_OUTLINES_TOP
100
AcDbPolyline
 90
        2
 70
         0
 43
0.0
 10
-110.5
 20
74.6
 10
-109.23
 20
74.6
  0
LWPOLYLINE
  5
5E
100
AcDbEntity
  8
ASSEMBLY_OUTLINES_TOP
100
AcDbPolyline
 90
        2
 70
         0
 43
0.0
 10
-107.959999
 20
74.6
 10
-106.689999
 20
74.6
  0
LWPOLYLINE
  5
5F
100
AcDbEntity
  8
ASSEMBLY_OUTLINES_TOP
100
AcDbPolyline
 90
        2
 70
         0
 43
0.0
 10
-105.419998
 20
74.6
 10
-104.149998
 20
74.6
  0
LWPOLYLINE
  5
60
100
AcDbEntity
  8
ASSEMBLY_OUTLINES_TOP
100
AcDbPolyline
 90
        2
 70
         0
 43
0.0
 10
-102.879997
 20
74.6
 10
-101.609997
 20
74.6
  0
LWPOLYLINE
  5
61
100
AcDbEntity
  8
ASSEMBLY_OUTLINES_TOP
100
AcDbPolyline
 90
        2
 70
         0
 43
0.0
 10
-100.339996
 20
74.6
 10
-99.069996
 20
74.6
  0
LWPOLYLINE
  5
62
100
AcDbEntity
  8
ASSEMBLY_OUTLINES_TOP
100
AcDbPolyline
 90
        2
 70
         0
 43
0.0
 10
-97.799995
 20
74.6
 10
-96.529995
 20
74.6
  0
LWPOLYLINE
  5
63
100
AcDbEntity
  8
ASSEMBLY_OUTLINES_TOP
100
AcDbPolyline
 90
        2
 70
         0
 43
0.0
 10
-95.259994
 20
74.6
 10
-94.4
 20
74.6
  0
LWPOLYLINE
  5
64
100
AcDbEntity
  8
ASSEMBLY_OUTLINES_TOP
100
AcDbPolyline
 90
        2
 70
         0
 43
0.2
 10
-117.51
 20
110.5
 10
-122.53035
 20
110.5
  0
LWPOLYLINE
  5
65
100
AcDbEntity
  8
ASSEMBLY_OUTLINES_TOP
100
AcDbPolyline
 90
        2
 70
         0
 43
0.2
 10
-110.51
 20
103.0
 10
-122.53035
 20
103.0
  0
LWPOLYLINE
  5
66
100
AcDbEntity
  8
ASSEMBLY_OUTLINES_TOP
100
AcDbPolyline
 90
        2
 70
         0
 43
0.2
 10
-122.02035
 20
111.07
 10
-122.02035
 20
113.35
  0
LWPOLYLINE
  5
67
100
AcDbEntity
  8
ASSEMBLY_OUTLINES_TOP
100
AcDbPolyline
 90
        2
 70
         0
 43
0.2
 10
-122.02035
 20
102.43
 10
-122.02035
 20
100.15
  0
LWPOLYLINE
  5
68
100
AcDbEntity
  8
ASSEMBLY_OUTLINES_TOP
100
AcDbPolyline
 90
        3
 70
         1
 43
0.0
 10
-122.02035
 20
110.5
 10
-122.59035
 20
111.64
 10
-121.45035
 20
111.64
  0
HATCH
  5
69
100
AcDbEntity
  8
ASSEMBLY_OUTLINES_TOP
100
AcDbHatch
 10
0.0
 20
0.0
 30
0.0
 210
0.0
 220
0.0
 230
1.0
  2
SOLID
 70
         1
 71
        1
 91
        1
  92
     2
 72
     0
 73
     1
  93
     3
 10
-122.02035
 20
110.5
 10
-122.59035
 20
111.64
 10
-121.45035
 20
111.64
  97
     1
  330
    104
 75
     0
 76
     1
  98
     1
 10
0.0
 20
0.0
  0
LWPOLYLINE
  5
6A
100
AcDbEntity
  8
ASSEMBLY_OUTLINES_TOP
100
AcDbPolyline
 90
        3
 70
         1
 43
0.0
 10
-122.02035
 20
103.0
 10
-121.450351
 20
101.86
 10
-122.59035
 20
101.86
  0
HATCH
  5
6B
100
AcDbEntity
  8
ASSEMBLY_OUTLINES_TOP
100
AcDbHatch
 10
0.0
 20
0.0
 30
0.0
 210
0.0
 220
0.0
 230
1.0
  2
SOLID
 70
         1
 71
        1
 91
        1
  92
     2
 72
     0
 73
     1
  93
     3
 10
-122.02035
 20
103.0
 10
-121.450351
 20
101.86
 10
-122.59035
 20
101.86
  97
     1
  330
    106
 75
     0
 76
     1
  98
     1
 10
0.0
 20
0.0
  0
LWPOLYLINE
  5
6C
100
AcDbEntity
  8
ASSEMBLY_OUTLINES_TOP
100
AcDbPolyline
 90
        2
 70
         0
 43
0.2
 10
-110.51
 20
103.0
 10
-112.57857
 20
103.0
  0
LWPOLYLINE
  5
6D
100
AcDbEntity
  8
ASSEMBLY_OUTLINES_TOP
100
AcDbPolyline
 90
        2
 70
         0
 43
0.2
 10
-111.01
 20
74.6
 10
-112.57857
 20
74.6
  0
LWPOLYLINE
  5
6E
100
AcDbEntity
  8
ASSEMBLY_OUTLINES_TOP
100
AcDbPolyline
 90
        2
 70
         0
 43
0.2
 10
-112.06857
 20
102.43
 10
-112.06857
 20
92.655702
  0
LWPOLYLINE
  5
6F
100
AcDbEntity
  8
ASSEMBLY_OUTLINES_TOP
100
AcDbPolyline
 90
        2
 70
         0
 43
0.2
 10
-112.06857
 20
84.944297
 10
-112.06857
 20
75.17
  0
LWPOLYLINE
  5
70
100
AcDbEntity
  8
ASSEMBLY_OUTLINES_TOP
100
AcDbPolyline
 90
        3
 70
         1
 43
0.0
 10
-112.06857
 20
103.0
 10
-111.498571
 20
101.86
 10
-112.63857
 20
101.86
  0
HATCH
  5
71
100
AcDbEntity
  8
ASSEMBLY_OUTLINES_TOP
100
AcDbHatch
 10
0.0
 20
0.0
 30
0.0
 210
0.0
 220
0.0
 230
1.0
  2
SOLID
 70
         1
 71
        1
 91
        1
  92
     2
 72
     0
 73
     1
  93
     3
 10
-112.06857
 20
103.0
 10
-111.498571
 20
101.86
 10
-112.63857
 20
101.86
  97
     1
  330
    112
 75
     0
 76
     1
  98
     1
 10
0.0
 20
0.0
  0
LWPOLYLINE
  5
72
100
AcDbEntity
  8
ASSEMBLY_OUTLINES_TOP
100
AcDbPolyline
 90
        3
 70
         1
 43
0.0
 10
-112.06857
 20
74.6
 10
-112.63857
 20
75.74
 10
-111.49857
 20
75.74
  0
HATCH
  5
73
100
AcDbEntity
  8
ASSEMBLY_OUTLINES_TOP
100
AcDbHatch
 10
0.0
 20
0.0
 30
0.0
 210
0.0
 220
0.0
 230
1.0
  2
SOLID
 70
         1
 71
        1
 91
        1
  92
     2
 72
     0
 73
     1
  93
     3
 10
-112.06857
 20
74.6
 10
-112.63857
 20
75.74
 10
-111.49857
 20
75.74
  97
     1
  330
    114
 75
     0
 76
     1
  98
     1
 10
0.0
 20
0.0
  0
LWPOLYLINE
  5
74
100
AcDbEntity
  8
ASSEMBLY_OUTLINES_TOP
100
AcDbPolyline
 90
        2
 70
         0
 43
0.2
 10
-95.91
 20
23.3
 10
-114.226939
 20
23.3
  0
LWPOLYLINE
  5
75
100
AcDbEntity
  8
ASSEMBLY_OUTLINES_TOP
100
AcDbPolyline
 90
        2
 70
         0
 43
0.2
 10
-116.49
 20
-8.5
 10
-113.206939
 20
-8.5
  0
LWPOLYLINE
  5
76
100
AcDbEntity
  8
ASSEMBLY_OUTLINES_TOP
100
AcDbPolyline
 90
        2
 70
         0
 43
0.2
 10
-113.716939
 20
22.73
 10
-113.716939
 20
11.18236
  0
LWPOLYLINE
  5
77
100
AcDbEntity
  8
ASSEMBLY_OUTLINES_TOP
100
AcDbPolyline
 90
        2
 70
         0
 43
0.2
 10
-113.716939
 20
3.61764
 10
-113.716939
 20
-7.93
  0
LWPOLYLINE
  5
78
100
AcDbEntity
  8
ASSEMBLY_OUTLINES_TOP
100
AcDbPolyline
 90
        3
 70
         1
 43
0.0
 10
-113.716939
 20
23.3
 10
-113.14694
 20
22.16
 10
-114.286939
 20
22.16
  0
HATCH
  5
79
100
AcDbEntity
  8
ASSEMBLY_OUTLINES_TOP
100
AcDbHatch
 10
0.0
 20
0.0
 30
0.0
 210
0.0
 220
0.0
 230
1.0
  2
SOLID
 70
         1
 71
        1
 91
        1
  92
     2
 72
     0
 73
     1
  93
     3
 10
-113.716939
 20
23.3
 10
-113.14694
 20
22.16
 10
-114.286939
 20
22.16
  97
     1
  330
    120
 75
     0
 76
     1
  98
     1
 10
0.0
 20
0.0
  0
LWPOLYLINE
  5
7A
100
AcDbEntity
  8
ASSEMBLY_OUTLINES_TOP
100
AcDbPolyline
 90
        3
 70
         1
 43
0.0
 10
-113.716939
 20
-8.5
 10
-114.286939
 20
-7.36
 10
-113.146939
 20
-7.36
  0
HATCH
  5
7B
100
AcDbEntity
  8
ASSEMBLY_OUTLINES_TOP
100
AcDbHatch
 10
0.0
 20
0.0
 30
0.0
 210
0.0
 220
0.0
 230
1.0
  2
SOLID
 70
         1
 71
        1
 91
        1
  92
     2
 72
     0
 73
     1
  93
     3
 10
-113.716939
 20
-8.5
 10
-114.286939
 20
-7.36
 10
-113.146939
 20
-7.36
  97
     1
  330
    122
 75
     0
 76
     1
  98
     1
 10
0.0
 20
0.0
  0
LWPOLYLINE
  5
7C
100
AcDbEntity
  8
ASSEMBLY_OUTLINES_TOP
100
AcDbPolyline
 90
        2
 70
         0
 43
0.2
 10
-93.5
 20
-0.51
 10
-93.5
 20
-7.356431
  0
LWPOLYLINE
  5
7D
100
AcDbEntity
  8
ASSEMBLY_OUTLINES_TOP
100
AcDbPolyline
 90
        2
 70
         0
 43
0.2
 10
0.0
 20
-0.51
 10
0.0
 20
-7.356431
  0
LWPOLYLINE
  5
7E
100
AcDbEntity
  8
ASSEMBLY_OUTLINES_TOP
100
AcDbPolyline
 90
        2
 70
         0
 43
0.2
 10
-92.93
 20
-6.846431
 10
-50.605703
 20
-6.846431
  0
LWPOLYLINE
  5
7F
100
AcDbEntity
  8
ASSEMBLY_OUTLINES_TOP
100
AcDbPolyline
 90
        2
 70
         0
 43
0.2
 10
-42.894297
 20
-6.846431
 10
-0.57
 20
-6.846431
  0
LWPOLYLINE
  5
80
100
AcDbEntity
  8
ASSEMBLY_OUTLINES_TOP
100
AcDbPolyline
 90
        3
 70
         1
 43
0.0
 10
-93.5
 20
-6.846431
 10
-92.36
 20
-6.276431
 10
-92.36
 20
-7.416431
  0
HATCH
  5
81
100
AcDbEntity
  8
ASSEMBLY_OUTLINES_TOP
100
AcDbHatch
 10
0.0
 20
0.0
 30
0.0
 210
0.0
 220
0.0
 230
1.0
  2
SOLID
 70
         1
 71
        1
 91
        1
  92
     2
 72
     0
 73
     1
  93
     3
 10
-93.5
 20
-6.846431
 10
-92.36
 20
-6.276431
 10
-92.36
 20
-7.416431
  97
     1
  330
    128
 75
     0
 76
     1
  98
     1
 10
0.0
 20
0.0
  0
LWPOLYLINE
  5
82
100
AcDbEntity
  8
ASSEMBLY_OUTLINES_TOP
100
AcDbPolyline
 90
        3
 70
         1
 43
0.0
 10
0.0
 20
-6.846431
 10
-1.14
 20
-7.416431
 10
-1.14
 20
-6.276431
  0
HATCH
  5
83
100
AcDbEntity
  8
ASSEMBLY_OUTLINES_TOP
100
AcDbHatch
 10
0.0
 20
0.0
 30
0.0
 210
0.0
 220
0.0
 230
1.0
  2
SOLID
 70
         1
 71
        1
 91
        1
  92
     2
 72
     0
 73
     1
  93
     3
 10
0.0
 20
-6.846431
 10
-1.14
 20
-7.416431
 10
-1.14
 20
-6.276431
  97
     1
  330
    130
 75
     0
 76
     1
  98
     1
 10
0.0
 20
0.0
  0
LWPOLYLINE
  5
84
100
AcDbEntity
  8
ASSEMBLY_OUTLINES_TOP
100
AcDbPolyline
 90
        2
 70
         0
 43
0.2
 10
-94.01
 20
102.5
 10
-98.306557
 20
102.5
  0
LWPOLYLINE
  5
85
100
AcDbEntity
  8
ASSEMBLY_OUTLINES_TOP
100
AcDbPolyline
 90
        2
 70
         0
 43
0.2
 10
-94.01
 20
0.0
 10
-98.306557
 20
0.0
  0
LWPOLYLINE
  5
86
100
AcDbEntity
  8
ASSEMBLY_OUTLINES_TOP
100
AcDbPolyline
 90
        2
 70
         0
 43
0.2
 10
-97.796557
 20
101.93
 10
-97.796557
 20
55.662438
  0
LWPOLYLINE
  5
87
100
AcDbEntity
  8
ASSEMBLY_OUTLINES_TOP
100
AcDbPolyline
 90
        2
 70
         0
 43
0.2
 10
-97.796557
 20
46.837562
 10
-97.796557
 20
0.57
  0
LWPOLYLINE
  5
88
100
AcDbEntity
  8
ASSEMBLY_OUTLINES_TOP
100
AcDbPolyline
 90
        3
 70
         1
 43
0.0
 10
-97.796557
 20
102.5
 10
-97.226558
 20
101.36
 10
-98.366557
 20
101.36
  0
HATCH
  5
89
100
AcDbEntity
  8
ASSEMBLY_OUTLINES_TOP
100
AcDbHatch
 10
0.0
 20
0.0
 30
0.0
 210
0.0
 220
0.0
 230
1.0
  2
SOLID
 70
         1
 71
        1
 91
        1
  92
     2
 72
     0
 73
     1
  93
     3
 10
-97.796557
 20
102.5
 10
-97.226558
 20
101.36
 10
-98.366557
 20
101.36
  97
     1
  330
    136
 75
     0
 76
     1
  98
     1
 10
0.0
 20
0.0
  0
LWPOLYLINE
  5
8A
100
AcDbEntity
  8
ASSEMBLY_OUTLINES_TOP
100
AcDbPolyline
 90
        3
 70
         1
 43
0.0
 10
-97.796557
 20
0.0
 10
-98.366557
 20
1.14
 10
-97.226557
 20
1.14
  0
HATCH
  5
8B
100
AcDbEntity
  8
ASSEMBLY_OUTLINES_TOP
100
AcDbHatch
 10
0.0
 20
0.0
 30
0.0
 210
0.0
 220
0.0
 230
1.0
  2
SOLID
 70
         1
 71
        1
 91
        1
  92
     2
 72
     0
 73
     1
  93
     3
 10
-97.796557
 20
0.0
 10
-98.366557
 20
1.14
 10
-97.226557
 20
1.14
  97
     1
  330
    138
 75
     0
 76
     1
  98
     1
 10
0.0
 20
0.0
  0
LWPOLYLINE
  5
8C
100
AcDbEntity
  8
ASSEMBLY_OUTLINES_TOP
100
AcDbPolyline
 90
        2
 70
         0
 43
0.2
 10
-3.0
 20
2.49
 10
-3.0
 20
-2.735679
  0
LWPOLYLINE
  5
8D
100
AcDbEntity
  8
ASSEMBLY_OUTLINES_TOP
100
AcDbPolyline
 90
        2
 70
         0
 43
0.2
 10
0.0
 20
-0.51
 10
0.0
 20
-2.735679
  0
LWPOLYLINE
  5
8E
100
AcDbEntity
  8
ASSEMBLY_OUTLINES_TOP
100
AcDbPolyline
 90
        2
 70
         0
 43
0.2
 10
-3.57
 20
-2.225679
 10
-5.85
 20
-2.225679
  0
LWPOLYLINE
  5
8F
100
AcDbEntity
  8
ASSEMBLY_OUTLINES_TOP
100
AcDbPolyline
 90
        2
 70
         0
 43
0.2
 10
0.57
 20
-2.225679
 10
2.85
 20
-2.225679
  0
LWPOLYLINE
  5
90
100
AcDbEntity
  8
ASSEMBLY_OUTLINES_TOP
100
AcDbPolyline
 90
        3
 70
         1
 43
0.0
 10
-3.0
 20
-2.225679
 10
-4.14
 20
-2.795679
 10
-4.14
 20
-1.655679
  0
HATCH
  5
91
100
AcDbEntity
  8
ASSEMBLY_OUTLINES_TOP
100
AcDbHatch
 10
0.0
 20
0.0
 30
0.0
 210
0.0
 220
0.0
 230
1.0
  2
SOLID
 70
         1
 71
        1
 91
        1
  92
     2
 72
     0
 73
     1
  93
     3
 10
-3.0
 20
-2.225679
 10
-4.14
 20
-2.795679
 10
-4.14
 20
-1.655679
  97
     1
  330
    144
 75
     0
 76
     1
  98
     1
 10
0.0
 20
0.0
  0
LWPOLYLINE
  5
92
100
AcDbEntity
  8
ASSEMBLY_OUTLINES_TOP
100
AcDbPolyline
 90
        3
 70
         1
 43
0.0
 10
0.0
 20
-2.225679
 10
1.14
 20
-1.655679
 10
1.14
 20
-2.795679
  0
HATCH
  5
93
100
AcDbEntity
  8
ASSEMBLY_OUTLINES_TOP
100
AcDbHatch
 10
0.0
 20
0.0
 30
0.0
 210
0.0
 220
0.0
 230
1.0
  2
SOLID
 70
         1
 71
        1
 91
        1
  92
     2
 72
     0
 73
     1
  93
     3
 10
0.0
 20
-2.225679
 10
1.14
 20
-1.655679
 10
1.14
 20
-2.795679
  97
     1
  330
    146
 75
     0
 76
     1
  98
     1
 10
0.0
 20
0.0
  0
LWPOLYLINE
  5
94
100
AcDbEntity
  8
ASSEMBLY_OUTLINES_TOP
100
AcDbPolyline
 90
        2
 70
         0
 43
0.2
 10
-2.49
 20
3.0
 10
6.01
 20
3.0
  0
LWPOLYLINE
  5
95
100
AcDbEntity
  8
ASSEMBLY_OUTLINES_TOP
100
AcDbPolyline
 90
        2
 70
         0
 43
0.2
 10
0.51
 20
0.0
 10
6.01
 20
0.0
  0
LWPOLYLINE
  5
96
100
AcDbEntity
  8
ASSEMBLY_OUTLINES_TOP
100
AcDbPolyline
 90
        2
 70
         0
 43
0.2
 10
5.5
 20
3.57
 10
5.5
 20
5.85
  0
LWPOLYLINE
  5
97
100
AcDbEntity
  8
ASSEMBLY_OUTLINES_TOP
100
AcDbPolyline
 90
        2
 70
         0
 43
0.2
 10
5.5
 20
-0.57
 10
5.5
 20
-2.85
  0
LWPOLYLINE
  5
98
100
AcDbEntity
  8
ASSEMBLY_OUTLINES_TOP
100
AcDbPolyline
 90
        3
 70
         1
 43
0.0
 10
5.5
 20
3.0
 10
4.93
 20
4.14
 10
6.07
 20
4.14
  0
HATCH
  5
99
100
AcDbEntity
  8
ASSEMBLY_OUTLINES_TOP
100
AcDbHatch
 10
0.0
 20
0.0
 30
0.0
 210
0.0
 220
0.0
 230
1.0
  2
SOLID
 70
         1
 71
        1
 91
        1
  92
     2
 72
     0
 73
     1
  93
     3
 10
5.5
 20
3.0
 10
4.93
 20
4.14
 10
6.07
 20
4.14
  97
     1
  330
    152
 75
     0
 76
     1
  98
     1
 10
0.0
 20
0.0
  0
LWPOLYLINE
  5
9A
100
AcDbEntity
  8
ASSEMBLY_OUTLINES_TOP
100
AcDbPolyline
 90
        3
 70
         1
 43
0.0
 10
5.5
 20
0.0
 10
6.069999
 20
-1.14
 10
4.93
 20
-1.14
  0
HATCH
  5
9B
100
AcDbEntity
  8
ASSEMBLY_OUTLINES_TOP
100
AcDbHatch
 10
0.0
 20
0.0
 30
0.0
 210
0.0
 220
0.0
 230
1.0
  2
SOLID
 70
         1
 71
        1
 91
        1
  92
     2
 72
     0
 73
     1
  93
     3
 10
5.5
 20
0.0
 10
6.069999
 20
-1.14
 10
4.93
 20
-1.14
  97
     1
  330
    154
 75
     0
 76
     1
  98
     1
 10
0.0
 20
0.0
  0
LWPOLYLINE
  5
9C
100
AcDbEntity
  8
ASSEMBLY_OUTLINES_TOP
100
AcDbPolyline
 90
        2
 70
         0
 43
0.2
 10
-2.49
 20
43.5
 10
4.069928
 20
43.5
  0
LWPOLYLINE
  5
9D
100
AcDbEntity
  8
ASSEMBLY_OUTLINES_TOP
100
AcDbPolyline
 90
        2
 70
         0
 43
0.2
 10
-2.49
 20
3.0
 10
4.069928
 20
3.0
  0
LWPOLYLINE
  5
9E
100
AcDbEntity
  8
ASSEMBLY_OUTLINES_TOP
100
AcDbPolyline
 90
        2
 70
         0
 43
0.2
 10
3.559928
 20
42.93
 10
3.559928
 20
27.105703
  0
LWPOLYLINE
  5
9F
100
AcDbEntity
  8
ASSEMBLY_OUTLINES_TOP
100
AcDbPolyline
 90
        2
 70
         0
 43
0.2
 10
3.559928
 20
19.394298
 10
3.559928
 20
3.57
  0
LWPOLYLINE
  5
A0
100
AcDbEntity
  8
ASSEMBLY_OUTLINES_TOP
100
AcDbPolyline
 90
        3
 70
         1
 43
0.0
 10
3.559928
 20
43.5
 10
4.129927
 20
42.36
 10
2.989928
 20
42.36
  0
HATCH
  5
A1
100
AcDbEntity
  8
ASSEMBLY_OUTLINES_TOP
100
AcDbHatch
 10
0.0
 20
0.0
 30
0.0
 210
0.0
 220
0.0
 230
1.0
  2
SOLID
 70
         1
 71
        1
 91
        1
  92
     2
 72
     0
 73
     1
  93
     3
 10
3.559928
 20
43.5
 10
4.129927
 20
42.36
 10
2.989928
 20
42.36
  97
     1
  330
    160
 75
     0
 76
     1
  98
     1
 10
0.0
 20
0.0
  0
LWPOLYLINE
  5
A2
100
AcDbEntity
  8
ASSEMBLY_OUTLINES_TOP
100
AcDbPolyline
 90
        3
 70
         1
 43
0.0
 10
3.559928
 20
3.0
 10
2.989928
 20
4.14
 10
4.129928
 20
4.14
  0
HATCH
  5
A3
100
AcDbEntity
  8
ASSEMBLY_OUTLINES_TOP
100
AcDbHatch
 10
0.0
 20
0.0
 30
0.0
 210
0.0
 220
0.0
 230
1.0
  2
SOLID
 70
         1
 71
        1
 91
        1
  92
     2
 72
     0
 73
     1
  93
     3
 10
3.559928
 20
3.0
 10
2.989928
 20
4.14
 10
4.129928
 20
4.14
  97
     1
  330
    162
 75
     0
 76
     1
  98
     1
 10
0.0
 20
0.0
  0
LWPOLYLINE
  5
A4
100
AcDbEntity
  8
ASSEMBLY_OUTLINES_TOP
100
AcDbPolyline
 90
        2
 70
         0
 43
0.2
 10
-2.49
 20
89.5
 10
4.315621
 20
89.5
  0
LWPOLYLINE
  5
A5
100
AcDbEntity
  8
ASSEMBLY_OUTLINES_TOP
100
AcDbPolyline
 90
        2
 70
         0
 43
0.2
 10
-2.49
 20
43.5
 10
4.315621
 20
43.5
  0
LWPOLYLINE
  5
A6
100
AcDbEntity
  8
ASSEMBLY_OUTLINES_TOP
100
AcDbPolyline
 90
        2
 70
         0
 43
0.2
 10
3.805621
 20
88.93
 10
3.805621
 20
69.248897
  0
LWPOLYLINE
  5
A7
100
AcDbEntity
  8
ASSEMBLY_OUTLINES_TOP
100
AcDbPolyline
 90
        2
 70
         0
 43
0.2
 10
3.805621
 20
63.751102
 10
3.805621
 20
44.07
  0
LWPOLYLINE
  5
A8
100
AcDbEntity
  8
ASSEMBLY_OUTLINES_TOP
100
AcDbPolyline
 90
        3
 70
         1
 43
0.0
 10
3.805621
 20
89.5
 10
4.37562
 20
88.36
 10
3.235621
 20
88.36
  0
HATCH
  5
A9
100
AcDbEntity
  8
ASSEMBLY_OUTLINES_TOP
100
AcDbHatch
 10
0.0
 20
0.0
 30
0.0
 210
0.0
 220
0.0
 230
1.0
  2
SOLID
 70
         1
 71
        1
 91
        1
  92
     2
 72
     0
 73
     1
  93
     3
 10
3.805621
 20
89.5
 10
4.37562
 20
88.36
 10
3.235621
 20
88.36
  97
     1
  330
    168
 75
     0
 76
     1
  98
     1
 10
0.0
 20
0.0
  0
LWPOLYLINE
  5
AA
100
AcDbEntity
  8
ASSEMBLY_OUTLINES_TOP
100
AcDbPolyline
 90
        3
 70
         1
 43
0.0
 10
3.805621
 20
43.5
 10
3.235621
 20
44.64
 10
4.375621
 20
44.64
  0
HATCH
  5
AB
100
AcDbEntity
  8
ASSEMBLY_OUTLINES_TOP
100
AcDbHatch
 10
0.0
 20
0.0
 30
0.0
 210
0.0
 220
0.0
 230
1.0
  2
SOLID
 70
         1
 71
        1
 91
        1
  92
     2
 72
     0
 73
     1
  93
     3
 10
3.805621
 20
43.5
 10
3.235621
 20
44.64
 10
4.375621
 20
44.64
  97
     1
  330
    170
 75
     0
 76
     1
  98
     1
 10
0.0
 20
0.0
  0
LWPOLYLINE
  5
AC
100
AcDbEntity
  8
ASSEMBLY_OUTLINES_TOP
100
AcDbPolyline
 90
        2
 70
         0
 43
0.2
 10
-38.0
 20
44.01
 10
-38.0
 20
47.615742
  0
LWPOLYLINE
  5
AD
100
AcDbEntity
  8
ASSEMBLY_OUTLINES_TOP
100
AcDbPolyline
 90
        2
 70
         0
 43
0.2
 10
-3.0
 20
44.01
 10
-3.0
 20
47.615742
  0
LWPOLYLINE
  5
AE
100
AcDbEntity
  8
ASSEMBLY_OUTLINES_TOP
100
AcDbPolyline
 90
        2
 70
         0
 43
0.2
 10
-37.43
 20
47.105742
 10
-23.248898
 20
47.105742
  0
LWPOLYLINE
  5
AF
100
AcDbEntity
  8
ASSEMBLY_OUTLINES_TOP
100
AcDbPolyline
 90
        2
 70
         0
 43
0.2
 10
-17.751102
 20
47.105742
 10
-3.57
 20
47.105742
  0
LWPOLYLINE
  5
B0
100
AcDbEntity
  8
ASSEMBLY_OUTLINES_TOP
100
AcDbPolyline
 90
        3
 70
         1
 43
0.0
 10
-38.0
 20
47.105742
 10
-36.86
 20
47.675742
 10
-36.86
 20
46.535742
  0
HATCH
  5
B1
100
AcDbEntity
  8
ASSEMBLY_OUTLINES_TOP
100
AcDbHatch
 10
0.0
 20
0.0
 30
0.0
 210
0.0
 220
0.0
 230
1.0
  2
SOLID
 70
         1
 71
        1
 91
        1
  92
     2
 72
     0
 73
     1
  93
     3
 10
-38.0
 20
47.105742
 10
-36.86
 20
47.675742
 10
-36.86
 20
46.535742
  97
     1
  330
    176
 75
     0
 76
     1
  98
     1
 10
0.0
 20
0.0
  0
LWPOLYLINE
  5
B2
100
AcDbEntity
  8
ASSEMBLY_OUTLINES_TOP
100
AcDbPolyline
 90
        3
 70
         1
 43
0.0
 10
-3.0
 20
47.105742
 10
-4.14
 20
46.535742
 10
-4.14
 20
47.675742
  0
HATCH
  5
B3
100
AcDbEntity
  8
ASSEMBLY_OUTLINES_TOP
100
AcDbHatch
 10
0.0
 20
0.0
 30
0.0
 210
0.0
 220
0.0
 230
1.0
  2
SOLID
 70
         1
 71
        1
 91
        1
  92
     2
 72
     0
 73
     1
  93
     3
 10
-3.0
 20
47.105742
 10
-4.14
 20
46.535742
 10
-4.14
 20
47.675742
  97
     1
  330
    178
 75
     0
 76
     1
  98
     1
 10
0.0
 20
0.0
  0
LWPOLYLINE
  5
B4
100
AcDbEntity
  8
ASSEMBLY_OUTLINES_TOP
100
AcDbPolyline
 90
        2
 70
         0
 43
0.2
 10
-68.0
 20
2.49
 10
-68.0
 20
-4.536487
  0
LWPOLYLINE
  5
B5
100
AcDbEntity
  8
ASSEMBLY_OUTLINES_TOP
100
AcDbPolyline
 90
        2
 70
         0
 43
0.2
 10
-3.0
 20
2.49
 10
-3.0
 20
-4.536487
  0
LWPOLYLINE
  5
B6
100
AcDbEntity
  8
ASSEMBLY_OUTLINES_TOP
100
AcDbPolyline
 90
        2
 70
         0
 43
0.2
 10
-67.43
 20
-4.026487
 10
-38.248898
 20
-4.026487
  0
LWPOLYLINE
  5
B7
100
AcDbEntity
  8
ASSEMBLY_OUTLINES_TOP
100
AcDbPolyline
 90
        2
 70
         0
 43
0.2
 10
-32.751102
 20
-4.026487
 10
-3.57
 20
-4.026487
  0
LWPOLYLINE
  5
B8
100
AcDbEntity
  8
ASSEMBLY_OUTLINES_TOP
100
AcDbPolyline
 90
        3
 70
         1
 43
0.0
 10
-68.0
 20
-4.026487
 10
-66.86
 20
-3.456487
 10
-66.86
 20
-4.596487
  0
HATCH
  5
B9
100
AcDbEntity
  8
ASSEMBLY_OUTLINES_TOP
100
AcDbHatch
 10
0.0
 20
0.0
 30
0.0
 210
0.0
 220
0.0
 230
1.0
  2
SOLID
 70
         1
 71
        1
 91
        1
  92
     2
 72
     0
 73
     1
  93
     3
 10
-68.0
 20
-4.026487
 10
-66.86
 20
-3.456487
 10
-66.86
 20
-4.596487
  97
     1
  330
    184
 75
     0
 76
     1
  98
     1
 10
0.0
 20
0.0
  0
LWPOLYLINE
  5
BA
100
AcDbEntity
  8
ASSEMBLY_OUTLINES_TOP
100
AcDbPolyline
 90
        3
 70
         1
 43
0.0
 10
-3.0
 20
-4.026487
 10
-4.14
 20
-4.596487
 10
-4.14
 20
-3.456487
  0
HATCH
  5
BB
100
AcDbEntity
  8
ASSEMBLY_OUTLINES_TOP
100
AcDbHatch
 10
0.0
 20
0.0
 30
0.0
 210
0.0
 220
0.0
 230
1.0
  2
SOLID
 70
         1
 71
        1
 91
        1
  92
     2
 72
     0
 73
     1
  93
     3
 10
-3.0
 20
-4.026487
 10
-4.14
 20
-4.596487
 10
-4.14
 20
-3.456487
  97
     1
  330
    186
 75
     0
 76
     1
  98
     1
 10
0.0
 20
0.0
  0
CIRCLE
  5
BC
100
AcDbEntity
  8
ASSEMBLY_OUTLINES_TOP
100
AcDbCircle
 10
-68.0
 20
3.0
 30
0.0
 40
2.5
  0
CIRCLE
  5
BD
100
AcDbEntity
  8
ASSEMBLY_OUTLINES_TOP
100
AcDbCircle
 10
-3.0
 20
3.0
 30
0.0
 40
2.5
  0
CIRCLE
  5
BE
100
AcDbEntity
  8
ASSEMBLY_OUTLINES_TOP
100
AcDbCircle
 10
-101.2
 20
94.3
 30
0.0
 40
2.5
  0
TEXT
  5
BF
100
AcDbEntity
  8
ASSEMBLY_OUTLINES_TOP
100
AcDbText
 10
-115.311509
 20
113.092041
 30
0.0
 40
1.270000
 41
1.000000
  1
7mm
  7
VERIBEST_GERBER_1
 72
 1
 11
-113.513824
 21
113.727041
 31
0.0
100
AcDbText
 73
 2
  0
TEXT
  5
C0
100
AcDbEntity
  8
ASSEMBLY_OUTLINES_TOP
100
AcDbText
 10
6.96535
 20
62.91799
 30
0.0
 40
1.270000
 41
1.000000
  1
61.5mm
  50
90.0
  7
VERIBEST_GERBER_1
 72
 1
 11
6.33035
 21
66.3
 31
0.0
100
AcDbText
 73
 2
  0
TEXT
  5
C1
100
AcDbEntity
  8
ASSEMBLY_OUTLINES_TOP
100
AcDbText
 10
9.76705
 20
47.267916
 30
0.0
 40
1.270000
 41
1.000000
  1
102.5mm
  50
90.0
  7
VERIBEST_GERBER_1
 72
 1
 11
9.13205
 21
51.250001
 31
0.0
100
AcDbText
 73
 2
  0
TEXT
  5
C2
100
AcDbEntity
  8
ASSEMBLY_OUTLINES_TOP
100
AcDbText
 10
-121.38535
 20
113.623839
 30
0.0
 40
1.270000
 41
1.000000
  1
7.5mm
  50
90.0
  7
VERIBEST_GERBER_1
 72
 1
 11
-122.02035
 21
116.475624
 31
0.0
100
AcDbText
 73
 2
  0
TEXT
  5
C3
100
AcDbEntity
  8
ASSEMBLY_OUTLINES_TOP
100
AcDbText
 10
-111.43357
 20
85.348141
 30
0.0
 40
1.270000
 41
1.000000
  1
28.4mm
  50
90.0
  7
VERIBEST_GERBER_1
 72
 1
 11
-112.06857
 21
88.800001
 31
0.0
100
AcDbText
 73
 2
  0
TEXT
  5
C4
100
AcDbEntity
  8
ASSEMBLY_OUTLINES_TOP
100
AcDbText
 10
-113.081938
 20
4.01799
 30
0.0
 40
1.270000
 41
1.000000
  1
31.8mm
  50
90.0
  7
VERIBEST_GERBER_1
 72
 1
 11
-113.716938
 21
7.4
 31
0.0
100
AcDbText
 73
 2
  0
TEXT
  5
C5
100
AcDbEntity
  8
ASSEMBLY_OUTLINES_TOP
100
AcDbText
 10
-50.20186
 20
-7.48143
 30
0.0
 40
1.270000
 41
1.000000
  1
93.5mm
  7
VERIBEST_GERBER_1
 72
 1
 11
-46.75
 21
-6.84643
 31
0.0
100
AcDbText
 73
 2
  0
TEXT
  5
C6
100
AcDbEntity
  8
ASSEMBLY_OUTLINES_TOP
100
AcDbText
 10
-97.161556
 20
47.267916
 30
0.0
 40
1.270000
 41
1.000000
  1
102.5mm
  50
90.0
  7
VERIBEST_GERBER_1
 72
 1
 11
-97.796556
 21
51.250001
 31
0.0
100
AcDbText
 73
 2
  0
TEXT
  5
C7
100
AcDbEntity
  8
ASSEMBLY_OUTLINES_TOP
100
AcDbText
 10
-9.666504
 20
-2.860679
 30
0.0
 40
1.270000
 41
1.000000
  1
3mm
  7
VERIBEST_GERBER_1
 72
 1
 11
-7.868819
 21
-2.225679
 31
0.0
100
AcDbText
 73
 2
  0
TEXT
  5
C8
100
AcDbEntity
  8
ASSEMBLY_OUTLINES_TOP
100
AcDbText
 10
6.135
 20
6.071134
 30
0.0
 40
1.270000
 41
1.000000
  1
3mm
  50
90.0
  7
VERIBEST_GERBER_1
 72
 1
 11
5.5
 21
7.868819
 31
0.0
100
AcDbText
 73
 2
  0
TEXT
  5
C9
100
AcDbEntity
  8
ASSEMBLY_OUTLINES_TOP
100
AcDbText
 10
4.194928
 20
19.798141
 30
0.0
 40
1.270000
 41
1.000000
  1
40.5mm
  50
90.0
  7
VERIBEST_GERBER_1
 72
 1
 11
3.559928
 21
23.250001
 31
0.0
100
AcDbText
 73
 2
  0
TEXT
  5
CA
100
AcDbEntity
  8
ASSEMBLY_OUTLINES_TOP
100
AcDbText
 10
4.44062
 20
64.102241
 30
0.0
 40
1.270000
 41
1.000000
  1
46mm
  50
90.0
  7
VERIBEST_GERBER_1
 72
 1
 11
3.80562
 21
66.500001
 31
0.0
100
AcDbText
 73
 2
  0
TEXT
  5
CB
100
AcDbEntity
  8
ASSEMBLY_OUTLINES_TOP
100
AcDbText
 10
-22.89776
 20
46.470742
 30
0.0
 40
1.270000
 41
1.000000
  1
35mm
  7
VERIBEST_GERBER_1
 72
 1
 11
-20.5
 21
47.105742
 31
0.0
100
AcDbText
 73
 2
  0
TEXT
  5
CC
100
AcDbEntity
  8
ASSEMBLY_OUTLINES_TOP
100
AcDbText
 10
-37.89776
 20
-4.661486
 30
0.0
 40
1.270000
 41
1.000000
  1
65mm
  7
VERIBEST_GERBER_1
 72
 1
 11
-35.5
 21
-4.026486
 31
0.0
100
AcDbText
 73
 2
  0
LWPOLYLINE
  5
CD
100
AcDbEntity
  8
ASSEMBLY_OUTLINES_TOP
100
AcDbPolyline
 90
        4
 70
         1
 43
0.1
 10
-73.6
 20
39.15
 10
-73.6
 20
45.15
 10
-69.9
 20
45.15
 10
-69.9
 20
39.15
  0
LWPOLYLINE
  5
CE
100
AcDbEntity
  8
ASSEMBLY_OUTLINES_TOP
100
AcDbPolyline
 90
        4
 70
         1
 43
0.1
 10
-89.15
 20
51.5
 10
-89.15
 20
54.5
 10
-87.45
 20
54.5
 10
-87.45
 20
51.5
  0
LWPOLYLINE
  5
CF
100
AcDbEntity
  8
ASSEMBLY_OUTLINES_TOP
100
AcDbPolyline
 90
        2
 70
         0
 43
0.1
 10
-89.15
 20
54.4
 10
-89.05
 20
54.5
  0
LWPOLYLINE
  5
D0
100
AcDbEntity
  8
ASSEMBLY_OUTLINES_TOP
100
AcDbPolyline
 90
        2
 70
         0
 43
0.1
 10
-89.15
 20
54.3
 10
-88.95
 20
54.5
  0
LWPOLYLINE
  5
D1
100
AcDbEntity
  8
ASSEMBLY_OUTLINES_TOP
100
AcDbPolyline
 90
        2
 70
         0
 43
0.1
 10
-89.15
 20
54.2
 10
-88.85
 20
54.5
  0
LWPOLYLINE
  5
D2
100
AcDbEntity
  8
ASSEMBLY_OUTLINES_TOP
100
AcDbPolyline
 90
        2
 70
         0
 43
0.1
 10
-89.15
 20
54.1
 10
-88.75
 20
54.5
  0
LWPOLYLINE
  5
D3
100
AcDbEntity
  8
ASSEMBLY_OUTLINES_TOP
100
AcDbPolyline
 90
        2
 70
         0
 43
0.1
 10
-89.15
 20
54.0
 10
-88.65
 20
54.5
  0
LWPOLYLINE
  5
D4
100
AcDbEntity
  8
ASSEMBLY_OUTLINES_TOP
100
AcDbPolyline
 90
        2
 70
         0
 43
0.1
 10
-89.15
 20
53.9
 10
-88.55
 20
54.5
  0
LWPOLYLINE
  5
D5
100
AcDbEntity
  8
ASSEMBLY_OUTLINES_TOP
100
AcDbPolyline
 90
        4
 70
         1
 43
0.1
 10
-66.45
 20
96.55
 10
-66.45
 20
99.55
 10
-64.75
 20
99.55
 10
-64.75
 20
96.55
  0
LWPOLYLINE
  5
D6
100
AcDbEntity
  8
ASSEMBLY_OUTLINES_TOP
100
AcDbPolyline
 90
        2
 70
         0
 43
0.1
 10
-64.75
 20
96.65
 10
-64.85
 20
96.55
  0
LWPOLYLINE
  5
D7
100
AcDbEntity
  8
ASSEMBLY_OUTLINES_TOP
100
AcDbPolyline
 90
        2
 70
         0
 43
0.1
 10
-64.75
 20
96.75
 10
-64.95
 20
96.55
  0
LWPOLYLINE
  5
D8
100
AcDbEntity
  8
ASSEMBLY_OUTLINES_TOP
100
AcDbPolyline
 90
        2
 70
         0
 43
0.1
 10
-64.75
 20
96.85
 10
-65.05
 20
96.55
  0
LWPOLYLINE
  5
D9
100
AcDbEntity
  8
ASSEMBLY_OUTLINES_TOP
100
AcDbPolyline
 90
        2
 70
         0
 43
0.1
 10
-64.75
 20
96.95
 10
-65.15
 20
96.55
  0
LWPOLYLINE
  5
DA
100
AcDbEntity
  8
ASSEMBLY_OUTLINES_TOP
100
AcDbPolyline
 90
        2
 70
         0
 43
0.1
 10
-64.75
 20
97.05
 10
-65.25
 20
96.55
  0
LWPOLYLINE
  5
DB
100
AcDbEntity
  8
ASSEMBLY_OUTLINES_TOP
100
AcDbPolyline
 90
        2
 70
         0
 43
0.1
 10
-64.75
 20
97.15
 10
-65.35
 20
96.55
  0
LWPOLYLINE
  5
DC
100
AcDbEntity
  8
ASSEMBLY_OUTLINES_TOP
100
AcDbPolyline
 90
        4
 70
         1
 43
0.1
 10
-48.6
 20
36.1
 10
-48.6
 20
37.8
 10
-45.6
 20
37.8
 10
-45.6
 20
36.1
  0
LWPOLYLINE
  5
DD
100
AcDbEntity
  8
ASSEMBLY_OUTLINES_TOP
100
AcDbPolyline
 90
        2
 70
         0
 43
0.1
 10
-48.5
 20
36.1
 10
-48.6
 20
36.2
  0
LWPOLYLINE
  5
DE
100
AcDbEntity
  8
ASSEMBLY_OUTLINES_TOP
100
AcDbPolyline
 90
        2
 70
         0
 43
0.1
 10
-48.4
 20
36.1
 10
-48.6
 20
36.3
  0
LWPOLYLINE
  5
DF
100
AcDbEntity
  8
ASSEMBLY_OUTLINES_TOP
100
AcDbPolyline
 90
        2
 70
         0
 43
0.1
 10
-48.3
 20
36.1
 10
-48.6
 20
36.4
  0
LWPOLYLINE
  5
E0
100
AcDbEntity
  8
ASSEMBLY_OUTLINES_TOP
100
AcDbPolyline
 90
        2
 70
         0
 43
0.1
 10
-48.2
 20
36.1
 10
-48.6
 20
36.5
  0
LWPOLYLINE
  5
E1
100
AcDbEntity
  8
ASSEMBLY_OUTLINES_TOP
100
AcDbPolyline
 90
        2
 70
         0
 43
0.1
 10
-48.1
 20
36.1
 10
-48.6
 20
36.6
  0
LWPOLYLINE
  5
E2
100
AcDbEntity
  8
ASSEMBLY_OUTLINES_TOP
100
AcDbPolyline
 90
        2
 70
         0
 43
0.1
 10
-48.0
 20
36.1
 10
-48.6
 20
36.7
  0
LWPOLYLINE
  5
E3
100
AcDbEntity
  8
ASSEMBLY_OUTLINES_TOP
100
AcDbPolyline
 90
        4
 70
         1
 43
0.1
 10
-25.65
 20
64.9
 10
-25.65
 20
70.9
 10
-19.65
 20
70.9
 10
-19.65
 20
64.9
  0
LWPOLYLINE
  5
E4
100
AcDbEntity
  8
ASSEMBLY_OUTLINES_TOP
100
AcDbPolyline
 90
        2
 70
         1
 43
0.1
 10
-21.15
 20
65.9
 42
-1.000000
 10
-20.15
 20
65.9
 42
-1.000000
  0
LWPOLYLINE
  5
E5
100
AcDbEntity
  8
ASSEMBLY_OUTLINES_TOP
100
AcDbPolyline
 90
        4
 70
         1
 43
0.1
 10
-90.8
 20
57.05
 10
-90.8
 20
60.85
 10
-85.2
 20
60.85
 10
-85.2
 20
57.05
  0
LWPOLYLINE
  5
E6
100
AcDbEntity
  8
ASSEMBLY_OUTLINES_TOP
100
AcDbPolyline
 90
        2
 70
         0
 43
0.1
 10
-85.3
 20
60.85
 10
-85.3
 20
57.05
  0
LWPOLYLINE
  5
E7
100
AcDbEntity
  8
ASSEMBLY_OUTLINES_TOP
100
AcDbPolyline
 90
        2
 70
         0
 43
0.1
 10
-85.4
 20
60.85
 10
-85.4
 20
57.05
  0
LWPOLYLINE
  5
E8
100
AcDbEntity
  8
ASSEMBLY_OUTLINES_TOP
100
AcDbPolyline
 90
        2
 70
         0
 43
0.1
 10
-85.5
 20
60.85
 10
-85.5
 20
57.05
  0
LWPOLYLINE
  5
E9
100
AcDbEntity
  8
ASSEMBLY_OUTLINES_TOP
100
AcDbPolyline
 90
        2
 70
         0
 43
0.1
 10
-85.6
 20
60.85
 10
-85.6
 20
57.05
  0
LWPOLYLINE
  5
EA
100
AcDbEntity
  8
ASSEMBLY_OUTLINES_TOP
100
AcDbPolyline
 90
        2
 70
         0
 43
0.1
 10
-85.7
 20
60.85
 10
-85.7
 20
57.05
  0
LWPOLYLINE
  5
EB
100
AcDbEntity
  8
ASSEMBLY_OUTLINES_TOP
100
AcDbPolyline
 90
        2
 70
         0
 43
0.1
 10
-85.8
 20
60.85
 10
-85.8
 20
57.05
  0
LWPOLYLINE
  5
EC
100
AcDbEntity
  8
ASSEMBLY_OUTLINES_TOP
100
AcDbPolyline
 90
        2
 70
         0
 43
0.1
 10
-85.9
 20
60.85
 10
-85.9
 20
57.05
  0
LWPOLYLINE
  5
ED
100
AcDbEntity
  8
ASSEMBLY_OUTLINES_TOP
100
AcDbPolyline
 90
        2
 70
         0
 43
0.1
 10
-86.0
 20
60.85
 10
-86.0
 20
57.05
  0
LWPOLYLINE
  5
EE
100
AcDbEntity
  8
ASSEMBLY_OUTLINES_TOP
100
AcDbPolyline
 90
        4
 70
         1
 43
0.1
 10
-39.3
 20
56.75
 10
-39.3
 20
57.95
 10
-38.5
 20
57.95
 10
-38.5
 20
56.75
  0
LWPOLYLINE
  5
EF
100
AcDbEntity
  8
ASSEMBLY_OUTLINES_TOP
100
AcDbPolyline
 90
        2
 70
         0
 43
0.1
 10
-39.3
 20
57.95
 10
-38.5
 20
57.95
  0
LWPOLYLINE
  5
F0
100
AcDbEntity
  8
ASSEMBLY_OUTLINES_TOP
100
AcDbPolyline
 90
        2
 70
         0
 43
0.1
 10
-39.3
 20
57.85
 10
-38.5
 20
57.85
  0
LWPOLYLINE
  5
F1
100
AcDbEntity
  8
ASSEMBLY_OUTLINES_TOP
100
AcDbPolyline
 90
        2
 70
         0
 43
0.1
 10
-39.3
 20
57.75
 10
-38.5
 20
57.75
  0
LWPOLYLINE
  5
F2
100
AcDbEntity
  8
ASSEMBLY_OUTLINES_TOP
100
AcDbPolyline
 90
        2
 70
         0
 43
0.1
 10
-39.3
 20
57.65
 10
-38.5
 20
57.65
  0
LWPOLYLINE
  5
F3
100
AcDbEntity
  8
ASSEMBLY_OUTLINES_TOP
100
AcDbPolyline
 90
        2
 70
         0
 43
0.1
 10
-39.3
 20
57.55
 10
-38.5
 20
57.55
  0
LWPOLYLINE
  5
F4
100
AcDbEntity
  8
ASSEMBLY_OUTLINES_TOP
100
AcDbPolyline
 90
        2
 70
         0
 43
0.1
 10
-39.3
 20
57.45
 10
-38.5
 20
57.45
  0
LWPOLYLINE
  5
F5
100
AcDbEntity
  8
ASSEMBLY_OUTLINES_TOP
100
AcDbPolyline
 90
        4
 70
         1
 43
0.1
 10
-90.6
 20
49.7
 10
-90.6
 20
51.0
 10
-87.8
 20
51.0
 10
-87.8
 20
49.7
  0
LWPOLYLINE
  5
F6
100
AcDbEntity
  8
ASSEMBLY_OUTLINES_TOP
100
AcDbPolyline
 90
        4
 70
         1
 43
0.1
 10
-90.65
 20
54.95
 10
-90.65
 20
56.55
 10
-88.65
 20
56.55
 10
-88.65
 20
54.95
  0
LWPOLYLINE
  5
F7
100
AcDbEntity
  8
ASSEMBLY_OUTLINES_TOP
100
AcDbPolyline
 90
        4
 70
         1
 43
0.1
 10
-92.6
 20
48.95
 10
-92.6
 20
51.85
 10
-91.3
 20
51.85
 10
-91.3
 20
48.95
  0
LWPOLYLINE
  5
F8
100
AcDbEntity
  8
ASSEMBLY_OUTLINES_TOP
100
AcDbPolyline
 90
        4
 70
         1
 43
0.1
 10
-93.5
 20
0.83
 10
-93.5
 20
17.09
 10
-72.5
 20
17.09
 10
-72.5
 20
0.83
  0
CIRCLE
  5
F9
100
AcDbEntity
  8
ASSEMBLY_OUTLINES_TOP
100
AcDbCircle
 10
-90.5
 20
97.4
 30
0.0
 40
0.25
  0
HATCH
  5
FA
100
AcDbEntity
  8
ASSEMBLY_OUTLINES_TOP
100
AcDbHatch
 10
0.0
 20
0.0
 30
0.0
 210
0.0
 220
0.0
 230
1.0
  2
SOLID
 70
         1
 71
        1
 91
        1
  92
     1
  93
     1
 72
     2
 10
-90.5
 20
97.4
  40
0.25
  50
     0.0
  51
     360.0
 73
     0
  97
     1
  330
    249
 75
     0
 76
     1
  98
     1
 10
0.0
 20
0.0
  0
LWPOLYLINE
  5
FB
100
AcDbEntity
  8
ASSEMBLY_OUTLINES_TOP
100
AcDbPolyline
 90
        4
 70
         1
 43
0.1
 10
-93.5
 20
93.7
 10
-93.5
 20
101.1
 10
-88.0
 20
101.1
 10
-88.0
 20
93.7
  0
LWPOLYLINE
  5
FC
100
AcDbEntity
  8
ASSEMBLY_OUTLINES_TOP
100
AcDbPolyline
 90
        2
 70
         0
 43
0.1
 10
-88.0
 20
98.7
 10
-87.7
 20
98.7
  0
LWPOLYLINE
  5
FD
100
AcDbEntity
  8
ASSEMBLY_OUTLINES_TOP
100
AcDbPolyline
 90
        2
 70
         0
 43
0.1
 10
-88.0
 20
97.4
 10
-87.7
 20
97.4
  0
LWPOLYLINE
  5
FE
100
AcDbEntity
  8
ASSEMBLY_OUTLINES_TOP
100
AcDbPolyline
 90
        2
 70
         0
 43
0.1
 10
-88.0
 20
96.1
 10
-87.7
 20
96.1
  0
LWPOLYLINE
  5
FF
100
AcDbEntity
  8
ASSEMBLY_OUTLINES_TOP
100
AcDbPolyline
 90
        2
 70
         0
 43
0.1
 10
-88.0
 20
98.05
 10
-87.7
 20
98.05
  0
LWPOLYLINE
  5
100
100
AcDbEntity
  8
ASSEMBLY_OUTLINES_TOP
100
AcDbPolyline
 90
        2
 70
         0
 43
0.1
 10
-88.0
 20
96.75
 10
-87.7
 20
96.75
  0
LWPOLYLINE
  5
101
100
AcDbEntity
  8
ASSEMBLY_OUTLINES_TOP
100
AcDbPolyline
 90
        2
 70
         0
 43
0.02
 10
-93.0
 20
101.1
 10
-93.0
 20
93.7
  0
LWPOLYLINE
  5
102
100
AcDbEntity
  8
ASSEMBLY_OUTLINES_TOP
100
AcDbPolyline
 90
        4
 70
         1
 43
0.1
 10
-85.55
 20
51.75
 10
-85.55
 20
54.55
 10
-84.25
 20
54.55
 10
-84.25
 20
51.75
  0
LWPOLYLINE
  5
103
100
AcDbEntity
  8
ASSEMBLY_OUTLINES_TOP
100
AcDbPolyline
 90
        4
 70
         1
 43
0.1
 10
-87.5
 20
54.95
 10
-87.5
 20
56.55
 10
-85.5
 20
56.55
 10
-85.5
 20
54.95
  0
LWPOLYLINE
  5
104
100
AcDbEntity
  8
ASSEMBLY_OUTLINES_TOP
100
AcDbPolyline
 90
        4
 70
         1
 43
0.1
 10
-92.6
 20
52.05
 10
-92.6
 20
54.95
 10
-91.3
 20
54.95
 10
-91.3
 20
52.05
  0
LWPOLYLINE
  5
105
100
AcDbEntity
  8
ASSEMBLY_OUTLINES_TOP
100
AcDbPolyline
 90
        4
 70
         1
 43
0.1
 10
-90.8
 20
20.15
 10
-90.8
 20
27.25
 10
-87.4
 20
27.25
 10
-87.4
 20
20.15
  0
LWPOLYLINE
  5
106
100
AcDbEntity
  8
ASSEMBLY_OUTLINES_TOP
100
AcDbPolyline
 90
        4
 70
         1
 43
0.1
 10
-91.9
 20
88.5
 10
-91.9
 20
90.2
 10
-88.8
 20
90.2
 10
-88.8
 20
88.5
  0
LWPOLYLINE
  5
107
100
AcDbEntity
  8
ASSEMBLY_OUTLINES_TOP
100
AcDbPolyline
 90
        2
 70
         0
 43
0.1
 10
-91.8
 20
88.5
 10
-91.8
 20
90.2
  0
LWPOLYLINE
  5
108
100
AcDbEntity
  8
ASSEMBLY_OUTLINES_TOP
100
AcDbPolyline
 90
        2
 70
         0
 43
0.1
 10
-91.7
 20
88.5
 10
-91.7
 20
90.2
  0
LWPOLYLINE
  5
109
100
AcDbEntity
  8
ASSEMBLY_OUTLINES_TOP
100
AcDbPolyline
 90
        2
 70
         0
 43
0.1
 10
-91.6
 20
88.5
 10
-91.6
 20
90.2
  0
LWPOLYLINE
  5
10A
100
AcDbEntity
  8
ASSEMBLY_OUTLINES_TOP
100
AcDbPolyline
 90
        2
 70
         0
 43
0.1
 10
-91.5
 20
88.5
 10
-91.5
 20
90.2
  0
LWPOLYLINE
  5
10B
100
AcDbEntity
  8
ASSEMBLY_OUTLINES_TOP
100
AcDbPolyline
 90
        2
 70
         0
 43
0.1
 10
-91.4
 20
88.5
 10
-91.4
 20
90.2
  0
LWPOLYLINE
  5
10C
100
AcDbEntity
  8
ASSEMBLY_OUTLINES_TOP
100
AcDbPolyline
 90
        2
 70
         0
 43
0.1
 10
-91.3
 20
88.5
 10
-91.3
 20
90.2
  0
LWPOLYLINE
  5
10D
100
AcDbEntity
  8
ASSEMBLY_OUTLINES_TOP
100
AcDbPolyline
 90
        4
 70
         1
 43
0.1
 10
-84.0
 20
51.3
 10
-84.0
 20
52.6
 10
-81.2
 20
52.6
 10
-81.2
 20
51.3
  0
LWPOLYLINE
  5
10E
100
AcDbEntity
  8
ASSEMBLY_OUTLINES_TOP
100
AcDbPolyline
 90
        4
 70
         1
 43
0.1
 10
-63.5
 20
99.8
 10
-63.5
 20
101.4
 10
-61.5
 20
101.4
 10
-61.5
 20
99.8
  0
LWPOLYLINE
  5
10F
100
AcDbEntity
  8
ASSEMBLY_OUTLINES_TOP
100
AcDbPolyline
 90
        4
 70
         1
 43
0.1
 10
-90.45
 20
28.6
 10
-90.45
 20
29.9
 10
-87.55
 20
29.9
 10
-87.55
 20
28.6
  0
LWPOLYLINE
  5
110
100
AcDbEntity
  8
ASSEMBLY_OUTLINES_TOP
100
AcDbPolyline
 90
        4
 70
         1
 43
0.0
 10
-90.9
 20
62.35
 10
-90.9
 20
86.65
 10
-85.9
 20
86.65
 10
-85.9
 20
62.35
  0
LWPOLYLINE
  5
111
100
AcDbEntity
  8
ASSEMBLY_OUTLINES_TOP
100
AcDbPolyline
 90
        4
 70
         1
 43
0.1
 10
-84.0
 20
52.75
 10
-84.0
 20
54.05
 10
-81.2
 20
54.05
 10
-81.2
 20
52.75
  0
LWPOLYLINE
  5
112
100
AcDbEntity
  8
ASSEMBLY_OUTLINES_TOP
100
AcDbPolyline
 90
        4
 70
         1
 43
0.1
 10
-48.35
 20
32.9
 10
-48.35
 20
34.5
 10
-46.35
 20
34.5
 10
-46.35
 20
32.9
  0
LWPOLYLINE
  5
113
100
AcDbEntity
  8
ASSEMBLY_OUTLINES_TOP
100
AcDbPolyline
 90
        4
 70
         1
 43
0.1
 10
-90.45
 20
30.1
 10
-90.45
 20
31.4
 10
-87.55
 20
31.4
 10
-87.55
 20
30.1
  0
LWPOLYLINE
  5
114
100
AcDbEntity
  8
ASSEMBLY_OUTLINES_TOP
100
AcDbPolyline
 90
        4
 70
         1
 43
0.1
 10
-93.5
 20
34.7
 10
-93.5
 20
47.2
 10
-79.5
 20
47.2
 10
-79.5
 20
34.7
  0
LWPOLYLINE
  5
115
100
AcDbEntity
  8
ASSEMBLY_OUTLINES_TOP
100
AcDbPolyline
 90
        4
 70
         1
 43
0.1
 10
-84.0
 20
54.25
 10
-84.0
 20
55.55
 10
-81.2
 20
55.55
 10
-81.2
 20
54.25
  0
LWPOLYLINE
  5
116
100
AcDbEntity
  8
ASSEMBLY_OUTLINES_TOP
100
AcDbPolyline
 90
        4
 70
         1
 43
0.1
 10
-90.65
 20
48.25
 10
-90.65
 20
49.55
 10
-87.75
 20
49.55
 10
-87.75
 20
48.25
  0
LWPOLYLINE
  5
117
100
AcDbEntity
  8
ASSEMBLY_OUTLINES_TOP
100
AcDbPolyline
 90
        4
 70
         1
 43
0.0
 10
-78.795906
 20
52.9
 10
-78.795906
 20
82.7
 10
-72.795906
 20
82.7
 10
-72.795906
 20
52.9
  0
LWPOLYLINE
  5
118
100
AcDbEntity
  8
ASSEMBLY_OUTLINES_TOP
100
AcDbPolyline
 90
        4
 70
         1
 43
0.1
 10
-84.0
 20
55.7
 10
-84.0
 20
57.0
 10
-81.2
 20
57.0
 10
-81.2
 20
55.7
  0
LWPOLYLINE
  5
119
100
AcDbEntity
  8
ASSEMBLY_OUTLINES_TOP
100
AcDbPolyline
 90
        4
 70
         1
 43
0.1
 10
-88.45
 20
88.7
 10
-88.45
 20
90.0
 10
-85.55
 20
90.0
 10
-85.55
 20
88.7
  0
LWPOLYLINE
  5
11A
100
AcDbEntity
  8
ASSEMBLY_OUTLINES_TOP
100
AcDbPolyline
 90
        4
 70
         1
 43
0.1
 10
-58.95
 20
0.15
 10
-58.95
 20
30.15
 10
-7.95
 20
30.15
 10
-7.95
 20
0.15
  0
CIRCLE
  5
11B
100
AcDbEntity
  8
ASSEMBLY_OUTLINES_TOP
100
AcDbCircle
 10
-10.9
 20
27.25
 30
0.0
 40
1.5
  0
HATCH
  5
11C
100
AcDbEntity
  8
ASSEMBLY_OUTLINES_TOP
100
AcDbHatch
 10
0.0
 20
0.0
 30
0.0
 210
0.0
 220
0.0
 230
1.0
  2
SOLID
 70
         1
 71
        1
 91
        1
  92
     1
  93
     1
 72
     2
 10
-10.9
 20
27.25
  40
1.5
  50
     0.0
  51
     360.0
 73
     0
  97
     1
  330
    283
 75
     0
 76
     1
  98
     1
 10
0.0
 20
0.0
  0
CIRCLE
  5
11D
100
AcDbEntity
  8
ASSEMBLY_OUTLINES_TOP
100
AcDbCircle
 10
-10.9
 20
3.05
 30
0.0
 40
1.5
  0
HATCH
  5
11E
100
AcDbEntity
  8
ASSEMBLY_OUTLINES_TOP
100
AcDbHatch
 10
0.0
 20
0.0
 30
0.0
 210
0.0
 220
0.0
 230
1.0
  2
SOLID
 70
         1
 71
        1
 91
        1
  92
     1
  93
     1
 72
     2
 10
-10.9
 20
3.05
  40
1.5
  50
     0.0
  51
     360.0
 73
     0
  97
     1
  330
    285
 75
     0
 76
     1
  98
     1
 10
0.0
 20
0.0
  0
CIRCLE
  5
11F
100
AcDbEntity
  8
ASSEMBLY_OUTLINES_TOP
100
AcDbCircle
 10
-35.05
 20
27.25
 30
0.0
 40
1.5
  0
HATCH
  5
120
100
AcDbEntity
  8
ASSEMBLY_OUTLINES_TOP
100
AcDbHatch
 10
0.0
 20
0.0
 30
0.0
 210
0.0
 220
0.0
 230
1.0
  2
SOLID
 70
         1
 71
        1
 91
        1
  92
     1
  93
     1
 72
     2
 10
-35.05
 20
27.25
  40
1.5
  50
     0.0
  51
     360.0
 73
     0
  97
     1
  330
    287
 75
     0
 76
     1
  98
     1
 10
0.0
 20
0.0
  0
CIRCLE
  5
121
100
AcDbEntity
  8
ASSEMBLY_OUTLINES_TOP
100
AcDbCircle
 10
-35.05
 20
3.05
 30
0.0
 40
1.5
  0
HATCH
  5
122
100
AcDbEntity
  8
ASSEMBLY_OUTLINES_TOP
100
AcDbHatch
 10
0.0
 20
0.0
 30
0.0
 210
0.0
 220
0.0
 230
1.0
  2
SOLID
 70
         1
 71
        1
 91
        1
  92
     1
  93
     1
 72
     2
 10
-35.05
 20
3.05
  40
1.5
  50
     0.0
  51
     360.0
 73
     0
  97
     1
  330
    289
 75
     0
 76
     1
  98
     1
 10
0.0
 20
0.0
  0
LWPOLYLINE
  5
123
100
AcDbEntity
  8
ASSEMBLY_OUTLINES_TOP
100
AcDbPolyline
 90
        4
 70
         1
 43
0.1
 10
-64.0
 20
0.1
 10
-64.0
 20
30.1
 10
-54.5
 20
30.1
 10
-54.5
 20
0.1
  0
LWPOLYLINE
  5
124
100
AcDbEntity
  8
ASSEMBLY_OUTLINES_TOP
100
AcDbPolyline
 90
        4
 70
         1
 43
0.1
 10
-84.55
 20
57.35
 10
-84.55
 20
58.65
 10
-81.75
 20
58.65
 10
-81.75
 20
57.35
  0
LWPOLYLINE
  5
125
100
AcDbEntity
  8
ASSEMBLY_OUTLINES_TOP
100
AcDbPolyline
 90
        4
 70
         1
 43
0.1
 10
-66.2
 20
38.35
 10
-66.2
 20
41.15
 10
-64.9
 20
41.15
 10
-64.9
 20
38.35
  0
LWPOLYLINE
  5
126
100
AcDbEntity
  8
ASSEMBLY_OUTLINES_TOP
100
AcDbPolyline
 90
        4
 70
         1
 43
0.1
 10
-67.6
 20
99.85
 10
-67.6
 20
101.15
 10
-64.8
 20
101.15
 10
-64.8
 20
99.85
  0
LWPOLYLINE
  5
127
100
AcDbEntity
  8
ASSEMBLY_OUTLINES_TOP
100
AcDbPolyline
 90
        4
 70
         1
 43
0.1
 10
-63.05
 20
31.95
 10
-63.05
 20
34.75
 10
-61.75
 20
34.75
 10
-61.75
 20
31.95
  0
LWPOLYLINE
  5
128
100
AcDbEntity
  8
ASSEMBLY_OUTLINES_TOP
100
AcDbPolyline
 90
        4
 70
         1
 43
0.1
 10
-63.05
 20
96.7
 10
-63.05
 20
99.5
 10
-61.75
 20
99.5
 10
-61.75
 20
96.7
  0
LWPOLYLINE
  5
129
100
AcDbEntity
  8
ASSEMBLY_OUTLINES_TOP
100
AcDbPolyline
 90
        4
 70
         1
 43
0.1
 10
-67.05
 20
95.0
 10
-67.05
 20
96.3
 10
-64.15
 20
96.3
 10
-64.15
 20
95.0
  0
LWPOLYLINE
  5
12A
100
AcDbEntity
  8
ASSEMBLY_OUTLINES_TOP
100
AcDbPolyline
 90
        4
 70
         1
 43
0.1
 10
-84.55
 20
27.6
 10
-84.55
 20
28.9
 10
-81.65
 20
28.9
 10
-81.65
 20
27.6
  0
LWPOLYLINE
  5
12B
100
AcDbEntity
  8
ASSEMBLY_OUTLINES_TOP
100
AcDbPolyline
 90
        4
 70
         1
 43
0.1
 10
-61.65
 20
31.95
 10
-61.65
 20
34.75
 10
-60.35
 20
34.75
 10
-60.35
 20
31.95
  0
LWPOLYLINE
  5
12C
100
AcDbEntity
  8
ASSEMBLY_OUTLINES_TOP
100
AcDbPolyline
 90
        4
 70
         1
 43
0.1
 10
-64.45
 20
31.9
 10
-64.45
 20
34.8
 10
-63.15
 20
34.8
 10
-63.15
 20
31.9
  0
LWPOLYLINE
  5
12D
100
AcDbEntity
  8
ASSEMBLY_OUTLINES_TOP
100
AcDbPolyline
 90
        4
 70
         1
 43
0.1
 10
-61.65
 20
96.7
 10
-61.65
 20
99.5
 10
-60.35
 20
99.5
 10
-60.35
 20
96.7
  0
LWPOLYLINE
  5
12E
100
AcDbEntity
  8
ASSEMBLY_OUTLINES_TOP
100
AcDbPolyline
 90
        4
 70
         1
 43
0.1
 10
-4.95
 20
9.25
 10
-4.95
 20
15.25
 10
-0.7
 20
15.25
 10
-0.7
 20
9.25
  0
LWPOLYLINE
  5
12F
100
AcDbEntity
  8
ASSEMBLY_OUTLINES_TOP
100
AcDbPolyline
 90
        4
 70
         1
 43
0.0
 10
-47.795906
 20
52.9
 10
-47.795906
 20
82.7
 10
-41.795906
 20
82.7
 10
-41.795906
 20
52.9
  0
LWPOLYLINE
  5
130
100
AcDbEntity
  8
ASSEMBLY_OUTLINES_TOP
100
AcDbPolyline
 90
        4
 70
         1
 43
0.1
 10
-64.75
 20
38.3
 10
-64.75
 20
41.2
 10
-63.45
 20
41.2
 10
-63.45
 20
38.3
  0
LWPOLYLINE
  5
131
100
AcDbEntity
  8
ASSEMBLY_OUTLINES_TOP
100
AcDbPolyline
 90
        4
 70
         1
 43
0.1
 10
-48.75
 20
30.9
 10
-48.75
 20
32.2
 10
-45.95
 20
32.2
 10
-45.95
 20
30.9
  0
LWPOLYLINE
  5
132
100
AcDbEntity
  8
ASSEMBLY_OUTLINES_TOP
100
AcDbPolyline
 90
        4
 70
         1
 43
0.1
 10
-5.05
 20
19.55
 10
-5.05
 20
25.55
 10
-0.8
 20
25.55
 10
-0.8
 20
19.55
  0
LWPOLYLINE
  5
133
100
AcDbEntity
  8
ASSEMBLY_OUTLINES_TOP
100
AcDbPolyline
 90
        4
 70
         1
 43
0.1
 10
-63.35
 20
38.3
 10
-63.35
 20
41.2
 10
-62.05
 20
41.2
 10
-62.05
 20
38.3
  0
LWPOLYLINE
  5
134
100
AcDbEntity
  8
ASSEMBLY_OUTLINES_TOP
100
AcDbPolyline
 90
        4
 70
         1
 43
0.1
 10
-45.35
 20
32.65
 10
-45.35
 20
35.45
 10
-44.05
 20
35.45
 10
-44.05
 20
32.65
  0
LWPOLYLINE
  5
135
100
AcDbEntity
  8
ASSEMBLY_OUTLINES_TOP
100
AcDbPolyline
 90
        4
 70
         1
 43
0.1
 10
-63.6
 20
95.0
 10
-63.6
 20
96.3
 10
-60.7
 20
96.3
 10
-60.7
 20
95.0
  0
LWPOLYLINE
  5
136
100
AcDbEntity
  8
ASSEMBLY_OUTLINES_TOP
100
AcDbPolyline
 90
        4
 70
         1
 43
0.1
 10
-45.35
 20
35.9
 10
-45.35
 20
38.7
 10
-44.05
 20
38.7
 10
-44.05
 20
35.9
  0
LWPOLYLINE
  5
137
100
AcDbEntity
  8
ASSEMBLY_OUTLINES_TOP
100
AcDbPolyline
 90
        4
 70
         1
 43
0.1
 10
-69.8
 20
6.4
 10
-69.8
 20
9.2
 10
-68.5
 20
9.2
 10
-68.5
 20
6.4
  0
LWPOLYLINE
  5
138
100
AcDbEntity
  8
ASSEMBLY_OUTLINES_TOP
100
AcDbPolyline
 90
        4
 70
         1
 43
0.1
 10
-28.65
 20
63.45
 10
-28.65
 20
64.75
 10
-25.85
 20
64.75
 10
-25.85
 20
63.45
  0
LWPOLYLINE
  5
139
100
AcDbEntity
  8
ASSEMBLY_OUTLINES_TOP
100
AcDbPolyline
 90
        4
 70
         1
 43
0.1
 10
-60.25
 20
31.9
 10
-60.25
 20
34.8
 10
-58.95
 20
34.8
 10
-58.95
 20
31.9
  0
LWPOLYLINE
  5
13A
100
AcDbEntity
  8
ASSEMBLY_OUTLINES_TOP
100
AcDbPolyline
 90
        4
 70
         1
 43
0.1
 10
-25.05
 20
56.1
 10
-25.05
 20
57.4
 10
-22.25
 20
57.4
 10
-22.25
 20
56.1
  0
LWPOLYLINE
  5
13B
100
AcDbEntity
  8
ASSEMBLY_OUTLINES_TOP
100
AcDbPolyline
 90
        4
 70
         1
 43
0.1
 10
-26.6
 20
58.0
 10
-26.6
 20
60.8
 10
-25.3
 20
60.8
 10
-25.3
 20
58.0
  0
LWPOLYLINE
  5
13C
100
AcDbEntity
  8
ASSEMBLY_OUTLINES_TOP
100
AcDbPolyline
 90
        4
 70
         1
 43
0.1
 10
-60.0
 20
96.7
 10
-60.0
 20
99.6
 10
-58.7
 20
99.6
 10
-58.7
 20
96.7
  0
LWPOLYLINE
  5
13D
100
AcDbEntity
  8
ASSEMBLY_OUTLINES_TOP
100
AcDbPolyline
 90
        4
 70
         1
 43
0.1
 10
-24.2
 20
72.15
 10
-24.2
 20
74.95
 10
-22.9
 20
74.95
 10
-22.9
 20
72.15
  0
LWPOLYLINE
  5
13E
100
AcDbEntity
  8
ASSEMBLY_OUTLINES_TOP
100
AcDbPolyline
 90
        4
 70
         1
 43
0.1
 10
-54.65
 20
34.75
 10
-54.65
 20
37.65
 10
-53.35
 20
37.65
 10
-53.35
 20
34.75
  0
LWPOLYLINE
  5
13F
100
AcDbEntity
  8
ASSEMBLY_OUTLINES_TOP
100
AcDbPolyline
 90
        4
 70
         1
 43
0.1
 10
-22.85
 20
72.15
 10
-22.85
 20
74.95
 10
-21.55
 20
74.95
 10
-21.55
 20
72.15
  0
LWPOLYLINE
  5
140
100
AcDbEntity
  8
ASSEMBLY_OUTLINES_TOP
100
AcDbPolyline
 90
        4
 70
         1
 43
0.1
 10
-50.55
 20
33.0
 10
-50.55
 20
35.9
 10
-49.25
 20
35.9
 10
-49.25
 20
33.0
  0
LWPOLYLINE
  5
141
100
AcDbEntity
  8
ASSEMBLY_OUTLINES_TOP
100
AcDbPolyline
 90
        4
 70
         1
 43
0.1
 10
-84.55
 20
29.35
 10
-84.55
 20
30.65
 10
-81.65
 20
30.65
 10
-81.65
 20
29.35
  0
LWPOLYLINE
  5
142
100
AcDbEntity
  8
ASSEMBLY_OUTLINES_TOP
100
AcDbPolyline
 90
        4
 70
         1
 43
0.1
 10
-30.75
 20
65.6
 10
-30.75
 20
66.9
 10
-27.85
 20
66.9
 10
-27.85
 20
65.6
  0
LWPOLYLINE
  5
143
100
AcDbEntity
  8
ASSEMBLY_OUTLINES_TOP
100
AcDbPolyline
 90
        4
 70
         1
 43
0.1
 10
-21.8
 20
61.05
 10
-21.8
 20
63.85
 10
-20.5
 20
63.85
 10
-20.5
 20
61.05
  0
LWPOLYLINE
  5
144
100
AcDbEntity
  8
ASSEMBLY_OUTLINES_TOP
100
AcDbPolyline
 90
        4
 70
         1
 43
0.1
 10
-24.85
 20
57.8
 10
-24.85
 20
61.0
 10
-22.35
 20
61.0
 10
-22.35
 20
57.8
  0
LWPOLYLINE
  5
145
100
AcDbEntity
  8
ASSEMBLY_OUTLINES_TOP
100
AcDbPolyline
 90
        2
 70
         0
 43
0.1
 10
-22.45
 20
57.8
 10
-22.35
 20
57.9
  0
LWPOLYLINE
  5
146
100
AcDbEntity
  8
ASSEMBLY_OUTLINES_TOP
100
AcDbPolyline
 90
        2
 70
         0
 43
0.1
 10
-22.55
 20
57.8
 10
-22.35
 20
58.0
  0
LWPOLYLINE
  5
147
100
AcDbEntity
  8
ASSEMBLY_OUTLINES_TOP
100
AcDbPolyline
 90
        2
 70
         0
 43
0.1
 10
-22.65
 20
57.8
 10
-22.35
 20
58.1
  0
LWPOLYLINE
  5
148
100
AcDbEntity
  8
ASSEMBLY_OUTLINES_TOP
100
AcDbPolyline
 90
        2
 70
         0
 43
0.1
 10
-22.75
 20
57.8
 10
-22.35
 20
58.2
  0
LWPOLYLINE
  5
149
100
AcDbEntity
  8
ASSEMBLY_OUTLINES_TOP
100
AcDbPolyline
 90
        2
 70
         0
 43
0.1
 10
-22.85
 20
57.8
 10
-22.35
 20
58.3
  0
LWPOLYLINE
  5
14A
100
AcDbEntity
  8
ASSEMBLY_OUTLINES_TOP
100
AcDbPolyline
 90
        2
 70
         0
 43
0.1
 10
-22.95
 20
57.8
 10
-22.35
 20
58.4
  0
LWPOLYLINE
  5
14B
100
AcDbEntity
  8
ASSEMBLY_OUTLINES_TOP
100
AcDbPolyline
 90
        2
 70
         0
 43
0.1
 10
-23.05
 20
57.8
 10
-22.35
 20
58.5
  0
LWPOLYLINE
  5
14C
100
AcDbEntity
  8
ASSEMBLY_OUTLINES_TOP
100
AcDbPolyline
 90
        2
 70
         0
 43
0.1
 10
-23.15
 20
57.8
 10
-22.35
 20
58.6
  0
LWPOLYLINE
  5
14D
100
AcDbEntity
  8
ASSEMBLY_OUTLINES_TOP
100
AcDbPolyline
 90
        2
 70
         0
 43
0.1
 10
-23.25
 20
57.8
 10
-22.35
 20
58.7
  0
LWPOLYLINE
  5
14E
100
AcDbEntity
  8
ASSEMBLY_OUTLINES_TOP
100
AcDbPolyline
 90
        2
 70
         0
 43
0.1
 10
-23.35
 20
57.8
 10
-22.35
 20
58.8
  0
LWPOLYLINE
  5
14F
100
AcDbEntity
  8
ASSEMBLY_OUTLINES_TOP
100
AcDbPolyline
 90
        4
 70
         1
 43
0.1
 10
-50.6
 20
36.1
 10
-50.6
 20
39.0
 10
-49.3
 20
39.0
 10
-49.3
 20
36.1
  0
LWPOLYLINE
  5
150
100
AcDbEntity
  8
ASSEMBLY_OUTLINES_TOP
100
AcDbPolyline
 90
        4
 70
         1
 43
0.1
 10
-30.75
 20
67.1
 10
-30.75
 20
68.4
 10
-27.85
 20
68.4
 10
-27.85
 20
67.1
  0
LWPOLYLINE
  5
151
100
AcDbEntity
  8
ASSEMBLY_OUTLINES_TOP
100
AcDbPolyline
 90
        4
 70
         1
 43
0.1
 10
-21.25
 20
72.15
 10
-21.25
 20
74.95
 10
-19.95
 20
74.95
 10
-19.95
 20
72.15
  0
LWPOLYLINE
  5
152
100
AcDbEntity
  8
ASSEMBLY_OUTLINES_TOP
100
AcDbPolyline
 90
        4
 70
         1
 43
0.0
 10
-40.3
 20
32.45
 10
-40.3
 20
36.55
 10
-0.3
 20
36.55
 10
-0.3
 20
32.45
  0
CIRCLE
  5
153
100
AcDbEntity
  8
ASSEMBLY_OUTLINES_TOP
100
AcDbCircle
 10
-37.3
 20
35.55
 30
0.0
 40
0.25
  0
HATCH
  5
154
100
AcDbEntity
  8
ASSEMBLY_OUTLINES_TOP
100
AcDbHatch
 10
0.0
 20
0.0
 30
0.0
 210
0.0
 220
0.0
 230
1.0
  2
SOLID
 70
         1
 71
        1
 91
        1
  92
     1
  93
     1
 72
     2
 10
-37.3
 20
35.55
  40
0.25
  50
     0.0
  51
     360.0
 73
     0
  97
     1
  330
    339
 75
     0
 76
     1
  98
     1
 10
0.0
 20
0.0
  0
CIRCLE
  5
155
100
AcDbEntity
  8
ASSEMBLY_OUTLINES_TOP
100
AcDbCircle
 10
-37.3
 20
33.55
 30
0.0
 40
0.25
  0
HATCH
  5
156
100
AcDbEntity
  8
ASSEMBLY_OUTLINES_TOP
100
AcDbHatch
 10
0.0
 20
0.0
 30
0.0
 210
0.0
 220
0.0
 230
1.0
  2
SOLID
 70
         1
 71
        1
 91
        1
  92
     1
  93
     1
 72
     2
 10
-37.3
 20
33.55
  40
0.25
  50
     0.0
  51
     360.0
 73
     0
  97
     1
  330
    341
 75
     0
 76
     1
  98
     1
 10
0.0
 20
0.0
  0
CIRCLE
  5
157
100
AcDbEntity
  8
ASSEMBLY_OUTLINES_TOP
100
AcDbCircle
 10
-39.3
 20
33.55
 30
0.0
 40
0.25
  0
HATCH
  5
158
100
AcDbEntity
  8
ASSEMBLY_OUTLINES_TOP
100
AcDbHatch
 10
0.0
 20
0.0
 30
0.0
 210
0.0
 220
0.0
 230
1.0
  2
SOLID
 70
         1
 71
        1
 91
        1
  92
     1
  93
     1
 72
     2
 10
-39.3
 20
33.55
  40
0.25
  50
     0.0
  51
     360.0
 73
     0
  97
     1
  330
    343
 75
     0
 76
     1
  98
     1
 10
0.0
 20
0.0
  0
CIRCLE
  5
159
100
AcDbEntity
  8
ASSEMBLY_OUTLINES_TOP
100
AcDbCircle
 10
-35.3
 20
33.55
 30
0.0
 40
0.25
  0
HATCH
  5
15A
100
AcDbEntity
  8
ASSEMBLY_OUTLINES_TOP
100
AcDbHatch
 10
0.0
 20
0.0
 30
0.0
 210
0.0
 220
0.0
 230
1.0
  2
SOLID
 70
         1
 71
        1
 91
        1
  92
     1
  93
     1
 72
     2
 10
-35.3
 20
33.55
  40
0.25
  50
     0.0
  51
     360.0
 73
     0
  97
     1
  330
    345
 75
     0
 76
     1
  98
     1
 10
0.0
 20
0.0
  0
CIRCLE
  5
15B
100
AcDbEntity
  8
ASSEMBLY_OUTLINES_TOP
100
AcDbCircle
 10
-33.3
 20
33.55
 30
0.0
 40
0.25
  0
HATCH
  5
15C
100
AcDbEntity
  8
ASSEMBLY_OUTLINES_TOP
100
AcDbHatch
 10
0.0
 20
0.0
 30
0.0
 210
0.0
 220
0.0
 230
1.0
  2
SOLID
 70
         1
 71
        1
 91
        1
  92
     1
  93
     1
 72
     2
 10
-33.3
 20
33.55
  40
0.25
  50
     0.0
  51
     360.0
 73
     0
  97
     1
  330
    347
 75
     0
 76
     1
  98
     1
 10
0.0
 20
0.0
  0
CIRCLE
  5
15D
100
AcDbEntity
  8
ASSEMBLY_OUTLINES_TOP
100
AcDbCircle
 10
-31.3
 20
33.55
 30
0.0
 40
0.25
  0
HATCH
  5
15E
100
AcDbEntity
  8
ASSEMBLY_OUTLINES_TOP
100
AcDbHatch
 10
0.0
 20
0.0
 30
0.0
 210
0.0
 220
0.0
 230
1.0
  2
SOLID
 70
         1
 71
        1
 91
        1
  92
     1
  93
     1
 72
     2
 10
-31.3
 20
33.55
  40
0.25
  50
     0.0
  51
     360.0
 73
     0
  97
     1
  330
    349
 75
     0
 76
     1
  98
     1
 10
0.0
 20
0.0
  0
CIRCLE
  5
15F
100
AcDbEntity
  8
ASSEMBLY_OUTLINES_TOP
100
AcDbCircle
 10
-29.3
 20
33.55
 30
0.0
 40
0.25
  0
HATCH
  5
160
100
AcDbEntity
  8
ASSEMBLY_OUTLINES_TOP
100
AcDbHatch
 10
0.0
 20
0.0
 30
0.0
 210
0.0
 220
0.0
 230
1.0
  2
SOLID
 70
         1
 71
        1
 91
        1
  92
     1
  93
     1
 72
     2
 10
-29.3
 20
33.55
  40
0.25
  50
     0.0
  51
     360.0
 73
     0
  97
     1
  330
    351
 75
     0
 76
     1
  98
     1
 10
0.0
 20
0.0
  0
CIRCLE
  5
161
100
AcDbEntity
  8
ASSEMBLY_OUTLINES_TOP
100
AcDbCircle
 10
-27.3
 20
33.55
 30
0.0
 40
0.25
  0
HATCH
  5
162
100
AcDbEntity
  8
ASSEMBLY_OUTLINES_TOP
100
AcDbHatch
 10
0.0
 20
0.0
 30
0.0
 210
0.0
 220
0.0
 230
1.0
  2
SOLID
 70
         1
 71
        1
 91
        1
  92
     1
  93
     1
 72
     2
 10
-27.3
 20
33.55
  40
0.25
  50
     0.0
  51
     360.0
 73
     0
  97
     1
  330
    353
 75
     0
 76
     1
  98
     1
 10
0.0
 20
0.0
  0
CIRCLE
  5
163
100
AcDbEntity
  8
ASSEMBLY_OUTLINES_TOP
100
AcDbCircle
 10
-25.3
 20
33.55
 30
0.0
 40
0.25
  0
HATCH
  5
164
100
AcDbEntity
  8
ASSEMBLY_OUTLINES_TOP
100
AcDbHatch
 10
0.0
 20
0.0
 30
0.0
 210
0.0
 220
0.0
 230
1.0
  2
SOLID
 70
         1
 71
        1
 91
        1
  92
     1
  93
     1
 72
     2
 10
-25.3
 20
33.55
  40
0.25
  50
     0.0
  51
     360.0
 73
     0
  97
     1
  330
    355
 75
     0
 76
     1
  98
     1
 10
0.0
 20
0.0
  0
CIRCLE
  5
165
100
AcDbEntity
  8
ASSEMBLY_OUTLINES_TOP
100
AcDbCircle
 10
-23.3
 20
33.55
 30
0.0
 40
0.25
  0
HATCH
  5
166
100
AcDbEntity
  8
ASSEMBLY_OUTLINES_TOP
100
AcDbHatch
 10
0.0
 20
0.0
 30
0.0
 210
0.0
 220
0.0
 230
1.0
  2
SOLID
 70
         1
 71
        1
 91
        1
  92
     1
  93
     1
 72
     2
 10
-23.3
 20
33.55
  40
0.25
  50
     0.0
  51
     360.0
 73
     0
  97
     1
  330
    357
 75
     0
 76
     1
  98
     1
 10
0.0
 20
0.0
  0
CIRCLE
  5
167
100
AcDbEntity
  8
ASSEMBLY_OUTLINES_TOP
100
AcDbCircle
 10
-21.3
 20
33.55
 30
0.0
 40
0.25
  0
HATCH
  5
168
100
AcDbEntity
  8
ASSEMBLY_OUTLINES_TOP
100
AcDbHatch
 10
0.0
 20
0.0
 30
0.0
 210
0.0
 220
0.0
 230
1.0
  2
SOLID
 70
         1
 71
        1
 91
        1
  92
     1
  93
     1
 72
     2
 10
-21.3
 20
33.55
  40
0.25
  50
     0.0
  51
     360.0
 73
     0
  97
     1
  330
    359
 75
     0
 76
     1
  98
     1
 10
0.0
 20
0.0
  0
CIRCLE
  5
169
100
AcDbEntity
  8
ASSEMBLY_OUTLINES_TOP
100
AcDbCircle
 10
-19.3
 20
33.55
 30
0.0
 40
0.25
  0
HATCH
  5
16A
100
AcDbEntity
  8
ASSEMBLY_OUTLINES_TOP
100
AcDbHatch
 10
0.0
 20
0.0
 30
0.0
 210
0.0
 220
0.0
 230
1.0
  2
SOLID
 70
         1
 71
        1
 91
        1
  92
     1
  93
     1
 72
     2
 10
-19.3
 20
33.55
  40
0.25
  50
     0.0
  51
     360.0
 73
     0
  97
     1
  330
    361
 75
     0
 76
     1
  98
     1
 10
0.0
 20
0.0
  0
CIRCLE
  5
16B
100
AcDbEntity
  8
ASSEMBLY_OUTLINES_TOP
100
AcDbCircle
 10
-17.3
 20
33.55
 30
0.0
 40
0.25
  0
HATCH
  5
16C
100
AcDbEntity
  8
ASSEMBLY_OUTLINES_TOP
100
AcDbHatch
 10
0.0
 20
0.0
 30
0.0
 210
0.0
 220
0.0
 230
1.0
  2
SOLID
 70
         1
 71
        1
 91
        1
  92
     1
  93
     1
 72
     2
 10
-17.3
 20
33.55
  40
0.25
  50
     0.0
  51
     360.0
 73
     0
  97
     1
  330
    363
 75
     0
 76
     1
  98
     1
 10
0.0
 20
0.0
  0
CIRCLE
  5
16D
100
AcDbEntity
  8
ASSEMBLY_OUTLINES_TOP
100
AcDbCircle
 10
-15.3
 20
33.55
 30
0.0
 40
0.25
  0
HATCH
  5
16E
100
AcDbEntity
  8
ASSEMBLY_OUTLINES_TOP
100
AcDbHatch
 10
0.0
 20
0.0
 30
0.0
 210
0.0
 220
0.0
 230
1.0
  2
SOLID
 70
         1
 71
        1
 91
        1
  92
     1
  93
     1
 72
     2
 10
-15.3
 20
33.55
  40
0.25
  50
     0.0
  51
     360.0
 73
     0
  97
     1
  330
    365
 75
     0
 76
     1
  98
     1
 10
0.0
 20
0.0
  0
CIRCLE
  5
16F
100
AcDbEntity
  8
ASSEMBLY_OUTLINES_TOP
100
AcDbCircle
 10
-13.3
 20
33.55
 30
0.0
 40
0.25
  0
HATCH
  5
170
100
AcDbEntity
  8
ASSEMBLY_OUTLINES_TOP
100
AcDbHatch
 10
0.0
 20
0.0
 30
0.0
 210
0.0
 220
0.0
 230
1.0
  2
SOLID
 70
         1
 71
        1
 91
        1
  92
     1
  93
     1
 72
     2
 10
-13.3
 20
33.55
  40
0.25
  50
     0.0
  51
     360.0
 73
     0
  97
     1
  330
    367
 75
     0
 76
     1
  98
     1
 10
0.0
 20
0.0
  0
CIRCLE
  5
171
100
AcDbEntity
  8
ASSEMBLY_OUTLINES_TOP
100
AcDbCircle
 10
-11.3
 20
33.55
 30
0.0
 40
0.25
  0
HATCH
  5
172
100
AcDbEntity
  8
ASSEMBLY_OUTLINES_TOP
100
AcDbHatch
 10
0.0
 20
0.0
 30
0.0
 210
0.0
 220
0.0
 230
1.0
  2
SOLID
 70
         1
 71
        1
 91
        1
  92
     1
  93
     1
 72
     2
 10
-11.3
 20
33.55
  40
0.25
  50
     0.0
  51
     360.0
 73
     0
  97
     1
  330
    369
 75
     0
 76
     1
  98
     1
 10
0.0
 20
0.0
  0
CIRCLE
  5
173
100
AcDbEntity
  8
ASSEMBLY_OUTLINES_TOP
100
AcDbCircle
 10
-9.3
 20
33.55
 30
0.0
 40
0.25
  0
HATCH
  5
174
100
AcDbEntity
  8
ASSEMBLY_OUTLINES_TOP
100
AcDbHatch
 10
0.0
 20
0.0
 30
0.0
 210
0.0
 220
0.0
 230
1.0
  2
SOLID
 70
         1
 71
        1
 91
        1
  92
     1
  93
     1
 72
     2
 10
-9.3
 20
33.55
  40
0.25
  50
     0.0
  51
     360.0
 73
     0
  97
     1
  330
    371
 75
     0
 76
     1
  98
     1
 10
0.0
 20
0.0
  0
CIRCLE
  5
175
100
AcDbEntity
  8
ASSEMBLY_OUTLINES_TOP
100
AcDbCircle
 10
-7.3
 20
33.55
 30
0.0
 40
0.25
  0
HATCH
  5
176
100
AcDbEntity
  8
ASSEMBLY_OUTLINES_TOP
100
AcDbHatch
 10
0.0
 20
0.0
 30
0.0
 210
0.0
 220
0.0
 230
1.0
  2
SOLID
 70
         1
 71
        1
 91
        1
  92
     1
  93
     1
 72
     2
 10
-7.3
 20
33.55
  40
0.25
  50
     0.0
  51
     360.0
 73
     0
  97
     1
  330
    373
 75
     0
 76
     1
  98
     1
 10
0.0
 20
0.0
  0
CIRCLE
  5
177
100
AcDbEntity
  8
ASSEMBLY_OUTLINES_TOP
100
AcDbCircle
 10
-5.3
 20
33.55
 30
0.0
 40
0.25
  0
HATCH
  5
178
100
AcDbEntity
  8
ASSEMBLY_OUTLINES_TOP
100
AcDbHatch
 10
0.0
 20
0.0
 30
0.0
 210
0.0
 220
0.0
 230
1.0
  2
SOLID
 70
         1
 71
        1
 91
        1
  92
     1
  93
     1
 72
     2
 10
-5.3
 20
33.55
  40
0.25
  50
     0.0
  51
     360.0
 73
     0
  97
     1
  330
    375
 75
     0
 76
     1
  98
     1
 10
0.0
 20
0.0
  0
CIRCLE
  5
179
100
AcDbEntity
  8
ASSEMBLY_OUTLINES_TOP
100
AcDbCircle
 10
-3.3
 20
33.55
 30
0.0
 40
0.25
  0
HATCH
  5
17A
100
AcDbEntity
  8
ASSEMBLY_OUTLINES_TOP
100
AcDbHatch
 10
0.0
 20
0.0
 30
0.0
 210
0.0
 220
0.0
 230
1.0
  2
SOLID
 70
         1
 71
        1
 91
        1
  92
     1
  93
     1
 72
     2
 10
-3.3
 20
33.55
  40
0.25
  50
     0.0
  51
     360.0
 73
     0
  97
     1
  330
    377
 75
     0
 76
     1
  98
     1
 10
0.0
 20
0.0
  0
CIRCLE
  5
17B
100
AcDbEntity
  8
ASSEMBLY_OUTLINES_TOP
100
AcDbCircle
 10
-1.3
 20
33.55
 30
0.0
 40
0.25
  0
HATCH
  5
17C
100
AcDbEntity
  8
ASSEMBLY_OUTLINES_TOP
100
AcDbHatch
 10
0.0
 20
0.0
 30
0.0
 210
0.0
 220
0.0
 230
1.0
  2
SOLID
 70
         1
 71
        1
 91
        1
  92
     1
  93
     1
 72
     2
 10
-1.3
 20
33.55
  40
0.25
  50
     0.0
  51
     360.0
 73
     0
  97
     1
  330
    379
 75
     0
 76
     1
  98
     1
 10
0.0
 20
0.0
  0
CIRCLE
  5
17D
100
AcDbEntity
  8
ASSEMBLY_OUTLINES_TOP
100
AcDbCircle
 10
-39.3
 20
35.55
 30
0.0
 40
0.25
  0
HATCH
  5
17E
100
AcDbEntity
  8
ASSEMBLY_OUTLINES_TOP
100
AcDbHatch
 10
0.0
 20
0.0
 30
0.0
 210
0.0
 220
0.0
 230
1.0
  2
SOLID
 70
         1
 71
        1
 91
        1
  92
     1
  93
     1
 72
     2
 10
-39.3
 20
35.55
  40
0.25
  50
     0.0
  51
     360.0
 73
     0
  97
     1
  330
    381
 75
     0
 76
     1
  98
     1
 10
0.0
 20
0.0
  0
CIRCLE
  5
17F
100
AcDbEntity
  8
ASSEMBLY_OUTLINES_TOP
100
AcDbCircle
 10
-35.3
 20
35.55
 30
0.0
 40
0.25
  0
HATCH
  5
180
100
AcDbEntity
  8
ASSEMBLY_OUTLINES_TOP
100
AcDbHatch
 10
0.0
 20
0.0
 30
0.0
 210
0.0
 220
0.0
 230
1.0
  2
SOLID
 70
         1
 71
        1
 91
        1
  92
     1
  93
     1
 72
     2
 10
-35.3
 20
35.55
  40
0.25
  50
     0.0
  51
     360.0
 73
     0
  97
     1
  330
    383
 75
     0
 76
     1
  98
     1
 10
0.0
 20
0.0
  0
CIRCLE
  5
181
100
AcDbEntity
  8
ASSEMBLY_OUTLINES_TOP
100
AcDbCircle
 10
-33.3
 20
35.55
 30
0.0
 40
0.25
  0
HATCH
  5
182
100
AcDbEntity
  8
ASSEMBLY_OUTLINES_TOP
100
AcDbHatch
 10
0.0
 20
0.0
 30
0.0
 210
0.0
 220
0.0
 230
1.0
  2
SOLID
 70
         1
 71
        1
 91
        1
  92
     1
  93
     1
 72
     2
 10
-33.3
 20
35.55
  40
0.25
  50
     0.0
  51
     360.0
 73
     0
  97
     1
  330
    385
 75
     0
 76
     1
  98
     1
 10
0.0
 20
0.0
  0
CIRCLE
  5
183
100
AcDbEntity
  8
ASSEMBLY_OUTLINES_TOP
100
AcDbCircle
 10
-31.3
 20
35.55
 30
0.0
 40
0.25
  0
HATCH
  5
184
100
AcDbEntity
  8
ASSEMBLY_OUTLINES_TOP
100
AcDbHatch
 10
0.0
 20
0.0
 30
0.0
 210
0.0
 220
0.0
 230
1.0
  2
SOLID
 70
         1
 71
        1
 91
        1
  92
     1
  93
     1
 72
     2
 10
-31.3
 20
35.55
  40
0.25
  50
     0.0
  51
     360.0
 73
     0
  97
     1
  330
    387
 75
     0
 76
     1
  98
     1
 10
0.0
 20
0.0
  0
CIRCLE
  5
185
100
AcDbEntity
  8
ASSEMBLY_OUTLINES_TOP
100
AcDbCircle
 10
-29.3
 20
35.55
 30
0.0
 40
0.25
  0
HATCH
  5
186
100
AcDbEntity
  8
ASSEMBLY_OUTLINES_TOP
100
AcDbHatch
 10
0.0
 20
0.0
 30
0.0
 210
0.0
 220
0.0
 230
1.0
  2
SOLID
 70
         1
 71
        1
 91
        1
  92
     1
  93
     1
 72
     2
 10
-29.3
 20
35.55
  40
0.25
  50
     0.0
  51
     360.0
 73
     0
  97
     1
  330
    389
 75
     0
 76
     1
  98
     1
 10
0.0
 20
0.0
  0
CIRCLE
  5
187
100
AcDbEntity
  8
ASSEMBLY_OUTLINES_TOP
100
AcDbCircle
 10
-27.3
 20
35.55
 30
0.0
 40
0.25
  0
HATCH
  5
188
100
AcDbEntity
  8
ASSEMBLY_OUTLINES_TOP
100
AcDbHatch
 10
0.0
 20
0.0
 30
0.0
 210
0.0
 220
0.0
 230
1.0
  2
SOLID
 70
         1
 71
        1
 91
        1
  92
     1
  93
     1
 72
     2
 10
-27.3
 20
35.55
  40
0.25
  50
     0.0
  51
     360.0
 73
     0
  97
     1
  330
    391
 75
     0
 76
     1
  98
     1
 10
0.0
 20
0.0
  0
CIRCLE
  5
189
100
AcDbEntity
  8
ASSEMBLY_OUTLINES_TOP
100
AcDbCircle
 10
-25.3
 20
35.55
 30
0.0
 40
0.25
  0
HATCH
  5
18A
100
AcDbEntity
  8
ASSEMBLY_OUTLINES_TOP
100
AcDbHatch
 10
0.0
 20
0.0
 30
0.0
 210
0.0
 220
0.0
 230
1.0
  2
SOLID
 70
         1
 71
        1
 91
        1
  92
     1
  93
     1
 72
     2
 10
-25.3
 20
35.55
  40
0.25
  50
     0.0
  51
     360.0
 73
     0
  97
     1
  330
    393
 75
     0
 76
     1
  98
     1
 10
0.0
 20
0.0
  0
CIRCLE
  5
18B
100
AcDbEntity
  8
ASSEMBLY_OUTLINES_TOP
100
AcDbCircle
 10
-23.3
 20
35.55
 30
0.0
 40
0.25
  0
HATCH
  5
18C
100
AcDbEntity
  8
ASSEMBLY_OUTLINES_TOP
100
AcDbHatch
 10
0.0
 20
0.0
 30
0.0
 210
0.0
 220
0.0
 230
1.0
  2
SOLID
 70
         1
 71
        1
 91
        1
  92
     1
  93
     1
 72
     2
 10
-23.3
 20
35.55
  40
0.25
  50
     0.0
  51
     360.0
 73
     0
  97
     1
  330
    395
 75
     0
 76
     1
  98
     1
 10
0.0
 20
0.0
  0
CIRCLE
  5
18D
100
AcDbEntity
  8
ASSEMBLY_OUTLINES_TOP
100
AcDbCircle
 10
-21.3
 20
35.55
 30
0.0
 40
0.25
  0
HATCH
  5
18E
100
AcDbEntity
  8
ASSEMBLY_OUTLINES_TOP
100
AcDbHatch
 10
0.0
 20
0.0
 30
0.0
 210
0.0
 220
0.0
 230
1.0
  2
SOLID
 70
         1
 71
        1
 91
        1
  92
     1
  93
     1
 72
     2
 10
-21.3
 20
35.55
  40
0.25
  50
     0.0
  51
     360.0
 73
     0
  97
     1
  330
    397
 75
     0
 76
     1
  98
     1
 10
0.0
 20
0.0
  0
CIRCLE
  5
18F
100
AcDbEntity
  8
ASSEMBLY_OUTLINES_TOP
100
AcDbCircle
 10
-19.3
 20
35.55
 30
0.0
 40
0.25
  0
HATCH
  5
190
100
AcDbEntity
  8
ASSEMBLY_OUTLINES_TOP
100
AcDbHatch
 10
0.0
 20
0.0
 30
0.0
 210
0.0
 220
0.0
 230
1.0
  2
SOLID
 70
         1
 71
        1
 91
        1
  92
     1
  93
     1
 72
     2
 10
-19.3
 20
35.55
  40
0.25
  50
     0.0
  51
     360.0
 73
     0
  97
     1
  330
    399
 75
     0
 76
     1
  98
     1
 10
0.0
 20
0.0
  0
CIRCLE
  5
191
100
AcDbEntity
  8
ASSEMBLY_OUTLINES_TOP
100
AcDbCircle
 10
-17.3
 20
35.55
 30
0.0
 40
0.25
  0
HATCH
  5
192
100
AcDbEntity
  8
ASSEMBLY_OUTLINES_TOP
100
AcDbHatch
 10
0.0
 20
0.0
 30
0.0
 210
0.0
 220
0.0
 230
1.0
  2
SOLID
 70
         1
 71
        1
 91
        1
  92
     1
  93
     1
 72
     2
 10
-17.3
 20
35.55
  40
0.25
  50
     0.0
  51
     360.0
 73
     0
  97
     1
  330
    401
 75
     0
 76
     1
  98
     1
 10
0.0
 20
0.0
  0
CIRCLE
  5
193
100
AcDbEntity
  8
ASSEMBLY_OUTLINES_TOP
100
AcDbCircle
 10
-15.3
 20
35.55
 30
0.0
 40
0.25
  0
HATCH
  5
194
100
AcDbEntity
  8
ASSEMBLY_OUTLINES_TOP
100
AcDbHatch
 10
0.0
 20
0.0
 30
0.0
 210
0.0
 220
0.0
 230
1.0
  2
SOLID
 70
         1
 71
        1
 91
        1
  92
     1
  93
     1
 72
     2
 10
-15.3
 20
35.55
  40
0.25
  50
     0.0
  51
     360.0
 73
     0
  97
     1
  330
    403
 75
     0
 76
     1
  98
     1
 10
0.0
 20
0.0
  0
CIRCLE
  5
195
100
AcDbEntity
  8
ASSEMBLY_OUTLINES_TOP
100
AcDbCircle
 10
-13.3
 20
35.55
 30
0.0
 40
0.25
  0
HATCH
  5
196
100
AcDbEntity
  8
ASSEMBLY_OUTLINES_TOP
100
AcDbHatch
 10
0.0
 20
0.0
 30
0.0
 210
0.0
 220
0.0
 230
1.0
  2
SOLID
 70
         1
 71
        1
 91
        1
  92
     1
  93
     1
 72
     2
 10
-13.3
 20
35.55
  40
0.25
  50
     0.0
  51
     360.0
 73
     0
  97
     1
  330
    405
 75
     0
 76
     1
  98
     1
 10
0.0
 20
0.0
  0
CIRCLE
  5
197
100
AcDbEntity
  8
ASSEMBLY_OUTLINES_TOP
100
AcDbCircle
 10
-11.3
 20
35.55
 30
0.0
 40
0.25
  0
HATCH
  5
198
100
AcDbEntity
  8
ASSEMBLY_OUTLINES_TOP
100
AcDbHatch
 10
0.0
 20
0.0
 30
0.0
 210
0.0
 220
0.0
 230
1.0
  2
SOLID
 70
         1
 71
        1
 91
        1
  92
     1
  93
     1
 72
     2
 10
-11.3
 20
35.55
  40
0.25
  50
     0.0
  51
     360.0
 73
     0
  97
     1
  330
    407
 75
     0
 76
     1
  98
     1
 10
0.0
 20
0.0
  0
CIRCLE
  5
199
100
AcDbEntity
  8
ASSEMBLY_OUTLINES_TOP
100
AcDbCircle
 10
-9.3
 20
35.55
 30
0.0
 40
0.25
  0
HATCH
  5
19A
100
AcDbEntity
  8
ASSEMBLY_OUTLINES_TOP
100
AcDbHatch
 10
0.0
 20
0.0
 30
0.0
 210
0.0
 220
0.0
 230
1.0
  2
SOLID
 70
         1
 71
        1
 91
        1
  92
     1
  93
     1
 72
     2
 10
-9.3
 20
35.55
  40
0.25
  50
     0.0
  51
     360.0
 73
     0
  97
     1
  330
    409
 75
     0
 76
     1
  98
     1
 10
0.0
 20
0.0
  0
CIRCLE
  5
19B
100
AcDbEntity
  8
ASSEMBLY_OUTLINES_TOP
100
AcDbCircle
 10
-7.3
 20
35.55
 30
0.0
 40
0.25
  0
HATCH
  5
19C
100
AcDbEntity
  8
ASSEMBLY_OUTLINES_TOP
100
AcDbHatch
 10
0.0
 20
0.0
 30
0.0
 210
0.0
 220
0.0
 230
1.0
  2
SOLID
 70
         1
 71
        1
 91
        1
  92
     1
  93
     1
 72
     2
 10
-7.3
 20
35.55
  40
0.25
  50
     0.0
  51
     360.0
 73
     0
  97
     1
  330
    411
 75
     0
 76
     1
  98
     1
 10
0.0
 20
0.0
  0
CIRCLE
  5
19D
100
AcDbEntity
  8
ASSEMBLY_OUTLINES_TOP
100
AcDbCircle
 10
-5.3
 20
35.55
 30
0.0
 40
0.25
  0
HATCH
  5
19E
100
AcDbEntity
  8
ASSEMBLY_OUTLINES_TOP
100
AcDbHatch
 10
0.0
 20
0.0
 30
0.0
 210
0.0
 220
0.0
 230
1.0
  2
SOLID
 70
         1
 71
        1
 91
        1
  92
     1
  93
     1
 72
     2
 10
-5.3
 20
35.55
  40
0.25
  50
     0.0
  51
     360.0
 73
     0
  97
     1
  330
    413
 75
     0
 76
     1
  98
     1
 10
0.0
 20
0.0
  0
CIRCLE
  5
19F
100
AcDbEntity
  8
ASSEMBLY_OUTLINES_TOP
100
AcDbCircle
 10
-3.3
 20
35.55
 30
0.0
 40
0.25
  0
HATCH
  5
1A0
100
AcDbEntity
  8
ASSEMBLY_OUTLINES_TOP
100
AcDbHatch
 10
0.0
 20
0.0
 30
0.0
 210
0.0
 220
0.0
 230
1.0
  2
SOLID
 70
         1
 71
        1
 91
        1
  92
     1
  93
     1
 72
     2
 10
-3.3
 20
35.55
  40
0.25
  50
     0.0
  51
     360.0
 73
     0
  97
     1
  330
    415
 75
     0
 76
     1
  98
     1
 10
0.0
 20
0.0
  0
CIRCLE
  5
1A1
100
AcDbEntity
  8
ASSEMBLY_OUTLINES_TOP
100
AcDbCircle
 10
-1.3
 20
35.55
 30
0.0
 40
0.25
  0
HATCH
  5
1A2
100
AcDbEntity
  8
ASSEMBLY_OUTLINES_TOP
100
AcDbHatch
 10
0.0
 20
0.0
 30
0.0
 210
0.0
 220
0.0
 230
1.0
  2
SOLID
 70
         1
 71
        1
 91
        1
  92
     1
  93
     1
 72
     2
 10
-1.3
 20
35.55
  40
0.25
  50
     0.0
  51
     360.0
 73
     0
  97
     1
  330
    417
 75
     0
 76
     1
  98
     1
 10
0.0
 20
0.0
  0
LWPOLYLINE
  5
1A3
100
AcDbEntity
  8
ASSEMBLY_OUTLINES_TOP
100
AcDbPolyline
 90
        4
 70
         1
 43
0.1
 10
-25.1
 20
61.55
 10
-25.1
 20
62.85
 10
-22.2
 20
62.85
 10
-22.2
 20
61.55
  0
LWPOLYLINE
  5
1A4
100
AcDbEntity
  8
ASSEMBLY_OUTLINES_TOP
100
AcDbPolyline
 90
        4
 70
         1
 43
0.1
 10
-19.3
 20
64.0
 10
-19.3
 20
65.3
 10
-16.5
 20
65.3
 10
-16.5
 20
64.0
  0
LWPOLYLINE
  5
1A5
100
AcDbEntity
  8
ASSEMBLY_OUTLINES_TOP
100
AcDbPolyline
 90
        4
 70
         1
 43
0.1
 10
-20.35
 20
57.9
 10
-20.35
 20
60.8
 10
-19.05
 20
60.8
 10
-19.05
 20
57.9
  0
LWPOLYLINE
  5
1A6
100
AcDbEntity
  8
ASSEMBLY_OUTLINES_TOP
100
AcDbPolyline
 90
        4
 70
         1
 43
0.1
 10
-18.4
 20
67.25
 10
-18.4
 20
68.55
 10
-15.6
 20
68.55
 10
-15.6
 20
67.25
  0
LWPOLYLINE
  5
1A7
100
AcDbEntity
  8
ASSEMBLY_OUTLINES_TOP
100
AcDbPolyline
 90
        4
 70
         1
 43
0.1
 10
-20.35
 20
60.95
 10
-20.35
 20
63.85
 10
-19.05
 20
63.85
 10
-19.05
 20
60.95
  0
LWPOLYLINE
  5
1A8
100
AcDbEntity
  8
ASSEMBLY_OUTLINES_TOP
100
AcDbPolyline
 90
        4
 70
         1
 43
0.1
 10
-67.6
 20
38.35
 10
-67.6
 20
41.15
 10
-66.3
 20
41.15
 10
-66.3
 20
38.35
  0
LWPOLYLINE
  5
1A9
100
AcDbEntity
  8
ASSEMBLY_OUTLINES_TOP
100
AcDbPolyline
 90
        4
 70
         1
 43
0.1
 10
-71.65
 20
61.35
 10
-71.65
 20
64.25
 10
-70.35
 20
64.25
 10
-70.35
 20
61.35
  0
LWPOLYLINE
  5
1AA
100
AcDbEntity
  8
ASSEMBLY_OUTLINES_TOP
100
AcDbPolyline
 90
        4
 70
         1
 43
0.0
 10
-40.3
 20
95.95
 10
-40.3
 20
100.05
 10
-0.3
 20
100.05
 10
-0.3
 20
95.95
  0
CIRCLE
  5
1AB
100
AcDbEntity
  8
ASSEMBLY_OUTLINES_TOP
100
AcDbCircle
 10
-37.3
 20
99.05
 30
0.0
 40
0.25
  0
HATCH
  5
1AC
100
AcDbEntity
  8
ASSEMBLY_OUTLINES_TOP
100
AcDbHatch
 10
0.0
 20
0.0
 30
0.0
 210
0.0
 220
0.0
 230
1.0
  2
SOLID
 70
         1
 71
        1
 91
        1
  92
     1
  93
     1
 72
     2
 10
-37.3
 20
99.05
  40
0.25
  50
     0.0
  51
     360.0
 73
     0
  97
     1
  330
    427
 75
     0
 76
     1
  98
     1
 10
0.0
 20
0.0
  0
CIRCLE
  5
1AD
100
AcDbEntity
  8
ASSEMBLY_OUTLINES_TOP
100
AcDbCircle
 10
-37.3
 20
97.05
 30
0.0
 40
0.25
  0
HATCH
  5
1AE
100
AcDbEntity
  8
ASSEMBLY_OUTLINES_TOP
100
AcDbHatch
 10
0.0
 20
0.0
 30
0.0
 210
0.0
 220
0.0
 230
1.0
  2
SOLID
 70
         1
 71
        1
 91
        1
  92
     1
  93
     1
 72
     2
 10
-37.3
 20
97.05
  40
0.25
  50
     0.0
  51
     360.0
 73
     0
  97
     1
  330
    429
 75
     0
 76
     1
  98
     1
 10
0.0
 20
0.0
  0
CIRCLE
  5
1AF
100
AcDbEntity
  8
ASSEMBLY_OUTLINES_TOP
100
AcDbCircle
 10
-39.3
 20
97.05
 30
0.0
 40
0.25
  0
HATCH
  5
1B0
100
AcDbEntity
  8
ASSEMBLY_OUTLINES_TOP
100
AcDbHatch
 10
0.0
 20
0.0
 30
0.0
 210
0.0
 220
0.0
 230
1.0
  2
SOLID
 70
         1
 71
        1
 91
        1
  92
     1
  93
     1
 72
     2
 10
-39.3
 20
97.05
  40
0.25
  50
     0.0
  51
     360.0
 73
     0
  97
     1
  330
    431
 75
     0
 76
     1
  98
     1
 10
0.0
 20
0.0
  0
CIRCLE
  5
1B1
100
AcDbEntity
  8
ASSEMBLY_OUTLINES_TOP
100
AcDbCircle
 10
-35.3
 20
97.05
 30
0.0
 40
0.25
  0
HATCH
  5
1B2
100
AcDbEntity
  8
ASSEMBLY_OUTLINES_TOP
100
AcDbHatch
 10
0.0
 20
0.0
 30
0.0
 210
0.0
 220
0.0
 230
1.0
  2
SOLID
 70
         1
 71
        1
 91
        1
  92
     1
  93
     1
 72
     2
 10
-35.3
 20
97.05
  40
0.25
  50
     0.0
  51
     360.0
 73
     0
  97
     1
  330
    433
 75
     0
 76
     1
  98
     1
 10
0.0
 20
0.0
  0
CIRCLE
  5
1B3
100
AcDbEntity
  8
ASSEMBLY_OUTLINES_TOP
100
AcDbCircle
 10
-33.3
 20
97.05
 30
0.0
 40
0.25
  0
HATCH
  5
1B4
100
AcDbEntity
  8
ASSEMBLY_OUTLINES_TOP
100
AcDbHatch
 10
0.0
 20
0.0
 30
0.0
 210
0.0
 220
0.0
 230
1.0
  2
SOLID
 70
         1
 71
        1
 91
        1
  92
     1
  93
     1
 72
     2
 10
-33.3
 20
97.05
  40
0.25
  50
     0.0
  51
     360.0
 73
     0
  97
     1
  330
    435
 75
     0
 76
     1
  98
     1
 10
0.0
 20
0.0
  0
CIRCLE
  5
1B5
100
AcDbEntity
  8
ASSEMBLY_OUTLINES_TOP
100
AcDbCircle
 10
-31.3
 20
97.05
 30
0.0
 40
0.25
  0
HATCH
  5
1B6
100
AcDbEntity
  8
ASSEMBLY_OUTLINES_TOP
100
AcDbHatch
 10
0.0
 20
0.0
 30
0.0
 210
0.0
 220
0.0
 230
1.0
  2
SOLID
 70
         1
 71
        1
 91
        1
  92
     1
  93
     1
 72
     2
 10
-31.3
 20
97.05
  40
0.25
  50
     0.0
  51
     360.0
 73
     0
  97
     1
  330
    437
 75
     0
 76
     1
  98
     1
 10
0.0
 20
0.0
  0
CIRCLE
  5
1B7
100
AcDbEntity
  8
ASSEMBLY_OUTLINES_TOP
100
AcDbCircle
 10
-29.3
 20
97.05
 30
0.0
 40
0.25
  0
HATCH
  5
1B8
100
AcDbEntity
  8
ASSEMBLY_OUTLINES_TOP
100
AcDbHatch
 10
0.0
 20
0.0
 30
0.0
 210
0.0
 220
0.0
 230
1.0
  2
SOLID
 70
         1
 71
        1
 91
        1
  92
     1
  93
     1
 72
     2
 10
-29.3
 20
97.05
  40
0.25
  50
     0.0
  51
     360.0
 73
     0
  97
     1
  330
    439
 75
     0
 76
     1
  98
     1
 10
0.0
 20
0.0
  0
CIRCLE
  5
1B9
100
AcDbEntity
  8
ASSEMBLY_OUTLINES_TOP
100
AcDbCircle
 10
-27.3
 20
97.05
 30
0.0
 40
0.25
  0
HATCH
  5
1BA
100
AcDbEntity
  8
ASSEMBLY_OUTLINES_TOP
100
AcDbHatch
 10
0.0
 20
0.0
 30
0.0
 210
0.0
 220
0.0
 230
1.0
  2
SOLID
 70
         1
 71
        1
 91
        1
  92
     1
  93
     1
 72
     2
 10
-27.3
 20
97.05
  40
0.25
  50
     0.0
  51
     360.0
 73
     0
  97
     1
  330
    441
 75
     0
 76
     1
  98
     1
 10
0.0
 20
0.0
  0
CIRCLE
  5
1BB
100
AcDbEntity
  8
ASSEMBLY_OUTLINES_TOP
100
AcDbCircle
 10
-25.3
 20
97.05
 30
0.0
 40
0.25
  0
HATCH
  5
1BC
100
AcDbEntity
  8
ASSEMBLY_OUTLINES_TOP
100
AcDbHatch
 10
0.0
 20
0.0
 30
0.0
 210
0.0
 220
0.0
 230
1.0
  2
SOLID
 70
         1
 71
        1
 91
        1
  92
     1
  93
     1
 72
     2
 10
-25.3
 20
97.05
  40
0.25
  50
     0.0
  51
     360.0
 73
     0
  97
     1
  330
    443
 75
     0
 76
     1
  98
     1
 10
0.0
 20
0.0
  0
CIRCLE
  5
1BD
100
AcDbEntity
  8
ASSEMBLY_OUTLINES_TOP
100
AcDbCircle
 10
-23.3
 20
97.05
 30
0.0
 40
0.25
  0
HATCH
  5
1BE
100
AcDbEntity
  8
ASSEMBLY_OUTLINES_TOP
100
AcDbHatch
 10
0.0
 20
0.0
 30
0.0
 210
0.0
 220
0.0
 230
1.0
  2
SOLID
 70
         1
 71
        1
 91
        1
  92
     1
  93
     1
 72
     2
 10
-23.3
 20
97.05
  40
0.25
  50
     0.0
  51
     360.0
 73
     0
  97
     1
  330
    445
 75
     0
 76
     1
  98
     1
 10
0.0
 20
0.0
  0
CIRCLE
  5
1BF
100
AcDbEntity
  8
ASSEMBLY_OUTLINES_TOP
100
AcDbCircle
 10
-21.3
 20
97.05
 30
0.0
 40
0.25
  0
HATCH
  5
1C0
100
AcDbEntity
  8
ASSEMBLY_OUTLINES_TOP
100
AcDbHatch
 10
0.0
 20
0.0
 30
0.0
 210
0.0
 220
0.0
 230
1.0
  2
SOLID
 70
         1
 71
        1
 91
        1
  92
     1
  93
     1
 72
     2
 10
-21.3
 20
97.05
  40
0.25
  50
     0.0
  51
     360.0
 73
     0
  97
     1
  330
    447
 75
     0
 76
     1
  98
     1
 10
0.0
 20
0.0
  0
CIRCLE
  5
1C1
100
AcDbEntity
  8
ASSEMBLY_OUTLINES_TOP
100
AcDbCircle
 10
-19.3
 20
97.05
 30
0.0
 40
0.25
  0
HATCH
  5
1C2
100
AcDbEntity
  8
ASSEMBLY_OUTLINES_TOP
100
AcDbHatch
 10
0.0
 20
0.0
 30
0.0
 210
0.0
 220
0.0
 230
1.0
  2
SOLID
 70
         1
 71
        1
 91
        1
  92
     1
  93
     1
 72
     2
 10
-19.3
 20
97.05
  40
0.25
  50
     0.0
  51
     360.0
 73
     0
  97
     1
  330
    449
 75
     0
 76
     1
  98
     1
 10
0.0
 20
0.0
  0
CIRCLE
  5
1C3
100
AcDbEntity
  8
ASSEMBLY_OUTLINES_TOP
100
AcDbCircle
 10
-17.3
 20
97.05
 30
0.0
 40
0.25
  0
HATCH
  5
1C4
100
AcDbEntity
  8
ASSEMBLY_OUTLINES_TOP
100
AcDbHatch
 10
0.0
 20
0.0
 30
0.0
 210
0.0
 220
0.0
 230
1.0
  2
SOLID
 70
         1
 71
        1
 91
        1
  92
     1
  93
     1
 72
     2
 10
-17.3
 20
97.05
  40
0.25
  50
     0.0
  51
     360.0
 73
     0
  97
     1
  330
    451
 75
     0
 76
     1
  98
     1
 10
0.0
 20
0.0
  0
CIRCLE
  5
1C5
100
AcDbEntity
  8
ASSEMBLY_OUTLINES_TOP
100
AcDbCircle
 10
-15.3
 20
97.05
 30
0.0
 40
0.25
  0
HATCH
  5
1C6
100
AcDbEntity
  8
ASSEMBLY_OUTLINES_TOP
100
AcDbHatch
 10
0.0
 20
0.0
 30
0.0
 210
0.0
 220
0.0
 230
1.0
  2
SOLID
 70
         1
 71
        1
 91
        1
  92
     1
  93
     1
 72
     2
 10
-15.3
 20
97.05
  40
0.25
  50
     0.0
  51
     360.0
 73
     0
  97
     1
  330
    453
 75
     0
 76
     1
  98
     1
 10
0.0
 20
0.0
  0
CIRCLE
  5
1C7
100
AcDbEntity
  8
ASSEMBLY_OUTLINES_TOP
100
AcDbCircle
 10
-13.3
 20
97.05
 30
0.0
 40
0.25
  0
HATCH
  5
1C8
100
AcDbEntity
  8
ASSEMBLY_OUTLINES_TOP
100
AcDbHatch
 10
0.0
 20
0.0
 30
0.0
 210
0.0
 220
0.0
 230
1.0
  2
SOLID
 70
         1
 71
        1
 91
        1
  92
     1
  93
     1
 72
     2
 10
-13.3
 20
97.05
  40
0.25
  50
     0.0
  51
     360.0
 73
     0
  97
     1
  330
    455
 75
     0
 76
     1
  98
     1
 10
0.0
 20
0.0
  0
CIRCLE
  5
1C9
100
AcDbEntity
  8
ASSEMBLY_OUTLINES_TOP
100
AcDbCircle
 10
-11.3
 20
97.05
 30
0.0
 40
0.25
  0
HATCH
  5
1CA
100
AcDbEntity
  8
ASSEMBLY_OUTLINES_TOP
100
AcDbHatch
 10
0.0
 20
0.0
 30
0.0
 210
0.0
 220
0.0
 230
1.0
  2
SOLID
 70
         1
 71
        1
 91
        1
  92
     1
  93
     1
 72
     2
 10
-11.3
 20
97.05
  40
0.25
  50
     0.0
  51
     360.0
 73
     0
  97
     1
  330
    457
 75
     0
 76
     1
  98
     1
 10
0.0
 20
0.0
  0
CIRCLE
  5
1CB
100
AcDbEntity
  8
ASSEMBLY_OUTLINES_TOP
100
AcDbCircle
 10
-9.3
 20
97.05
 30
0.0
 40
0.25
  0
HATCH
  5
1CC
100
AcDbEntity
  8
ASSEMBLY_OUTLINES_TOP
100
AcDbHatch
 10
0.0
 20
0.0
 30
0.0
 210
0.0
 220
0.0
 230
1.0
  2
SOLID
 70
         1
 71
        1
 91
        1
  92
     1
  93
     1
 72
     2
 10
-9.3
 20
97.05
  40
0.25
  50
     0.0
  51
     360.0
 73
     0
  97
     1
  330
    459
 75
     0
 76
     1
  98
     1
 10
0.0
 20
0.0
  0
CIRCLE
  5
1CD
100
AcDbEntity
  8
ASSEMBLY_OUTLINES_TOP
100
AcDbCircle
 10
-7.3
 20
97.05
 30
0.0
 40
0.25
  0
HATCH
  5
1CE
100
AcDbEntity
  8
ASSEMBLY_OUTLINES_TOP
100
AcDbHatch
 10
0.0
 20
0.0
 30
0.0
 210
0.0
 220
0.0
 230
1.0
  2
SOLID
 70
         1
 71
        1
 91
        1
  92
     1
  93
     1
 72
     2
 10
-7.3
 20
97.05
  40
0.25
  50
     0.0
  51
     360.0
 73
     0
  97
     1
  330
    461
 75
     0
 76
     1
  98
     1
 10
0.0
 20
0.0
  0
CIRCLE
  5
1CF
100
AcDbEntity
  8
ASSEMBLY_OUTLINES_TOP
100
AcDbCircle
 10
-5.3
 20
97.05
 30
0.0
 40
0.25
  0
HATCH
  5
1D0
100
AcDbEntity
  8
ASSEMBLY_OUTLINES_TOP
100
AcDbHatch
 10
0.0
 20
0.0
 30
0.0
 210
0.0
 220
0.0
 230
1.0
  2
SOLID
 70
         1
 71
        1
 91
        1
  92
     1
  93
     1
 72
     2
 10
-5.3
 20
97.05
  40
0.25
  50
     0.0
  51
     360.0
 73
     0
  97
     1
  330
    463
 75
     0
 76
     1
  98
     1
 10
0.0
 20
0.0
  0
CIRCLE
  5
1D1
100
AcDbEntity
  8
ASSEMBLY_OUTLINES_TOP
100
AcDbCircle
 10
-3.3
 20
97.05
 30
0.0
 40
0.25
  0
HATCH
  5
1D2
100
AcDbEntity
  8
ASSEMBLY_OUTLINES_TOP
100
AcDbHatch
 10
0.0
 20
0.0
 30
0.0
 210
0.0
 220
0.0
 230
1.0
  2
SOLID
 70
         1
 71
        1
 91
        1
  92
     1
  93
     1
 72
     2
 10
-3.3
 20
97.05
  40
0.25
  50
     0.0
  51
     360.0
 73
     0
  97
     1
  330
    465
 75
     0
 76
     1
  98
     1
 10
0.0
 20
0.0
  0
CIRCLE
  5
1D3
100
AcDbEntity
  8
ASSEMBLY_OUTLINES_TOP
100
AcDbCircle
 10
-1.3
 20
97.05
 30
0.0
 40
0.25
  0
HATCH
  5
1D4
100
AcDbEntity
  8
ASSEMBLY_OUTLINES_TOP
100
AcDbHatch
 10
0.0
 20
0.0
 30
0.0
 210
0.0
 220
0.0
 230
1.0
  2
SOLID
 70
         1
 71
        1
 91
        1
  92
     1
  93
     1
 72
     2
 10
-1.3
 20
97.05
  40
0.25
  50
     0.0
  51
     360.0
 73
     0
  97
     1
  330
    467
 75
     0
 76
     1
  98
     1
 10
0.0
 20
0.0
  0
CIRCLE
  5
1D5
100
AcDbEntity
  8
ASSEMBLY_OUTLINES_TOP
100
AcDbCircle
 10
-39.3
 20
99.05
 30
0.0
 40
0.25
  0
HATCH
  5
1D6
100
AcDbEntity
  8
ASSEMBLY_OUTLINES_TOP
100
AcDbHatch
 10
0.0
 20
0.0
 30
0.0
 210
0.0
 220
0.0
 230
1.0
  2
SOLID
 70
         1
 71
        1
 91
        1
  92
     1
  93
     1
 72
     2
 10
-39.3
 20
99.05
  40
0.25
  50
     0.0
  51
     360.0
 73
     0
  97
     1
  330
    469
 75
     0
 76
     1
  98
     1
 10
0.0
 20
0.0
  0
CIRCLE
  5
1D7
100
AcDbEntity
  8
ASSEMBLY_OUTLINES_TOP
100
AcDbCircle
 10
-35.3
 20
99.05
 30
0.0
 40
0.25
  0
HATCH
  5
1D8
100
AcDbEntity
  8
ASSEMBLY_OUTLINES_TOP
100
AcDbHatch
 10
0.0
 20
0.0
 30
0.0
 210
0.0
 220
0.0
 230
1.0
  2
SOLID
 70
         1
 71
        1
 91
        1
  92
     1
  93
     1
 72
     2
 10
-35.3
 20
99.05
  40
0.25
  50
     0.0
  51
     360.0
 73
     0
  97
     1
  330
    471
 75
     0
 76
     1
  98
     1
 10
0.0
 20
0.0
  0
CIRCLE
  5
1D9
100
AcDbEntity
  8
ASSEMBLY_OUTLINES_TOP
100
AcDbCircle
 10
-33.3
 20
99.05
 30
0.0
 40
0.25
  0
HATCH
  5
1DA
100
AcDbEntity
  8
ASSEMBLY_OUTLINES_TOP
100
AcDbHatch
 10
0.0
 20
0.0
 30
0.0
 210
0.0
 220
0.0
 230
1.0
  2
SOLID
 70
         1
 71
        1
 91
        1
  92
     1
  93
     1
 72
     2
 10
-33.3
 20
99.05
  40
0.25
  50
     0.0
  51
     360.0
 73
     0
  97
     1
  330
    473
 75
     0
 76
     1
  98
     1
 10
0.0
 20
0.0
  0
CIRCLE
  5
1DB
100
AcDbEntity
  8
ASSEMBLY_OUTLINES_TOP
100
AcDbCircle
 10
-31.3
 20
99.05
 30
0.0
 40
0.25
  0
HATCH
  5
1DC
100
AcDbEntity
  8
ASSEMBLY_OUTLINES_TOP
100
AcDbHatch
 10
0.0
 20
0.0
 30
0.0
 210
0.0
 220
0.0
 230
1.0
  2
SOLID
 70
         1
 71
        1
 91
        1
  92
     1
  93
     1
 72
     2
 10
-31.3
 20
99.05
  40
0.25
  50
     0.0
  51
     360.0
 73
     0
  97
     1
  330
    475
 75
     0
 76
     1
  98
     1
 10
0.0
 20
0.0
  0
CIRCLE
  5
1DD
100
AcDbEntity
  8
ASSEMBLY_OUTLINES_TOP
100
AcDbCircle
 10
-29.3
 20
99.05
 30
0.0
 40
0.25
  0
HATCH
  5
1DE
100
AcDbEntity
  8
ASSEMBLY_OUTLINES_TOP
100
AcDbHatch
 10
0.0
 20
0.0
 30
0.0
 210
0.0
 220
0.0
 230
1.0
  2
SOLID
 70
         1
 71
        1
 91
        1
  92
     1
  93
     1
 72
     2
 10
-29.3
 20
99.05
  40
0.25
  50
     0.0
  51
     360.0
 73
     0
  97
     1
  330
    477
 75
     0
 76
     1
  98
     1
 10
0.0
 20
0.0
  0
CIRCLE
  5
1DF
100
AcDbEntity
  8
ASSEMBLY_OUTLINES_TOP
100
AcDbCircle
 10
-27.3
 20
99.05
 30
0.0
 40
0.25
  0
HATCH
  5
1E0
100
AcDbEntity
  8
ASSEMBLY_OUTLINES_TOP
100
AcDbHatch
 10
0.0
 20
0.0
 30
0.0
 210
0.0
 220
0.0
 230
1.0
  2
SOLID
 70
         1
 71
        1
 91
        1
  92
     1
  93
     1
 72
     2
 10
-27.3
 20
99.05
  40
0.25
  50
     0.0
  51
     360.0
 73
     0
  97
     1
  330
    479
 75
     0
 76
     1
  98
     1
 10
0.0
 20
0.0
  0
CIRCLE
  5
1E1
100
AcDbEntity
  8
ASSEMBLY_OUTLINES_TOP
100
AcDbCircle
 10
-25.3
 20
99.05
 30
0.0
 40
0.25
  0
HATCH
  5
1E2
100
AcDbEntity
  8
ASSEMBLY_OUTLINES_TOP
100
AcDbHatch
 10
0.0
 20
0.0
 30
0.0
 210
0.0
 220
0.0
 230
1.0
  2
SOLID
 70
         1
 71
        1
 91
        1
  92
     1
  93
     1
 72
     2
 10
-25.3
 20
99.05
  40
0.25
  50
     0.0
  51
     360.0
 73
     0
  97
     1
  330
    481
 75
     0
 76
     1
  98
     1
 10
0.0
 20
0.0
  0
CIRCLE
  5
1E3
100
AcDbEntity
  8
ASSEMBLY_OUTLINES_TOP
100
AcDbCircle
 10
-23.3
 20
99.05
 30
0.0
 40
0.25
  0
HATCH
  5
1E4
100
AcDbEntity
  8
ASSEMBLY_OUTLINES_TOP
100
AcDbHatch
 10
0.0
 20
0.0
 30
0.0
 210
0.0
 220
0.0
 230
1.0
  2
SOLID
 70
         1
 71
        1
 91
        1
  92
     1
  93
     1
 72
     2
 10
-23.3
 20
99.05
  40
0.25
  50
     0.0
  51
     360.0
 73
     0
  97
     1
  330
    483
 75
     0
 76
     1
  98
     1
 10
0.0
 20
0.0
  0
CIRCLE
  5
1E5
100
AcDbEntity
  8
ASSEMBLY_OUTLINES_TOP
100
AcDbCircle
 10
-21.3
 20
99.05
 30
0.0
 40
0.25
  0
HATCH
  5
1E6
100
AcDbEntity
  8
ASSEMBLY_OUTLINES_TOP
100
AcDbHatch
 10
0.0
 20
0.0
 30
0.0
 210
0.0
 220
0.0
 230
1.0
  2
SOLID
 70
         1
 71
        1
 91
        1
  92
     1
  93
     1
 72
     2
 10
-21.3
 20
99.05
  40
0.25
  50
     0.0
  51
     360.0
 73
     0
  97
     1
  330
    485
 75
     0
 76
     1
  98
     1
 10
0.0
 20
0.0
  0
CIRCLE
  5
1E7
100
AcDbEntity
  8
ASSEMBLY_OUTLINES_TOP
100
AcDbCircle
 10
-19.3
 20
99.05
 30
0.0
 40
0.25
  0
HATCH
  5
1E8
100
AcDbEntity
  8
ASSEMBLY_OUTLINES_TOP
100
AcDbHatch
 10
0.0
 20
0.0
 30
0.0
 210
0.0
 220
0.0
 230
1.0
  2
SOLID
 70
         1
 71
        1
 91
        1
  92
     1
  93
     1
 72
     2
 10
-19.3
 20
99.05
  40
0.25
  50
     0.0
  51
     360.0
 73
     0
  97
     1
  330
    487
 75
     0
 76
     1
  98
     1
 10
0.0
 20
0.0
  0
CIRCLE
  5
1E9
100
AcDbEntity
  8
ASSEMBLY_OUTLINES_TOP
100
AcDbCircle
 10
-17.3
 20
99.05
 30
0.0
 40
0.25
  0
HATCH
  5
1EA
100
AcDbEntity
  8
ASSEMBLY_OUTLINES_TOP
100
AcDbHatch
 10
0.0
 20
0.0
 30
0.0
 210
0.0
 220
0.0
 230
1.0
  2
SOLID
 70
         1
 71
        1
 91
        1
  92
     1
  93
     1
 72
     2
 10
-17.3
 20
99.05
  40
0.25
  50
     0.0
  51
     360.0
 73
     0
  97
     1
  330
    489
 75
     0
 76
     1
  98
     1
 10
0.0
 20
0.0
  0
CIRCLE
  5
1EB
100
AcDbEntity
  8
ASSEMBLY_OUTLINES_TOP
100
AcDbCircle
 10
-15.3
 20
99.05
 30
0.0
 40
0.25
  0
HATCH
  5
1EC
100
AcDbEntity
  8
ASSEMBLY_OUTLINES_TOP
100
AcDbHatch
 10
0.0
 20
0.0
 30
0.0
 210
0.0
 220
0.0
 230
1.0
  2
SOLID
 70
         1
 71
        1
 91
        1
  92
     1
  93
     1
 72
     2
 10
-15.3
 20
99.05
  40
0.25
  50
     0.0
  51
     360.0
 73
     0
  97
     1
  330
    491
 75
     0
 76
     1
  98
     1
 10
0.0
 20
0.0
  0
CIRCLE
  5
1ED
100
AcDbEntity
  8
ASSEMBLY_OUTLINES_TOP
100
AcDbCircle
 10
-13.3
 20
99.05
 30
0.0
 40
0.25
  0
HATCH
  5
1EE
100
AcDbEntity
  8
ASSEMBLY_OUTLINES_TOP
100
AcDbHatch
 10
0.0
 20
0.0
 30
0.0
 210
0.0
 220
0.0
 230
1.0
  2
SOLID
 70
         1
 71
        1
 91
        1
  92
     1
  93
     1
 72
     2
 10
-13.3
 20
99.05
  40
0.25
  50
     0.0
  51
     360.0
 73
     0
  97
     1
  330
    493
 75
     0
 76
     1
  98
     1
 10
0.0
 20
0.0
  0
CIRCLE
  5
1EF
100
AcDbEntity
  8
ASSEMBLY_OUTLINES_TOP
100
AcDbCircle
 10
-11.3
 20
99.05
 30
0.0
 40
0.25
  0
HATCH
  5
1F0
100
AcDbEntity
  8
ASSEMBLY_OUTLINES_TOP
100
AcDbHatch
 10
0.0
 20
0.0
 30
0.0
 210
0.0
 220
0.0
 230
1.0
  2
SOLID
 70
         1
 71
        1
 91
        1
  92
     1
  93
     1
 72
     2
 10
-11.3
 20
99.05
  40
0.25
  50
     0.0
  51
     360.0
 73
     0
  97
     1
  330
    495
 75
     0
 76
     1
  98
     1
 10
0.0
 20
0.0
  0
CIRCLE
  5
1F1
100
AcDbEntity
  8
ASSEMBLY_OUTLINES_TOP
100
AcDbCircle
 10
-9.3
 20
99.05
 30
0.0
 40
0.25
  0
HATCH
  5
1F2
100
AcDbEntity
  8
ASSEMBLY_OUTLINES_TOP
100
AcDbHatch
 10
0.0
 20
0.0
 30
0.0
 210
0.0
 220
0.0
 230
1.0
  2
SOLID
 70
         1
 71
        1
 91
        1
  92
     1
  93
     1
 72
     2
 10
-9.3
 20
99.05
  40
0.25
  50
     0.0
  51
     360.0
 73
     0
  97
     1
  330
    497
 75
     0
 76
     1
  98
     1
 10
0.0
 20
0.0
  0
CIRCLE
  5
1F3
100
AcDbEntity
  8
ASSEMBLY_OUTLINES_TOP
100
AcDbCircle
 10
-7.3
 20
99.05
 30
0.0
 40
0.25
  0
HATCH
  5
1F4
100
AcDbEntity
  8
ASSEMBLY_OUTLINES_TOP
100
AcDbHatch
 10
0.0
 20
0.0
 30
0.0
 210
0.0
 220
0.0
 230
1.0
  2
SOLID
 70
         1
 71
        1
 91
        1
  92
     1
  93
     1
 72
     2
 10
-7.3
 20
99.05
  40
0.25
  50
     0.0
  51
     360.0
 73
     0
  97
     1
  330
    499
 75
     0
 76
     1
  98
     1
 10
0.0
 20
0.0
  0
CIRCLE
  5
1F5
100
AcDbEntity
  8
ASSEMBLY_OUTLINES_TOP
100
AcDbCircle
 10
-5.3
 20
99.05
 30
0.0
 40
0.25
  0
HATCH
  5
1F6
100
AcDbEntity
  8
ASSEMBLY_OUTLINES_TOP
100
AcDbHatch
 10
0.0
 20
0.0
 30
0.0
 210
0.0
 220
0.0
 230
1.0
  2
SOLID
 70
         1
 71
        1
 91
        1
  92
     1
  93
     1
 72
     2
 10
-5.3
 20
99.05
  40
0.25
  50
     0.0
  51
     360.0
 73
     0
  97
     1
  330
    501
 75
     0
 76
     1
  98
     1
 10
0.0
 20
0.0
  0
CIRCLE
  5
1F7
100
AcDbEntity
  8
ASSEMBLY_OUTLINES_TOP
100
AcDbCircle
 10
-3.3
 20
99.05
 30
0.0
 40
0.25
  0
HATCH
  5
1F8
100
AcDbEntity
  8
ASSEMBLY_OUTLINES_TOP
100
AcDbHatch
 10
0.0
 20
0.0
 30
0.0
 210
0.0
 220
0.0
 230
1.0
  2
SOLID
 70
         1
 71
        1
 91
        1
  92
     1
  93
     1
 72
     2
 10
-3.3
 20
99.05
  40
0.25
  50
     0.0
  51
     360.0
 73
     0
  97
     1
  330
    503
 75
     0
 76
     1
  98
     1
 10
0.0
 20
0.0
  0
CIRCLE
  5
1F9
100
AcDbEntity
  8
ASSEMBLY_OUTLINES_TOP
100
AcDbCircle
 10
-1.3
 20
99.05
 30
0.0
 40
0.25
  0
HATCH
  5
1FA
100
AcDbEntity
  8
ASSEMBLY_OUTLINES_TOP
100
AcDbHatch
 10
0.0
 20
0.0
 30
0.0
 210
0.0
 220
0.0
 230
1.0
  2
SOLID
 70
         1
 71
        1
 91
        1
  92
     1
  93
     1
 72
     2
 10
-1.3
 20
99.05
  40
0.25
  50
     0.0
  51
     360.0
 73
     0
  97
     1
  330
    505
 75
     0
 76
     1
  98
     1
 10
0.0
 20
0.0
  0
TEXT
  5
1FB
100
AcDbEntity
  8
ASSEMBLY_REF_DES_TOP
100
AcDbText
 10
-72.2935
 20
43.3725
 30
0.0
 40
1.000000
 41
1.000000
  1
SW1
  50
270.0
  7
GOST_TYPE_B
 72
 1
 11
-71.8
 21
42.2
 31
0.0
100
AcDbText
 73
 2
  0
TEXT
  5
1FC
100
AcDbEntity
  8
ASSEMBLY_REF_DES_TOP
100
AcDbText
 10
-88.7935
 20
54.0745
 30
0.0
 40
1.000000
 41
1.000000
  1
DA1
  50
270.0
  7
GOST_TYPE_B
 72
 1
 11
-88.3
 21
53.0
 31
0.0
100
AcDbText
 73
 2
  0
TEXT
  5
1FD
100
AcDbEntity
  8
ASSEMBLY_REF_DES_TOP
100
AcDbText
 10
-66.0935
 20
99.2225
 30
0.0
 40
1.000000
 41
1.000000
  1
DA2
  50
270.0
  7
GOST_TYPE_B
 72
 1
 11
-65.6
 21
98.05
 31
0.0
100
AcDbText
 73
 2
  0
TEXT
  5
1FE
100
AcDbEntity
  8
ASSEMBLY_REF_DES_TOP
100
AcDbText
 10
-48.272
 20
36.4565
 30
0.0
 40
1.000000
 41
1.000000
  1
DA3
  7
GOST_TYPE_B
 72
 1
 11
-47.1
 21
36.95
 31
0.0
100
AcDbText
 73
 2
  0
TEXT
  5
1FF
100
AcDbEntity
  8
ASSEMBLY_REF_DES_TOP
100
AcDbText
 10
-23.675
 20
67.4065
 30
0.0
 40
1.000000
 41
1.000000
  1
DD1
  7
GOST_TYPE_B
 72
 1
 11
-22.65
 21
67.9
 31
0.0
100
AcDbText
 73
 2
  0
TEXT
  5
200
100
AcDbEntity
  8
ASSEMBLY_REF_DES_TOP
100
AcDbText
 10
-90.0
 20
58.1
 30
0.0
 40
1.500000
 41
1.000000
  1
VD1
  7
VERIBEST_GERBER_0
 72
 1
 11
-87.9
 21
58.85
 31
0.0
100
AcDbText
 73
 2
  0
TEXT
  5
201
100
AcDbEntity
  8
ASSEMBLY_REF_DES_TOP
100
AcDbText
 10
-39.14675
 20
57.93625
 30
0.0
 40
0.500000
 41
1.000000
  1
VD2
  50
270.0
  7
GOST_TYPE_B
 72
 1
 11
-38.9
 21
57.35
 31
0.0
100
AcDbText
 73
 2
  0
TEXT
  5
202
100
AcDbEntity
  8
ASSEMBLY_REF_DES_TOP
100
AcDbText
 10
-89.6102
 20
50.00455
 30
0.0
 40
0.700000
 41
1.000000
  1
C1
  7
GOST_TYPE_B
 72
 1
 11
-89.2
 21
50.35
 31
0.0
100
AcDbText
 73
 2
  0
TEXT
  5
203
100
AcDbEntity
  8
ASSEMBLY_REF_DES_TOP
100
AcDbText
 10
-54.5
 20
43.15
 30
0.0
 40
1.000000
 41
1.000000
  1
J1
  50
270.0
  7
VERIBEST_GERBER_0
 11
-53.5
 21
43.15
 31
0.0
100
AcDbText
 73
 3
  0
TEXT
  5
204
100
AcDbEntity
  8
ASSEMBLY_REF_DES_TOP
100
AcDbText
 10
-90.236
 20
55.2565
 30
0.0
 40
1.000000
 41
1.000000
  1
L1
  7
GOST_TYPE_B
 72
 1
 11
-89.65
 21
55.75
 31
0.0
100
AcDbText
 73
 2
  0
TEXT
  5
205
100
AcDbEntity
  8
ASSEMBLY_REF_DES_TOP
100
AcDbText
 10
-92.34545
 20
50.8945
 30
0.0
 40
0.700000
 41
1.000000
  1
R1
  50
270.0
  7
GOST_TYPE_B
 72
 1
 11
-92.0
 21
50.45
 31
0.0
100
AcDbText
 73
 2
  0
TEXT
  5
206
100
AcDbEntity
  8
ASSEMBLY_REF_DES_TOP
100
AcDbText
 10
-80.7935
 20
9.735
 30
0.0
 40
1.000000
 41
1.000000
  1
T1
  50
270.0
  7
GOST_TYPE_B
 72
 1
 11
-80.3
 21
9.1
 31
0.0
100
AcDbText
 73
 2
  0
TEXT
  5
207
100
AcDbEntity
  8
ASSEMBLY_REF_DES_TOP
100
AcDbText
 10
-90.9788
 20
97.05805
 30
0.0
 40
0.700000
 41
1.000000
  1
X1
  7
GOST_D
 72
 1
 11
-90.5
 21
97.4
 31
0.0
100
AcDbText
 73
 2
  0
TEXT
  5
208
100
AcDbEntity
  8
ASSEMBLY_REF_DES_TOP
100
AcDbText
 10
-85.24545
 20
53.6288
 30
0.0
 40
0.700000
 41
1.000000
  1
C2
  50
270.0
  7
GOST_TYPE_B
 72
 1
 11
-84.9
 21
53.15
 31
0.0
100
AcDbText
 73
 2
  0
TEXT
  5
209
100
AcDbEntity
  8
ASSEMBLY_REF_DES_TOP
100
AcDbText
 10
-87.184
 20
55.2565
 30
0.0
 40
1.000000
 41
1.000000
  1
L2
  7
GOST_TYPE_B
 72
 1
 11
-86.5
 21
55.75
 31
0.0
100
AcDbText
 73
 2
  0
TEXT
  5
20A
100
AcDbEntity
  8
ASSEMBLY_REF_DES_TOP
100
AcDbText
 10
-92.24545
 20
53.9631
 30
0.0
 40
0.700000
 41
1.000000
  1
R2
  50
270.0
  7
GOST_TYPE_B
 72
 1
 11
-91.9
 21
53.45
 31
0.0
100
AcDbText
 73
 2
  0
TEXT
  5
20B
100
AcDbEntity
  8
ASSEMBLY_REF_DES_TOP
100
AcDbText
 10
-89.5935
 20
24.4815
 30
0.0
 40
1.000000
 41
1.000000
  1
X2
  50
270.0
  7
GOST_TYPE_B
 72
 1
 11
-89.1
 21
23.7
 31
0.0
100
AcDbText
 73
 2
  0
TEXT
  5
20C
100
AcDbEntity
  8
ASSEMBLY_REF_DES_TOP
100
AcDbText
 10
-91.3265
 20
88.8565
 30
0.0
 40
1.000000
 41
1.000000
  1
HL1
  7
GOST_TYPE_B
 72
 1
 11
-90.35
 21
89.35
 31
0.0
100
AcDbText
 73
 2
  0
TEXT
  5
20D
100
AcDbEntity
  8
ASSEMBLY_REF_DES_TOP
100
AcDbText
 10
-83.0788
 20
51.60455
 30
0.0
 40
0.700000
 41
1.000000
  1
C3
  7
GOST_TYPE_B
 72
 1
 11
-82.6
 21
51.95
 31
0.0
100
AcDbText
 73
 2
  0
TEXT
  5
20E
100
AcDbEntity
  8
ASSEMBLY_REF_DES_TOP
100
AcDbText
 10
-63.184
 20
100.1065
 30
0.0
 40
1.000000
 41
1.000000
  1
L3
  7
GOST_TYPE_B
 72
 1
 11
-62.5
 21
100.6
 31
0.0
100
AcDbText
 73
 2
  0
TEXT
  5
20F
100
AcDbEntity
  8
ASSEMBLY_REF_DES_TOP
100
AcDbText
 10
-89.46275
 20
28.95455
 30
0.0
 40
0.700000
 41
1.000000
  1
R3
  7
GOST_TYPE_B
 72
 1
 11
-88.95
 21
29.3
 31
0.0
100
AcDbText
 73
 2
  0
TEXT
  5
210
100
AcDbEntity
  8
ASSEMBLY_REF_DES_TOP
100
AcDbText
 10
-90.09545
 20
74.64705
 30
0.0
 40
0.700000
 41
1.000000
  1
X3
  50
270.0
  7
GOST_TYPE_B
 72
 1
 11
-89.75
 21
74.1
 31
0.0
100
AcDbText
 73
 2
  0
TEXT
  5
211
100
AcDbEntity
  8
ASSEMBLY_REF_DES_TOP
100
AcDbText
 10
-83.11275
 20
53.05455
 30
0.0
 40
0.700000
 41
1.000000
  1
C4
  7
GOST_TYPE_B
 72
 1
 11
-82.6
 21
53.4
 31
0.0
100
AcDbText
 73
 2
  0
TEXT
  5
212
100
AcDbEntity
  8
ASSEMBLY_REF_DES_TOP
100
AcDbText
 10
-48.0825
 20
33.2065
 30
0.0
 40
1.000000
 41
1.000000
  1
L4
  7
GOST_TYPE_B
 72
 1
 11
-47.35
 21
33.7
 31
0.0
100
AcDbText
 73
 2
  0
TEXT
  5
213
100
AcDbEntity
  8
ASSEMBLY_REF_DES_TOP
100
AcDbText
 10
-89.4967
 20
30.45455
 30
0.0
 40
0.700000
 41
1.000000
  1
R4
  7
GOST_TYPE_B
 72
 1
 11
-88.95
 21
30.8
 31
0.0
100
AcDbText
 73
 2
  0
TEXT
  5
214
100
AcDbEntity
  8
ASSEMBLY_REF_DES_TOP
100
AcDbText
 10
-82.0935
 20
41.7805
 30
0.0
 40
1.000000
 41
1.000000
  1
X4
  50
270.0
  7
GOST_TYPE_B
 72
 1
 11
-81.6
 21
40.95
 31
0.0
100
AcDbText
 73
 2
  0
TEXT
  5
215
100
AcDbEntity
  8
ASSEMBLY_REF_DES_TOP
100
AcDbText
 10
-83.0788
 20
54.55455
 30
0.0
 40
0.700000
 41
1.000000
  1
C5
  7
GOST_TYPE_B
 72
 1
 11
-82.6
 21
54.9
 31
0.0
100
AcDbText
 73
 2
  0
TEXT
  5
216
100
AcDbEntity
  8
ASSEMBLY_REF_DES_TOP
100
AcDbText
 10
-89.76275
 20
48.50455
 30
0.0
 40
0.700000
 41
1.000000
  1
R5
  7
GOST_TYPE_B
 72
 1
 11
-89.25
 21
48.85
 31
0.0
100
AcDbText
 73
 2
  0
TEXT
  5
217
100
AcDbEntity
  8
ASSEMBLY_REF_DES_TOP
100
AcDbText
 10
-76.095906
 20
66.913
 30
0.0
 40
1.000000
 41
1.000000
  1
X5
  50
270.0
  7
GOST_TYPE_B
 72
 2
 11
-76.095906
 21
65.35
 31
0.0
100
AcDbText
 73
 1
  0
TEXT
  5
218
100
AcDbEntity
  8
ASSEMBLY_REF_DES_TOP
100
AcDbText
 10
-83.0788
 20
56.00455
 30
0.0
 40
0.700000
 41
1.000000
  1
C6
  7
GOST_TYPE_B
 72
 1
 11
-82.6
 21
56.35
 31
0.0
100
AcDbText
 73
 2
  0
TEXT
  5
219
100
AcDbEntity
  8
ASSEMBLY_REF_DES_TOP
100
AcDbText
 10
-87.46275
 20
89.05455
 30
0.0
 40
0.700000
 41
1.000000
  1
R6
  7
GOST_TYPE_B
 72
 1
 11
-86.95
 21
89.4
 31
0.0
100
AcDbText
 73
 2
  0
TEXT
  5
21A
100
AcDbEntity
  8
ASSEMBLY_REF_DES_TOP
100
AcDbText
 10
-59.4935
 20
15.7815
 30
0.0
 40
1.000000
 41
1.000000
  1
X6
  50
270.0
  7
GOST_TYPE_B
 72
 1
 11
-59.0
 21
15.0
 31
0.0
100
AcDbText
 73
 2
  0
TEXT
  5
21B
100
AcDbEntity
  8
ASSEMBLY_REF_DES_TOP
100
AcDbText
 10
-83.6288
 20
57.65455
 30
0.0
 40
0.700000
 41
1.000000
  1
C7
  7
GOST_TYPE_B
 72
 1
 11
-83.15
 21
58.0
 31
0.0
100
AcDbText
 73
 2
  0
TEXT
  5
21C
100
AcDbEntity
  8
ASSEMBLY_REF_DES_TOP
100
AcDbText
 10
-65.89545
 20
40.3996
 30
0.0
 40
0.700000
 41
1.000000
  1
C10
  50
270.0
  7
GOST_TYPE_B
 72
 1
 11
-65.55
 21
39.75
 31
0.0
100
AcDbText
 73
 2
  0
TEXT
  5
21D
100
AcDbEntity
  8
ASSEMBLY_REF_DES_TOP
100
AcDbText
 10
-66.781
 20
100.15455
 30
0.0
 40
0.700000
 41
1.000000
  1
C11
  7
GOST_TYPE_B
 72
 1
 11
-66.2
 21
100.5
 31
0.0
100
AcDbText
 73
 2
  0
TEXT
  5
21E
100
AcDbEntity
  8
ASSEMBLY_REF_DES_TOP
100
AcDbText
 10
-62.74545
 20
33.9996
 30
0.0
 40
0.700000
 41
1.000000
  1
C12
  50
270.0
  7
GOST_TYPE_B
 72
 1
 11
-62.4
 21
33.35
 31
0.0
100
AcDbText
 73
 2
  0
TEXT
  5
21F
100
AcDbEntity
  8
ASSEMBLY_REF_DES_TOP
100
AcDbText
 10
-62.74545
 20
98.7496
 30
0.0
 40
0.700000
 41
1.000000
  1
C13
  50
270.0
  7
GOST_TYPE_B
 72
 1
 11
-62.4
 21
98.1
 31
0.0
100
AcDbText
 73
 2
  0
TEXT
  5
220
100
AcDbEntity
  8
ASSEMBLY_REF_DES_TOP
100
AcDbText
 10
-66.23355
 20
95.35455
 30
0.0
 40
0.700000
 41
1.000000
  1
R10
  7
GOST_TYPE_B
 72
 1
 11
-65.55
 21
95.7
 31
0.0
100
AcDbText
 73
 2
  0
TEXT
  5
221
100
AcDbEntity
  8
ASSEMBLY_REF_DES_TOP
100
AcDbText
 10
-83.56275
 20
27.95455
 30
0.0
 40
0.700000
 41
1.000000
  1
R7
  7
GOST_TYPE_B
 72
 1
 11
-83.05
 21
28.3
 31
0.0
100
AcDbText
 73
 2
  0
TEXT
  5
222
100
AcDbEntity
  8
ASSEMBLY_REF_DES_TOP
100
AcDbText
 10
-61.34545
 20
34.0339
 30
0.0
 40
0.700000
 41
1.000000
  1
C14
  50
270.0
  7
GOST_TYPE_B
 72
 1
 11
-61.0
 21
33.35
 31
0.0
100
AcDbText
 73
 2
  0
TEXT
  5
223
100
AcDbEntity
  8
ASSEMBLY_REF_DES_TOP
100
AcDbText
 10
-64.09545
 20
33.9153
 30
0.0
 40
0.700000
 41
1.000000
  1
R11
  50
270.0
  7
GOST_TYPE_B
 72
 1
 11
-63.75
 21
33.3
 31
0.0
100
AcDbText
 73
 2
  0
TEXT
  5
224
100
AcDbEntity
  8
ASSEMBLY_REF_DES_TOP
100
AcDbText
 10
-61.34545
 20
98.7496
 30
0.0
 40
0.700000
 41
1.000000
  1
C15
  50
270.0
  7
GOST_TYPE_B
 72
 1
 11
-61.0
 21
98.1
 31
0.0
100
AcDbText
 73
 2
  0
TEXT
  5
225
100
AcDbEntity
  8
ASSEMBLY_REF_DES_TOP
100
AcDbText
 10
-7.5435
 20
13.1755
 30
0.0
 40
1.000000
 41
1.000000
  1
X10
  50
270.0
  7
GOST_TYPE_B
 72
 1
 11
-7.05
 21
12.15
 31
0.0
100
AcDbText
 73
 2
  0
TEXT
  5
226
100
AcDbEntity
  8
ASSEMBLY_REF_DES_TOP
100
AcDbText
 10
-45.095906
 20
66.913
 30
0.0
 40
1.000000
 41
1.000000
  1
X7
  50
270.0
  7
GOST_TYPE_B
 72
 2
 11
-45.095906
 21
65.35
 31
0.0
100
AcDbText
 73
 1
  0
TEXT
  5
227
100
AcDbEntity
  8
ASSEMBLY_REF_DES_TOP
100
AcDbText
 10
-64.49545
 20
40.4839
 30
0.0
 40
0.700000
 41
1.000000
  1
R12
  50
270.0
  7
GOST_TYPE_B
 72
 1
 11
-64.15
 21
39.8
 31
0.0
100
AcDbText
 73
 2
  0
TEXT
  5
228
100
AcDbEntity
  8
ASSEMBLY_REF_DES_TOP
100
AcDbText
 10
-47.9996
 20
31.20455
 30
0.0
 40
0.700000
 41
1.000000
  1
C16
  7
GOST_TYPE_B
 72
 1
 11
-47.35
 21
31.55
 31
0.0
100
AcDbText
 73
 2
  0
TEXT
  5
229
100
AcDbEntity
  8
ASSEMBLY_REF_DES_TOP
100
AcDbText
 10
-7.6435
 20
23.3775
 30
0.0
 40
1.000000
 41
1.000000
  1
X11
  50
270.0
  7
GOST_TYPE_B
 72
 1
 11
-7.15
 21
22.45
 31
0.0
100
AcDbText
 73
 2
  0
TEXT
  5
22A
100
AcDbEntity
  8
ASSEMBLY_REF_DES_TOP
100
AcDbText
 10
-63.09545
 20
40.4839
 30
0.0
 40
0.700000
 41
1.000000
  1
R13
  50
270.0
  7
GOST_TYPE_B
 72
 1
 11
-62.75
 21
39.8
 31
0.0
100
AcDbText
 73
 2
  0
TEXT
  5
22B
100
AcDbEntity
  8
ASSEMBLY_REF_DES_TOP
100
AcDbText
 10
-45.04545
 20
34.6996
 30
0.0
 40
0.700000
 41
1.000000
  1
C17
  50
270.0
  7
GOST_TYPE_B
 72
 1
 11
-44.7
 21
34.05
 31
0.0
100
AcDbText
 73
 2
  0
TEXT
  5
22C
100
AcDbEntity
  8
ASSEMBLY_REF_DES_TOP
100
AcDbText
 10
-62.9175
 20
95.25455
 30
0.0
 40
0.700000
 41
1.000000
  1
R14
  7
GOST_TYPE_B
 72
 1
 11
-62.2
 21
95.6
 31
0.0
100
AcDbText
 73
 2
  0
TEXT
  5
22D
100
AcDbEntity
  8
ASSEMBLY_REF_DES_TOP
100
AcDbText
 10
-45.04545
 20
37.9839
 30
0.0
 40
0.700000
 41
1.000000
  1
C18
  50
270.0
  7
GOST_TYPE_B
 72
 1
 11
-44.7
 21
37.3
 31
0.0
100
AcDbText
 73
 2
  0
TEXT
  5
22E
100
AcDbEntity
  8
ASSEMBLY_REF_DES_TOP
100
AcDbText
 10
-69.49545
 20
8.3131
 30
0.0
 40
0.700000
 41
1.000000
  1
C8
  50
270.0
  7
GOST_TYPE_B
 72
 1
 11
-69.15
 21
7.8
 31
0.0
100
AcDbText
 73
 2
  0
TEXT
  5
22F
100
AcDbEntity
  8
ASSEMBLY_REF_DES_TOP
100
AcDbText
 10
-27.9682
 20
63.75455
 30
0.0
 40
0.700000
 41
1.000000
  1
C20
  7
GOST_TYPE_B
 72
 1
 11
-27.25
 21
64.1
 31
0.0
100
AcDbText
 73
 2
  0
TEXT
  5
230
100
AcDbEntity
  8
ASSEMBLY_REF_DES_TOP
100
AcDbText
 10
-59.89545
 20
33.9839
 30
0.0
 40
0.700000
 41
1.000000
  1
R15
  50
270.0
  7
GOST_TYPE_B
 72
 1
 11
-59.55
 21
33.3
 31
0.0
100
AcDbText
 73
 2
  0
TEXT
  5
231
100
AcDbEntity
  8
ASSEMBLY_REF_DES_TOP
100
AcDbText
 10
-24.2996
 20
56.40455
 30
0.0
 40
0.700000
 41
1.000000
  1
C21
  7
GOST_TYPE_B
 72
 1
 11
-23.65
 21
56.75
 31
0.0
100
AcDbText
 73
 2
  0
TEXT
  5
232
100
AcDbEntity
  8
ASSEMBLY_REF_DES_TOP
100
AcDbText
 10
-26.29545
 20
60.0496
 30
0.0
 40
0.700000
 41
1.000000
  1
C19
  50
270.0
  7
GOST_TYPE_B
 72
 1
 11
-25.95
 21
59.4
 31
0.0
100
AcDbText
 73
 2
  0
TEXT
  5
233
100
AcDbEntity
  8
ASSEMBLY_REF_DES_TOP
100
AcDbText
 10
-59.64545
 20
98.7839
 30
0.0
 40
0.700000
 41
1.000000
  1
R16
  50
270.0
  7
GOST_TYPE_B
 72
 1
 11
-59.3
 21
98.1
 31
0.0
100
AcDbText
 73
 2
  0
TEXT
  5
234
100
AcDbEntity
  8
ASSEMBLY_REF_DES_TOP
100
AcDbText
 10
-23.89545
 20
74.2682
 30
0.0
 40
0.700000
 41
1.000000
  1
C22
  50
270.0
  7
GOST_TYPE_B
 72
 1
 11
-23.55
 21
73.55
 31
0.0
100
AcDbText
 73
 2
  0
TEXT
  5
235
100
AcDbEntity
  8
ASSEMBLY_REF_DES_TOP
100
AcDbText
 10
-54.29545
 20
36.8339
 30
0.0
 40
0.700000
 41
1.000000
  1
R17
  50
270.0
  7
GOST_TYPE_B
 72
 1
 11
-53.95
 21
36.15
 31
0.0
100
AcDbText
 73
 2
  0
TEXT
  5
236
100
AcDbEntity
  8
ASSEMBLY_REF_DES_TOP
100
AcDbText
 10
-22.54545
 20
74.2682
 30
0.0
 40
0.700000
 41
1.000000
  1
C23
  50
270.0
  7
GOST_TYPE_B
 72
 1
 11
-22.2
 21
73.55
 31
0.0
100
AcDbText
 73
 2
  0
TEXT
  5
237
100
AcDbEntity
  8
ASSEMBLY_REF_DES_TOP
100
AcDbText
 10
-50.29545
 20
35.2182
 30
0.0
 40
0.700000
 41
1.000000
  1
R18
  50
270.0
  7
GOST_TYPE_B
 72
 1
 11
-49.95
 21
34.5
 31
0.0
100
AcDbText
 73
 2
  0
TEXT
  5
238
100
AcDbEntity
  8
ASSEMBLY_REF_DES_TOP
100
AcDbText
 10
-83.5967
 20
29.70455
 30
0.0
 40
0.700000
 41
1.000000
  1
R8
  7
GOST_TYPE_B
 72
 1
 11
-83.05
 21
30.05
 31
0.0
100
AcDbText
 73
 2
  0
TEXT
  5
239
100
AcDbEntity
  8
ASSEMBLY_REF_DES_TOP
100
AcDbText
 10
-30.10215
 20
65.85455
 30
0.0
 40
0.700000
 41
1.000000
  1
R20
  7
GOST_TYPE_B
 72
 1
 11
-29.35
 21
66.2
 31
0.0
100
AcDbText
 73
 2
  0
TEXT
  5
23A
100
AcDbEntity
  8
ASSEMBLY_REF_DES_TOP
100
AcDbText
 10
-21.49545
 20
63.2025
 30
0.0
 40
0.700000
 41
1.000000
  1
C24
  50
270.0
  7
GOST_TYPE_B
 72
 1
 11
-21.15
 21
62.45
 31
0.0
100
AcDbText
 73
 2
  0
TEXT
  5
23B
100
AcDbEntity
  8
ASSEMBLY_REF_DES_TOP
100
AcDbText
 10
-24.812812
 20
58.880862
 30
0.0
 40
1.000000
 41
1.000000
  1
ZQ1
  7
GOST_TYPE_B
 72
 1
 11
-23.689812
 21
59.374362
 31
0.0
100
AcDbText
 73
 2
  0
TEXT
  5
23C
100
AcDbEntity
  8
ASSEMBLY_REF_DES_TOP
100
AcDbText
 10
-50.24545
 20
38.1839
 30
0.0
 40
0.700000
 41
1.000000
  1
R19
  50
270.0
  7
GOST_TYPE_B
 72
 1
 11
-49.9
 21
37.5
 31
0.0
100
AcDbText
 73
 2
  0
TEXT
  5
23D
100
AcDbEntity
  8
ASSEMBLY_REF_DES_TOP
100
AcDbText
 10
-29.98355
 20
67.40455
 30
0.0
 40
0.700000
 41
1.000000
  1
R21
  7
GOST_TYPE_B
 72
 1
 11
-29.3
 21
67.75
 31
0.0
100
AcDbText
 73
 2
  0
TEXT
  5
23E
100
AcDbEntity
  8
ASSEMBLY_REF_DES_TOP
100
AcDbText
 10
-20.94545
 20
74.2682
 30
0.0
 40
0.700000
 41
1.000000
  1
C25
  50
270.0
  7
GOST_TYPE_B
 72
 1
 11
-20.6
 21
73.55
 31
0.0
100
AcDbText
 73
 2
  0
TEXT
  5
23F
100
AcDbEntity
  8
ASSEMBLY_REF_DES_TOP
100
AcDbText
 10
-23.08
 20
34.0565
 30
0.0
 40
1.000000
 41
1.000000
  1
X8
  7
GOST_TYPE_B
 72
 1
 11
-22.25
 21
34.55
 31
0.0
100
AcDbText
 73
 2
  0
TEXT
  5
240
100
AcDbEntity
  8
ASSEMBLY_REF_DES_TOP
100
AcDbText
 10
-24.45215
 20
61.80455
 30
0.0
 40
0.700000
 41
1.000000
  1
R22
  7
GOST_TYPE_B
 72
 1
 11
-23.7
 21
62.15
 31
0.0
100
AcDbText
 73
 2
  0
TEXT
  5
241
100
AcDbEntity
  8
ASSEMBLY_REF_DES_TOP
100
AcDbText
 10
-18.6182
 20
64.30455
 30
0.0
 40
0.700000
 41
1.000000
  1
C26
  7
GOST_TYPE_B
 72
 1
 11
-17.9
 21
64.65
 31
0.0
100
AcDbText
 73
 2
  0
TEXT
  5
242
100
AcDbEntity
  8
ASSEMBLY_REF_DES_TOP
100
AcDbText
 10
-19.99545
 20
60.0525
 30
0.0
 40
0.700000
 41
1.000000
  1
R23
  50
270.0
  7
GOST_TYPE_B
 72
 1
 11
-19.65
 21
59.3
 31
0.0
100
AcDbText
 73
 2
  0
TEXT
  5
243
100
AcDbEntity
  8
ASSEMBLY_REF_DES_TOP
100
AcDbText
 10
-17.7182
 20
67.55455
 30
0.0
 40
0.700000
 41
1.000000
  1
C27
  7
GOST_TYPE_B
 72
 1
 11
-17.0
 21
67.9
 31
0.0
100
AcDbText
 73
 2
  0
TEXT
  5
244
100
AcDbEntity
  8
ASSEMBLY_REF_DES_TOP
100
AcDbText
 10
-20.09545
 20
63.2368
 30
0.0
 40
0.700000
 41
1.000000
  1
R24
  50
270.0
  7
GOST_TYPE_B
 72
 1
 11
-19.75
 21
62.45
 31
0.0
100
AcDbText
 73
 2
  0
TEXT
  5
245
100
AcDbEntity
  8
ASSEMBLY_REF_DES_TOP
100
AcDbText
 10
-67.29545
 20
40.2288
 30
0.0
 40
0.700000
 41
1.000000
  1
C9
  50
270.0
  7
GOST_TYPE_B
 72
 1
 11
-66.95
 21
39.75
 31
0.0
100
AcDbText
 73
 2
  0
TEXT
  5
246
100
AcDbEntity
  8
ASSEMBLY_REF_DES_TOP
100
AcDbText
 10
-71.29545
 20
63.2631
 30
0.0
 40
0.700000
 41
1.000000
  1
R9
  50
270.0
  7
GOST_TYPE_B
 72
 1
 11
-70.95
 21
62.75
 31
0.0
100
AcDbText
 73
 2
  0
TEXT
  5
247
100
AcDbEntity
  8
ASSEMBLY_REF_DES_TOP
100
AcDbText
 10
-23.0315
 20
97.5565
 30
0.0
 40
1.000000
 41
1.000000
  1
X9
  7
GOST_TYPE_B
 72
 1
 11
-22.25
 21
98.05
 31
0.0
100
AcDbText
 73
 2
  0
LWPOLYLINE
  5
248
100
AcDbEntity
  8
BOARD_OUTLINE
100
AcDbPolyline
 90
        4
 70
         1
 43
0.1
 10
-93.5
 20
0.0
 10
-93.5
 20
102.5
 10
0.0
 20
102.5
 10
0.0
 20
0.0
  0
CIRCLE
  5
249
100
AcDbEntity
  8
MOUNTING_HOLES_LAYER_TOP
100
AcDbCircle
 10
-10.9
 20
3.05
 30
0.0
 40
1.25
  0
HATCH
  5
24A
100
AcDbEntity
  8
MOUNTING_HOLES_LAYER_TOP
100
AcDbHatch
 10
0.0
 20
0.0
 30
0.0
 210
0.0
 220
0.0
 230
1.0
  2
SOLID
 70
         1
 71
        1
 91
        1
  92
     1
  93
     1
 72
     2
 10
-10.9
 20
3.05
  40
1.25
  50
     0.0
  51
     360.0
 73
     0
  97
     1
  330
    585
 75
     0
 76
     1
  98
     1
 10
0.0
 20
0.0
  0
CIRCLE
  5
24B
100
AcDbEntity
  8
MOUNTING_HOLES_LAYER_TOP
100
AcDbCircle
 10
-10.9
 20
27.25
 30
0.0
 40
1.25
  0
HATCH
  5
24C
100
AcDbEntity
  8
MOUNTING_HOLES_LAYER_TOP
100
AcDbHatch
 10
0.0
 20
0.0
 30
0.0
 210
0.0
 220
0.0
 230
1.0
  2
SOLID
 70
         1
 71
        1
 91
        1
  92
     1
  93
     1
 72
     2
 10
-10.9
 20
27.25
  40
1.25
  50
     0.0
  51
     360.0
 73
     0
  97
     1
  330
    587
 75
     0
 76
     1
  98
     1
 10
0.0
 20
0.0
  0
CIRCLE
  5
24D
100
AcDbEntity
  8
MOUNTING_HOLES_LAYER_TOP
100
AcDbCircle
 10
-35.05
 20
27.25
 30
0.0
 40
1.25
  0
HATCH
  5
24E
100
AcDbEntity
  8
MOUNTING_HOLES_LAYER_TOP
100
AcDbHatch
 10
0.0
 20
0.0
 30
0.0
 210
0.0
 220
0.0
 230
1.0
  2
SOLID
 70
         1
 71
        1
 91
        1
  92
     1
  93
     1
 72
     2
 10
-35.05
 20
27.25
  40
1.25
  50
     0.0
  51
     360.0
 73
     0
  97
     1
  330
    589
 75
     0
 76
     1
  98
     1
 10
0.0
 20
0.0
  0
CIRCLE
  5
24F
100
AcDbEntity
  8
MOUNTING_HOLES_LAYER_TOP
100
AcDbCircle
 10
-35.05
 20
3.05
 30
0.0
 40
1.25
  0
HATCH
  5
250
100
AcDbEntity
  8
MOUNTING_HOLES_LAYER_TOP
100
AcDbHatch
 10
0.0
 20
0.0
 30
0.0
 210
0.0
 220
0.0
 230
1.0
  2
SOLID
 70
         1
 71
        1
 91
        1
  92
     1
  93
     1
 72
     2
 10
-35.05
 20
3.05
  40
1.25
  50
     0.0
  51
     360.0
 73
     0
  97
     1
  330
    591
 75
     0
 76
     1
  98
     1
 10
0.0
 20
0.0
  0
CIRCLE
  5
251
100
AcDbEntity
  8
MOUNTING_HOLES_LAYER_TOP
100
AcDbCircle
 10
-51.0
 20
55.1
 30
0.0
 40
1.5
  0
HATCH
  5
252
100
AcDbEntity
  8
MOUNTING_HOLES_LAYER_TOP
100
AcDbHatch
 10
0.0
 20
0.0
 30
0.0
 210
0.0
 220
0.0
 230
1.0
  2
SOLID
 70
         1
 71
        1
 91
        1
  92
     1
  93
     1
 72
     2
 10
-51.0
 20
55.1
  40
1.5
  50
     0.0
  51
     360.0
 73
     0
  97
     1
  330
    593
 75
     0
 76
     1
  98
     1
 10
0.0
 20
0.0
  0
CIRCLE
  5
253
100
AcDbEntity
  8
MOUNTING_HOLES_LAYER_TOP
100
AcDbCircle
 10
-76.8
 20
99.6
 30
0.0
 40
1.5
  0
HATCH
  5
254
100
AcDbEntity
  8
MOUNTING_HOLES_LAYER_TOP
100
AcDbHatch
 10
0.0
 20
0.0
 30
0.0
 210
0.0
 220
0.0
 230
1.0
  2
SOLID
 70
         1
 71
        1
 91
        1
  92
     1
  93
     1
 72
     2
 10
-76.8
 20
99.6
  40
1.5
  50
     0.0
  51
     360.0
 73
     0
  97
     1
  330
    595
 75
     0
 76
     1
  98
     1
 10
0.0
 20
0.0
  0
CIRCLE
  5
255
100
AcDbEntity
  8
MOUNTING_HOLES_LAYER_TOP
100
AcDbCircle
 10
-3.0
 20
3.0
 30
0.0
 40
1.5
  0
HATCH
  5
256
100
AcDbEntity
  8
MOUNTING_HOLES_LAYER_TOP
100
AcDbHatch
 10
0.0
 20
0.0
 30
0.0
 210
0.0
 220
0.0
 230
1.0
  2
SOLID
 70
         1
 71
        1
 91
        1
  92
     1
  93
     1
 72
     2
 10
-3.0
 20
3.0
  40
1.5
  50
     0.0
  51
     360.0
 73
     0
  97
     1
  330
    597
 75
     0
 76
     1
  98
     1
 10
0.0
 20
0.0
  0
CIRCLE
  5
257
100
AcDbEntity
  8
MOUNTING_HOLES_LAYER_TOP
100
AcDbCircle
 10
-3.0
 20
43.5
 30
0.0
 40
1.5
  0
HATCH
  5
258
100
AcDbEntity
  8
MOUNTING_HOLES_LAYER_TOP
100
AcDbHatch
 10
0.0
 20
0.0
 30
0.0
 210
0.0
 220
0.0
 230
1.0
  2
SOLID
 70
         1
 71
        1
 91
        1
  92
     1
  93
     1
 72
     2
 10
-3.0
 20
43.5
  40
1.5
  50
     0.0
  51
     360.0
 73
     0
  97
     1
  330
    599
 75
     0
 76
     1
  98
     1
 10
0.0
 20
0.0
  0
CIRCLE
  5
259
100
AcDbEntity
  8
MOUNTING_HOLES_LAYER_TOP
100
AcDbCircle
 10
-3.0
 20
89.5
 30
0.0
 40
1.5
  0
HATCH
  5
25A
100
AcDbEntity
  8
MOUNTING_HOLES_LAYER_TOP
100
AcDbHatch
 10
0.0
 20
0.0
 30
0.0
 210
0.0
 220
0.0
 230
1.0
  2
SOLID
 70
         1
 71
        1
 91
        1
  92
     1
  93
     1
 72
     2
 10
-3.0
 20
89.5
  40
1.5
  50
     0.0
  51
     360.0
 73
     0
  97
     1
  330
    601
 75
     0
 76
     1
  98
     1
 10
0.0
 20
0.0
  0
CIRCLE
  5
25B
100
AcDbEntity
  8
MOUNTING_HOLES_LAYER_TOP
100
AcDbCircle
 10
-38.0
 20
43.5
 30
0.0
 40
1.5
  0
HATCH
  5
25C
100
AcDbEntity
  8
MOUNTING_HOLES_LAYER_TOP
100
AcDbHatch
 10
0.0
 20
0.0
 30
0.0
 210
0.0
 220
0.0
 230
1.0
  2
SOLID
 70
         1
 71
        1
 91
        1
  92
     1
  93
     1
 72
     2
 10
-38.0
 20
43.5
  40
1.5
  50
     0.0
  51
     360.0
 73
     0
  97
     1
  330
    603
 75
     0
 76
     1
  98
     1
 10
0.0
 20
0.0
  0
CIRCLE
  5
25D
100
AcDbEntity
  8
MOUNTING_HOLES_LAYER_TOP
100
AcDbCircle
 10
-38.0
 20
89.5
 30
0.0
 40
1.5
  0
HATCH
  5
25E
100
AcDbEntity
  8
MOUNTING_HOLES_LAYER_TOP
100
AcDbHatch
 10
0.0
 20
0.0
 30
0.0
 210
0.0
 220
0.0
 230
1.0
  2
SOLID
 70
         1
 71
        1
 91
        1
  92
     1
  93
     1
 72
     2
 10
-38.0
 20
89.5
  40
1.5
  50
     0.0
  51
     360.0
 73
     0
  97
     1
  330
    605
 75
     0
 76
     1
  98
     1
 10
0.0
 20
0.0
  0
CIRCLE
  5
25F
100
AcDbEntity
  8
MOUNTING_HOLES_LAYER_TOP
100
AcDbCircle
 10
-68.0
 20
3.0
 30
0.0
 40
1.5
  0
HATCH
  5
260
100
AcDbEntity
  8
MOUNTING_HOLES_LAYER_TOP
100
AcDbHatch
 10
0.0
 20
0.0
 30
0.0
 210
0.0
 220
0.0
 230
1.0
  2
SOLID
 70
         1
 71
        1
 91
        1
  92
     1
  93
     1
 72
     2
 10
-68.0
 20
3.0
  40
1.5
  50
     0.0
  51
     360.0
 73
     0
  97
     1
  330
    607
 75
     0
 76
     1
  98
     1
 10
0.0
 20
0.0
  0
CIRCLE
  5
261
100
AcDbEntity
  8
MOUNTING_HOLES_LAYER_TOP
100
AcDbCircle
 10
-84.5
 20
92.6
 30
0.0
 40
1.5
  0
HATCH
  5
262
100
AcDbEntity
  8
MOUNTING_HOLES_LAYER_TOP
100
AcDbHatch
 10
0.0
 20
0.0
 30
0.0
 210
0.0
 220
0.0
 230
1.0
  2
SOLID
 70
         1
 71
        1
 91
        1
  92
     1
  93
     1
 72
     2
 10
-84.5
 20
92.6
  40
1.5
  50
     0.0
  51
     360.0
 73
     0
  97
     1
  330
    609
 75
     0
 76
     1
  98
     1
 10
0.0
 20
0.0
  0
CIRCLE
  5
263
100
AcDbEntity
  8
MOUNTING_HOLES_LAYER_TOP
100
AcDbCircle
 10
-82.71
 20
14.67
 30
0.0
 40
1.65
  0
HATCH
  5
264
100
AcDbEntity
  8
MOUNTING_HOLES_LAYER_TOP
100
AcDbHatch
 10
0.0
 20
0.0
 30
0.0
 210
0.0
 220
0.0
 230
1.0
  2
SOLID
 70
         1
 71
        1
 91
        1
  92
     1
  93
     1
 72
     2
 10
-82.71
 20
14.67
  40
1.65
  50
     0.0
  51
     360.0
 73
     0
  97
     1
  330
    611
 75
     0
 76
     1
  98
     1
 10
0.0
 20
0.0
  0
CIRCLE
  5
265
100
AcDbEntity
  8
MOUNTING_HOLES_LAYER_TOP
100
AcDbCircle
 10
-82.71
 20
3.24
 30
0.0
 40
1.65
  0
HATCH
  5
266
100
AcDbEntity
  8
MOUNTING_HOLES_LAYER_TOP
100
AcDbHatch
 10
0.0
 20
0.0
 30
0.0
 210
0.0
 220
0.0
 230
1.0
  2
SOLID
 70
         1
 71
        1
 91
        1
  92
     1
  93
     1
 72
     2
 10
-82.71
 20
3.24
  40
1.65
  50
     0.0
  51
     360.0
 73
     0
  97
     1
  330
    613
 75
     0
 76
     1
  98
     1
 10
0.0
 20
0.0
  0
CIRCLE
  5
267
100
AcDbEntity
  8
MOUNTING_HOLES_LAYER_TOP
100
AcDbCircle
 10
-88.7
 20
99.4
 30
0.0
 40
0.275
  0
HATCH
  5
268
100
AcDbEntity
  8
MOUNTING_HOLES_LAYER_TOP
100
AcDbHatch
 10
0.0
 20
0.0
 30
0.0
 210
0.0
 220
0.0
 230
1.0
  2
SOLID
 70
         1
 71
        1
 91
        1
  92
     1
  93
     1
 72
     2
 10
-88.7
 20
99.4
  40
0.275
  50
     0.0
  51
     360.0
 73
     0
  97
     1
  330
    615
 75
     0
 76
     1
  98
     1
 10
0.0
 20
0.0
  0
CIRCLE
  5
269
100
AcDbEntity
  8
MOUNTING_HOLES_LAYER_TOP
100
AcDbCircle
 10
-88.7
 20
95.4
 30
0.0
 40
0.275
  0
HATCH
  5
26A
100
AcDbEntity
  8
MOUNTING_HOLES_LAYER_TOP
100
AcDbHatch
 10
0.0
 20
0.0
 30
0.0
 210
0.0
 220
0.0
 230
1.0
  2
SOLID
 70
         1
 71
        1
 91
        1
  92
     1
  93
     1
 72
     2
 10
-88.7
 20
95.4
  40
0.275
  50
     0.0
  51
     360.0
 73
     0
  97
     1
  330
    617
 75
     0
 76
     1
  98
     1
 10
0.0
 20
0.0
  0
CIRCLE
  5
26B
100
AcDbEntity
  8
MOUNTING_HOLES_LAYER_TOP
100
AcDbCircle
 10
-83.6
 20
38.45
 30
0.0
 40
0.65
  0
HATCH
  5
26C
100
AcDbEntity
  8
MOUNTING_HOLES_LAYER_TOP
100
AcDbHatch
 10
0.0
 20
0.0
 30
0.0
 210
0.0
 220
0.0
 230
1.0
  2
SOLID
 70
         1
 71
        1
 91
        1
  92
     1
  93
     1
 72
     2
 10
-83.6
 20
38.45
  40
0.65
  50
     0.0
  51
     360.0
 73
     0
  97
     1
  330
    619
 75
     0
 76
     1
  98
     1
 10
0.0
 20
0.0
  0
CIRCLE
  5
26D
100
AcDbEntity
  8
MOUNTING_HOLES_LAYER_TOP
100
AcDbCircle
 10
-83.6
 20
43.45
 30
0.0
 40
0.65
  0
HATCH
  5
26E
100
AcDbEntity
  8
MOUNTING_HOLES_LAYER_TOP
100
AcDbHatch
 10
0.0
 20
0.0
 30
0.0
 210
0.0
 220
0.0
 230
1.0
  2
SOLID
 70
         1
 71
        1
 91
        1
  92
     1
  93
     1
 72
     2
 10
-83.6
 20
43.45
  40
0.65
  50
     0.0
  51
     360.0
 73
     0
  97
     1
  330
    621
 75
     0
 76
     1
  98
     1
 10
0.0
 20
0.0
  0
CIRCLE
  5
26F
100
AcDbEntity
  8
MOUNTING_HOLES_LAYER_TOP
100
AcDbCircle
 10
-75.795906
 20
81.9
 30
0.0
 40
0.6
  0
HATCH
  5
270
100
AcDbEntity
  8
MOUNTING_HOLES_LAYER_TOP
100
AcDbHatch
 10
0.0
 20
0.0
 30
0.0
 210
0.0
 220
0.0
 230
1.0
  2
SOLID
 70
         1
 71
        1
 91
        1
  92
     1
  93
     1
 72
     2
 10
-75.795906
 20
81.9
  40
0.6
  50
     0.0
  51
     360.0
 73
     0
  97
     1
  330
    623
 75
     0
 76
     1
  98
     1
 10
0.0
 20
0.0
  0
CIRCLE
  5
271
100
AcDbEntity
  8
MOUNTING_HOLES_LAYER_TOP
100
AcDbCircle
 10
-75.795906
 20
53.7
 30
0.0
 40
0.45
  0
HATCH
  5
272
100
AcDbEntity
  8
MOUNTING_HOLES_LAYER_TOP
100
AcDbHatch
 10
0.0
 20
0.0
 30
0.0
 210
0.0
 220
0.0
 230
1.0
  2
SOLID
 70
         1
 71
        1
 91
        1
  92
     1
  93
     1
 72
     2
 10
-75.795906
 20
53.7
  40
0.45
  50
     0.0
  51
     360.0
 73
     0
  97
     1
  330
    625
 75
     0
 76
     1
  98
     1
 10
0.0
 20
0.0
  0
CIRCLE
  5
273
100
AcDbEntity
  8
MOUNTING_HOLES_LAYER_TOP
100
AcDbCircle
 10
-58.95
 20
2.65
 30
0.0
 40
0.55
  0
HATCH
  5
274
100
AcDbEntity
  8
MOUNTING_HOLES_LAYER_TOP
100
AcDbHatch
 10
0.0
 20
0.0
 30
0.0
 210
0.0
 220
0.0
 230
1.0
  2
SOLID
 70
         1
 71
        1
 91
        1
  92
     1
  93
     1
 72
     2
 10
-58.95
 20
2.65
  40
0.55
  50
     0.0
  51
     360.0
 73
     0
  97
     1
  330
    627
 75
     0
 76
     1
  98
     1
 10
0.0
 20
0.0
  0
CIRCLE
  5
275
100
AcDbEntity
  8
MOUNTING_HOLES_LAYER_TOP
100
AcDbCircle
 10
-58.95
 20
27.65
 30
0.0
 40
0.8
  0
HATCH
  5
276
100
AcDbEntity
  8
MOUNTING_HOLES_LAYER_TOP
100
AcDbHatch
 10
0.0
 20
0.0
 30
0.0
 210
0.0
 220
0.0
 230
1.0
  2
SOLID
 70
         1
 71
        1
 91
        1
  92
     1
  93
     1
 72
     2
 10
-58.95
 20
27.65
  40
0.8
  50
     0.0
  51
     360.0
 73
     0
  97
     1
  330
    629
 75
     0
 76
     1
  98
     1
 10
0.0
 20
0.0
  0
CIRCLE
  5
277
100
AcDbEntity
  8
MOUNTING_HOLES_LAYER_TOP
100
AcDbCircle
 10
-44.795906
 20
53.7
 30
0.0
 40
0.45
  0
HATCH
  5
278
100
AcDbEntity
  8
MOUNTING_HOLES_LAYER_TOP
100
AcDbHatch
 10
0.0
 20
0.0
 30
0.0
 210
0.0
 220
0.0
 230
1.0
  2
SOLID
 70
         1
 71
        1
 91
        1
  92
     1
  93
     1
 72
     2
 10
-44.795906
 20
53.7
  40
0.45
  50
     0.0
  51
     360.0
 73
     0
  97
     1
  330
    631
 75
     0
 76
     1
  98
     1
 10
0.0
 20
0.0
  0
CIRCLE
  5
279
100
AcDbEntity
  8
MOUNTING_HOLES_LAYER_TOP
100
AcDbCircle
 10
-44.795906
 20
81.9
 30
0.0
 40
0.6
  0
HATCH
  5
27A
100
AcDbEntity
  8
MOUNTING_HOLES_LAYER_TOP
100
AcDbHatch
 10
0.0
 20
0.0
 30
0.0
 210
0.0
 220
0.0
 230
1.0
  2
SOLID
 70
         1
 71
        1
 91
        1
  92
     1
  93
     1
 72
     2
 10
-44.795906
 20
81.9
  40
0.6
  50
     0.0
  51
     360.0
 73
     0
  97
     1
  330
    633
 75
     0
 76
     1
  98
     1
 10
0.0
 20
0.0
  0
CIRCLE
  5
27B
100
AcDbEntity
  8
MOUNTING_HOLES_LAYER_TOP
100
AcDbCircle
 10
-2.3
 20
34.55
 30
0.0
 40
0.6
  0
HATCH
  5
27C
100
AcDbEntity
  8
MOUNTING_HOLES_LAYER_TOP
100
AcDbHatch
 10
0.0
 20
0.0
 30
0.0
 210
0.0
 220
0.0
 230
1.0
  2
SOLID
 70
         1
 71
        1
 91
        1
  92
     1
  93
     1
 72
     2
 10
-2.3
 20
34.55
  40
0.6
  50
     0.0
  51
     360.0
 73
     0
  97
     1
  330
    635
 75
     0
 76
     1
  98
     1
 10
0.0
 20
0.0
  0
CIRCLE
  5
27D
100
AcDbEntity
  8
MOUNTING_HOLES_LAYER_TOP
100
AcDbCircle
 10
-38.3
 20
34.55
 30
0.0
 40
0.6
  0
HATCH
  5
27E
100
AcDbEntity
  8
MOUNTING_HOLES_LAYER_TOP
100
AcDbHatch
 10
0.0
 20
0.0
 30
0.0
 210
0.0
 220
0.0
 230
1.0
  2
SOLID
 70
         1
 71
        1
 91
        1
  92
     1
  93
     1
 72
     2
 10
-38.3
 20
34.55
  40
0.6
  50
     0.0
  51
     360.0
 73
     0
  97
     1
  330
    637
 75
     0
 76
     1
  98
     1
 10
0.0
 20
0.0
  0
CIRCLE
  5
27F
100
AcDbEntity
  8
MOUNTING_HOLES_LAYER_TOP
100
AcDbCircle
 10
-38.3
 20
98.05
 30
0.0
 40
0.6
  0
HATCH
  5
280
100
AcDbEntity
  8
MOUNTING_HOLES_LAYER_TOP
100
AcDbHatch
 10
0.0
 20
0.0
 30
0.0
 210
0.0
 220
0.0
 230
1.0
  2
SOLID
 70
         1
 71
        1
 91
        1
  92
     1
  93
     1
 72
     2
 10
-38.3
 20
98.05
  40
0.6
  50
     0.0
  51
     360.0
 73
     0
  97
     1
  330
    639
 75
     0
 76
     1
  98
     1
 10
0.0
 20
0.0
  0
CIRCLE
  5
281
100
AcDbEntity
  8
MOUNTING_HOLES_LAYER_TOP
100
AcDbCircle
 10
-2.3
 20
98.05
 30
0.0
 40
0.6
  0
HATCH
  5
282
100
AcDbEntity
  8
MOUNTING_HOLES_LAYER_TOP
100
AcDbHatch
 10
0.0
 20
0.0
 30
0.0
 210
0.0
 220
0.0
 230
1.0
  2
SOLID
 70
         1
 71
        1
 91
        1
  92
     1
  93
     1
 72
     2
 10
-2.3
 20
98.05
  40
0.6
  50
     0.0
  51
     360.0
 73
     0
  97
     1
  330
    641
 75
     0
 76
     1
  98
     1
 10
0.0
 20
0.0
  0
CIRCLE
  5
283
100
AcDbEntity
  8
PART_HOLES_LAYER_TOP
100
AcDbCircle
 10
-54.0
 20
38.9
 30
0.0
 40
0.45
  0
HATCH
  5
284
100
AcDbEntity
  8
PART_HOLES_LAYER_TOP
100
AcDbHatch
 10
0.0
 20
0.0
 30
0.0
 210
0.0
 220
0.0
 230
1.0
  2
SOLID
 70
         1
 71
        1
 91
        1
  92
     1
  93
     1
 72
     2
 10
-54.0
 20
38.9
  40
0.45
  50
     0.0
  51
     360.0
 73
     0
  97
     1
  330
    643
 75
     0
 76
     1
  98
     1
 10
0.0
 20
0.0
  0
CIRCLE
  5
285
100
AcDbEntity
  8
PART_HOLES_LAYER_TOP
100
AcDbCircle
 10
-54.0
 20
40.9
 30
0.0
 40
0.45
  0
HATCH
  5
286
100
AcDbEntity
  8
PART_HOLES_LAYER_TOP
100
AcDbHatch
 10
0.0
 20
0.0
 30
0.0
 210
0.0
 220
0.0
 230
1.0
  2
SOLID
 70
         1
 71
        1
 91
        1
  92
     1
  93
     1
 72
     2
 10
-54.0
 20
40.9
  40
0.45
  50
     0.0
  51
     360.0
 73
     0
  97
     1
  330
    645
 75
     0
 76
     1
  98
     1
 10
0.0
 20
0.0
  0
ENDSEC
  0
SECTION
  2
OBJECTS
  0
DICTIONARY
  5
16
100
AcDbDictionary
  3
ACAD_GROUP
350
17
  3
ACAD_MLINESTYLE
350
18
  0
DICTIONARY
  5
17
102
{ACAD_REACTORS
330
16
102
}
100
AcDbDictionary
  0
DICTIONARY
  5
18
102
{ACAD_REACTORS
330
16
102
}
100
AcDbDictionary
  3
STANDARD
350
19
  0
MLINESTYLE
  5
19
102
{ACAD_REACTORS
330
18
102
}
100
AcDbMlineStyle
  2
STANDARD
 70
         0
  3

 62
         0
 51
90.0
 52
90.0
 71
        2
 49
0.5
 62
         256
  6
BYLAYER
 49
-0.5
 62
         256
  6
BYLAYER
  0
DICTIONARY
  5
1A
102
{ACAD_REACTORS
330
16
102
}
100
AcDbDictionary
  0
ENDSEC
  0
EOF
