  0
SECTION
  2
HEADER
  9
$ACADVER
  1
AC1014
  9
$ACADMAINTVER
 70
         0
  9
$DWGCODEPAGE
  3
ANSI_1252
  9
$INSBASE
 10
0.0
 20
0.0
 30
0.0
  9
$EXTMIN
 10
-51.7
 20
-7.977074
 30
0.0
  9
$EXTMAX
 10
7.16
 20
80.876324
 30
0.0
  9
$LIMMIN
 10
0.0
 20
0.0
  9
$LIMMAX
 10
0.0
 20
0.0
  9
$ORTHOMODE
 70
         0
  9
$REGENMODE
 70
         1
  9
$FILLMODE
 70
         1
  9
$QTEXTMODE
 70
         0
  9
$MIRRTEXT
 70
         1
  9
$DRAGMODE
 70
         2
  9
$LTSCALE
 40
1.0
  9
$OSMODE
 70
         0
  9
$ATTMODE
 70
         1
  9
$TEXTSIZE
 40
0.2
  9
$TRACEWID
 40
0.05
  9
$TEXTSTYLE
  7
STANDARD
  9
$CLAYER
  8
0
  9
$CELTYPE
  6
CONTINUOUS
  9
$CECOLOR
 62
       256
  9
$CELTSCALE
 40
1.0
  9
$DELOBJ
 70
         1
  9
$DISPSILH
 70
         0
  9
$DIMSCALE
 40
1.0
  9
$DIMASZ
 40
0.18
  9
$DIMEXO
 40
0.0625
  9
$DIMDLI
 40
0.38
  9
$DIMRND
 40
0.0
  9
$DIMDLE
 40
0.0
  9
$DIMEXE
 40
0.18
  9
$DIMTP
 40
0.0
  9
$DIMTM
 40
0.0
  9
$DIMTXT
 40
0.18
  9
$DIMCEN
 40
0.09
  9
$DIMTSZ
 40
0.0
  9
$DIMTOL
 70
         0
  9
$DIMLIM
 70
         0
  9
$DIMTIH
 70
         1
  9
$DIMTOH
 70
         1
  9
$DIMSE1
 70
         0
  9
$DIMSE2
 70
         0
  9
$DIMTAD
 70
         0
  9
$DIMZIN
 70
         0
  9
$DIMBLK
  1

  9
$DIMASO
 70
         1
  9
$DIMSHO
 70
         1
  9
$DIMPOST
  1

  9
$DIMAPOST
  1

  9
$DIMALT
 70
         0
  9
$DIMALTD
 70
         2
  9
$DIMALTF
 40
25.4
  9
$DIMLFAC
 40
1.0
  9
$DIMTOFL
 70
         0
  9
$DIMTVP
 40
0.0
  9
$DIMTIX
 70
         0
  9
$DIMSOXD
 70
         0
  9
$DIMSAH
 70
         0
  9
$DIMBLK1
  1

  9
$DIMBLK2
  1

  9
$DIMSTYLE
  2
STANDARD
  9
$DIMCLRD
 70
         0
  9
$DIMCLRE
 70
         0
  9
$DIMCLRT
 70
         0
  9
$DIMTFAC
 40
1.0
  9
$DIMGAP
 40
0.09
  9
$DIMJUST
 70
         0
  9
$DIMSD1
 70
         0
  9
$DIMSD2
 70
         0
  9
$DIMTOLJ
 70
         1
  9
$DIMTZIN
 70
         0
  9
$DIMALTZ
 70
         0
  9
$DIMALTTZ
 70
         0
  9
$DIMFIT
 70
         3
  9
$DIMUPT
 70
         0
  9
$DIMUNIT
 70
         2
  9
$DIMDEC
 70
         4
  9
$DIMTDEC
 70
         4
  9
$DIMALTU
 70
         2
  9
$DIMALTTD
 70
         2
  9
$DIMTXSTY
  7
STANDARD
  9
$DIMAUNIT
 70
         0
  9
$LUNITS
 70
         2
  9
$LUPREC
 70
         4
  9
$SKETCHINC
 40
0.1
  9
$FILLETRAD
 40
0.0
  9
$AUNITS
 70
         0
  9
$AUPREC
 70
         0
  9
$MENU
  1
acad
  9
$ELEVATION
 40
0.0
  9
$PELEVATION
 40
0.0
  9
$THICKNESS
 40
0.0
  9
$LIMCHECK
 70
         0
  9
$BLIPMODE
 70
         1
  9
$CHAMFERA
 40
0.0
  9
$CHAMFERB
 40
0.0
  9
$CHAMFERC
 40
0.0
  9
$CHAMFERD
 40
0.0
  9
$SKPOLY
 70
         0
  9
$TDCREATE
 40
2458333.657291667
  9
$TDUPDATE
 40
0.000000000
  9
$TDINDWG
 40
0.0000000000
  9
$TDUSRTIMER
 40
0.0000000000
  9
$USRTIMER
 70
         1
  9
$ANGBASE
 50
0.0
  9
$ANGDIR
 70
         0
  9
$PDMODE
 70
         0
  9
$PDSIZE
 40
0.0
  9
$PLINEWID
 40
0.0
  9
$COORDS
 70
         0
  9
$SPLFRAME
 70
         0
  9
$SPLINETYPE
 70
         6
  9
$SPLINESEGS
 70
         8
  9
$ATTDIA
 70
         0
  9
$ATTREQ
 70
         1
  9
$HANDLING
 70
         1
  9
$HANDSEED
  5
32A
  9
$SURFTAB1
 70
         6
  9
$SURFTAB2
 70
         6
  9
$SURFTYPE
 70
         6
  9
$SURFU
 70
         6
  9
$SURFV
 70
         6
  9
$UCSNAME
  2

  9
$UCSORG
 10
0.0
 20
0.0
 30
0.0
  9
$UCSXDIR
 10
1.0
 20
0.0
 30
0.0
  9
$UCSYDIR
 10
0.0
 20
1.0
 30
0.0
  9
$PUCSNAME
  2

  9
$PUCSORG
 10
0.0
 20
0.0
 30
0.0
  9
$PUCSXDIR
 10
1.0
 20
0.0
 30
0.0
  9
$PUCSYDIR
 10
0.0
 20
1.0
 30
0.0
  9
$USERI1
 70
        -3
  9
$USERI2
 70
         0
  9
$USERI3
 70
         0
  9
$USERI4
 70
         0
  9
$USERI5
 70
         0
  9
$USERR1
 40
0.0
  9
$USERR2
 40
0.0
  9
$USERR3
 40
0.0
  9
$USERR4
 40
0.0
  9
$USERR5
 40
0.0
  9
$WORLDVIEW
 70
         1
  9
$SHADEDGE
 70
         3
  9
$SHADEDIF
 70
        70
  9
$TILEMODE
 70
         1
  9
$MAXACTVP
 70
        16
  9
$PINSBASE
 10
0.0
 20
0.0
 30
0.0
  9
$PLIMCHECK
 70
         0
  9
$PEXTMIN
 10
1.0000000000E+20
 20
1.0000000000E+20
 30
1.0000000000E+20
  9
$PEXTMAX
 10
-1.0000000000E+20
 20
-1.0000000000E+20
 30
-1.0000000000E+20
  9
$PLIMMIN
 10
0.0
 20
0.0
  9
$PLIMMAX
 10
12.0
 20
9.0
  9
$UNITMODE
 70
         0
  9
$VISRETAIN
 70
         0
  9
$PLINEGEN
 70
         1
  9
$PSLTSCALE
 70
         0
  9
$TREEDEPTH
 70
      3020
  9
$PICKSTYLE
 70
         1
  9
$CMLSTYLE
  2
STANDARD
  9
$CMLJUST
 70
         0
  9
$CMLSCALE
 40
1.0
  9
$PROXYGRAPHICS
 70
         0
  9
$MEASUREMENT
 70
         0
  0
ENDSEC
  0
SECTION
  2
CLASSES
  0
CLASS
  1
LWPOLYLINE
  2
AcDbPolyline
  3
"AutoCAD"
 90
        0
280
         0
281
         1
  0
CLASS
  1
IMAGE
  2
AcDbRasterImage
  3
ISM
 90
      127
280
         0
281
         1
  0
CLASS
  1
OLE2FRAME
  2
AcDbOle2Frame
  3
""
 90
        0
280
         0
281
         1
  0
CLASS
  1
HATCH
  2
AcDbHatch
  3
"ACAD_SEDONA"
 90
        0
280
         0
281
         1
  0
CLASS
  1
DICTIONARYVAR
  2
AcDbDictionaryVar
  3
"AutoCAD"
 90
        0
280
         0
281
         0
  0
CLASS
  1
RASTERVARIABLES
  2
AcDbRasterVariables
  3
ISM
 90
        0
280
         0
281
         0
  0
CLASS
  1
IMAGEDEF
  2
AcDbRasterImageDef
  3
ISM
 90
        0
280
         0
281
         0
  0
CLASS
  1
IMAGEDEF_REACTOR
  2
AcDbRasterImageDefReactor
  3
ISM
 90
        1
280
         0
281
         0
  0
CLASS
  1
IDBUFFER
  2
AcDbIdBuffer
  3
"Acad"
 90
        0
280
         0
281
         0
  0
CLASS
  1
SPATIAL_FILTER
  2
AcDbSpatialFilter
  3
"Acad"
 90
        0
280
         0
281
         0
  0
CLASS
  1
XRECORD
  2
AcDbXrecord
  3
"<Built In>"
 90
        0
280
         0
281
         0
  0
CLASS
  1
SORTENTSTABLE
  2
AcDbSortentsTable
  3
"AutoCAD"
 90
        0
280
         0
281
         0
  0
CLASS
  1
LAYER_INDEX
  2
AcDbLayerIndex
  3
"Acad"
 90
        0
280
         0
281
         0
  0
CLASS
  1
SPATIAL_INDEX
  2
AcDbSpatialIndex
  3
"Acad"
 90
        0
280
         0
281
         0
  0
CLASS
  1
OBJECT_PTR
  2
CAseDLPNTableRecord
  3
"ASE-LPNTableRecord"
 90
        1
280
         0
281
         0
  0
CLASS
  1
LAYOUT
  2
AcDbLayout
  3
"AutoCAD 2000"
 90
        0
280
         0
281
         0
  0
CLASS
  1
PLOTSETTINGS
  2
AcDbPlotSettings
  3
"AutoCAD 2000"
 90
        0
280
         0
281
         0
  0
CLASS
  1
ACDBDICTIONARYWDFLT
  2
AcDbDictionaryWithDefault
  3
"AutoCAD 2000"
 90
        0
280
         0
281
         0
  0
CLASS
  1
ACDBPLACEHOLDER
  2
AcDbPlaceHolder
  3
"AutoCAD 2000"
 90
        0
280
         0
281
         0
  0
CLASS
  1
VBA_PROJECT
  2
AcDbVbaProject
  3
"acadvba"
 90
        0
280
         0
281
         0
  0
CLASS
  1
WIPEOUT
  2
AcDbWipeout
  3
WipeOut|AutoCAD Express Tool|expresstools@autodesk.com
 90
      127
280
         0
281
         1
  0
CLASS
  1
WIPEOUTVARIABLES
  2
AcDbWipeoutVariables
  3
WipeOut|AutoCAD Express Tool|expresstools@autodesk.com
 90
        0
280
         0
281
         0
  0
CLASS
  1
RTEXT
  2
RText
  3
RText|AutoCAD Express Tool|expresstools@autodesk.com
 90
        0
280
         0
281
         1
  0
CLASS
  1
ARCALIGNEDTEXT
  2
AcDbArcAlignedText
  3
ATEXT|AutoCAD Express Tool|expresstools@autodesk.com
 90
        0
280
         0
281
         1
  0
ENDSEC
  0
SECTION
  2
TABLES
  0
TABLE
  2
VPORT
  5
7
100
AcDbSymbolTable
 70
         1
  0
VPORT
  5
15
100
AcDbSymbolTableRecord
100
AcDbViewportTableRecord
  2
*ACTIVE
 70
         0
 10
0.0
 20
0.0
 11
1.0
 21
1.0
 12
6.591288
 22
4.579184
 13
0.0
 23
0.0
 14
1.0
 24
1.0
 15
0.0
 25
0.0
 16
0.0
 26
0.0
 36
1.0
 17
0.0
 27
0.0
 37
0.0
 40
9.158369
 41
0.688564
 42
50.0
 43
0.0
 44
0.0
 50
0.0
 51
0.0
 71
         0
 72
       100
 73
         1
 74
         1
 75
         0
 76
         0
 77
         0
 78
         0
  0
ENDTAB
  0
TABLE
  2
LTYPE
  5
4
100
AcDbSymbolTable
 70
         3
  0
LTYPE
  5
11
100
AcDbSymbolTableRecord
100
AcDbLinetypeTableRecord
  2
BYBLOCK
 70
        64
  3

 72
        65
 73
         0
 40
0.0
  0
LTYPE
  5
12
100
AcDbSymbolTableRecord
100
AcDbLinetypeTableRecord
  2
BYLAYER
 70
        64
  3

 72
        65
 73
         0
 40
0.0
  0
LTYPE
  5
13
100
AcDbSymbolTableRecord
100
AcDbLinetypeTableRecord
  2
CONTINUOUS
 70
        64
  3
Solid line
 72
        65
 73
         0
 40
0.0
  0
ENDTAB
  0
TABLE
  2
LAYER
  5
2
100
AcDbSymbolTable
 70
         6
  0
LAYER
  5
14
100
AcDbSymbolTableRecord
100
AcDbLayerTableRecord
  2
0
 70
         0
 62
         7
  6
CONTINUOUS
  0
LAYER
  5
24
100
AcDbSymbolTableRecord
100
AcDbLayerTableRecord
  2
ASSEMBLY_OUTLINES_TOP
 70
         0
 62
       102
  6
CONTINUOUS
  0
LAYER
  5
25
100
AcDbSymbolTableRecord
100
AcDbLayerTableRecord
  2
ASSEMBLY_REF_DES_TOP
 70
         0
 62
       102
  6
CONTINUOUS
  0
LAYER
  5
26
100
AcDbSymbolTableRecord
100
AcDbLayerTableRecord
  2
BOARD_OUTLINE
 70
         0
 62
        10
  6
CONTINUOUS
  0
LAYER
  5
27
100
AcDbSymbolTableRecord
100
AcDbLayerTableRecord
  2
MOUNTING_HOLES_LAYER_TOP
 70
         0
 62
        42
  6
CONTINUOUS
  0
LAYER
  5
28
100
AcDbSymbolTableRecord
100
AcDbLayerTableRecord
  2
PART_HOLES_LAYER_TOP
 70
         0
 62
        30
  6
CONTINUOUS
  0
ENDTAB
  0
TABLE
  2
STYLE
  5
3
100
AcDbSymbolTable
 70
         5
  0
STYLE
  5
17
100
AcDbSymbolTableRecord
100
AcDbTextStyleTableRecord
  2
STANDARD
 70
         0
 40
0.0
 41
1.0
 50
0.0
 71
         0
 42
0.0
  3
txt
  4

  0
STYLE
  5
81
100
AcDbSymbolTableRecord
100
AcDbTextStyleTableRecord
  2
VERIBEST_GERBER_1
 70
         0
 40
0.0
 41
1.0
 50
0.0
 71
         0
 42
0.0
  3
VBest1.ttf
  4

  0
STYLE
  5
264
100
AcDbSymbolTableRecord
100
AcDbTextStyleTableRecord
  2
GOST_TYPE_B
 70
         0
 40
0.0
 41
1.0
 50
0.0
 71
         0
 42
0.0
  3
gost_1.ttf
  4

  0
STYLE
  5
279
100
AcDbSymbolTableRecord
100
AcDbTextStyleTableRecord
  2
VERIBEST_GERBER_0
 70
         0
 40
0.0
 41
1.0
 50
0.0
 71
         0
 42
0.0
  3
VBest0.ttf
  4

  0
STYLE
  5
292
100
AcDbSymbolTableRecord
100
AcDbTextStyleTableRecord
  2
GOST_D
 70
         0
 40
0.0
 41
1.0
 50
0.0
 71
         0
 42
0.0
  3
GOST_2.TTF
  4

  0
ENDTAB
  0
TABLE
  2
VIEW
  5
5
100
AcDbSymbolTable
 70
         0
  0
ENDTAB
  0
TABLE
  2
UCS
  5
6
100
AcDbSymbolTable
 70
         0
  0
ENDTAB
  0
TABLE
  2
APPID
  5
8
100
AcDbSymbolTable
 70
         1
  0
APPID
  5
16
100
AcDbSymbolTableRecord
100
AcDbRegAppTableRecord
  2
ACAD
 70
         0
  0
ENDTAB
  0
TABLE
  2
DIMSTYLE
  5
9
100
AcDbSymbolTable
 70
         1
  0
DIMSTYLE
105
18
100
AcDbSymbolTableRecord
100
AcDbDimStyleTableRecord
  2
STANDARD
 70
         0
  3

  4

  5

  6

  7

 40
1.0
 41
0.18
 42
0.0625
 43
0.38
 44
0.18
 45
0.0
 46
0.0
 47
0.0
 48
0.0
 71
         0
 72
         0
 73
         1
 74
         1
 75
         0
 76
         0
 77
         0
 78
         0
140
0.18
141
0.09
142
0.0
143
25.4
144
1.0
145
0.0
146
1.0
147
0.09
170
         0
171
         2
172
         0
173
         0
174
         0
175
         0
176
         0
177
         0
178
         0
270
         2
271
         4
272
         4
273
         2
274
         2
275
         0
280
         0
281
         0
282
         0
283
         1
284
         0
285
         0
286
         0
287
         3
288
         0
340
17
  0
ENDTAB
  0
TABLE
  2
BLOCK_RECORD
  5
1
100
AcDbSymbolTable
 70
         0
  0
BLOCK_RECORD
  5
A
100
AcDbSymbolTableRecord
100
AcDbBlockTableRecord
  2
*MODEL_SPACE
  0
BLOCK_RECORD
  5
B
100
AcDbSymbolTableRecord
100
AcDbBlockTableRecord
  2
*PAPER_SPACE
  0
ENDTAB
  0
ENDSEC
  0
SECTION
  2
BLOCKS
  0
BLOCK
  5
D
100
AcDbEntity
  8
0
100
AcDbBlockBegin
  2
*MODEL_SPACE
 70
         0
 10
0.0
 20
0.0
 30
0.0
  3
*MODEL_SPACE
  1

  0
ENDBLK
  5
E
100
AcDbEntity
  8
0
100
AcDbBlockEnd
  0
BLOCK
  5
F
100
AcDbEntity
 67
         1
  8
0
100
AcDbBlockBegin
  2
*PAPER_SPACE
 70
         0
 10
0.0
 20
0.0
 30
0.0
  3
*PAPER_SPACE
  1

  0
ENDBLK
  5
10
100
AcDbEntity
 67
         1
  8
0
100
AcDbBlockEnd
  0
ENDSEC
  0
SECTION
  2
ENTITIES
  0
LWPOLYLINE
  5
29
100
AcDbEntity
  8
ASSEMBLY_OUTLINES_TOP
100
AcDbPolyline
 90
        3
 70
         1
 10
0.0
 20
-3.83922
 10
1.14
 20
-3.26922
 10
1.14
 20
-4.40922
  0
HATCH
  5
2A
100
AcDbEntity
  8
ASSEMBLY_OUTLINES_TOP
100
AcDbHatch
 10
0.0
 20
0.0
 30
0.0
210
0.0
220
0.0
230
1.0
  2
SOLID
 70
         1
 71
         1
 91
        1
 92
        2
 72
         0
 73
         1
 93
        3
 10
0.0
 20
-3.8392200000000001
 10
1.1399999999999999
 20
-3.2692199999999998
 10
1.1399999999999999
 20
-4.4092200000000004
 97
        1
330
29
 75
         0
 76
         1
 98
        1
 10
0.0
 20
0.0
  0
LWPOLYLINE
  5
2B
100
AcDbEntity
  8
ASSEMBLY_OUTLINES_TOP
100
AcDbPolyline
 90
        3
 70
         1
 10
-2.4
 20
-3.83922
 10
-3.54
 20
-4.40922
 10
-3.54
 20
-3.26922
  0
HATCH
  5
2C
100
AcDbEntity
  8
ASSEMBLY_OUTLINES_TOP
100
AcDbHatch
 10
0.0
 20
0.0
 30
0.0
210
0.0
220
0.0
230
1.0
  2
SOLID
 70
         1
 71
         1
 91
        1
 92
        2
 72
         0
 73
         1
 93
        3
 10
-2.3999999999999999
 20
-3.8392200000000001
 10
-3.54
 20
-4.4092200000000004
 10
-3.54
 20
-3.2692199999999998
 97
        1
330
2B
 75
         0
 76
         1
 98
        1
 10
0.0
 20
0.0
  0
LWPOLYLINE
  5
2D
100
AcDbEntity
  8
ASSEMBLY_OUTLINES_TOP
100
AcDbPolyline
 90
        2
 70
         0
 43
0.2
 10
0.57
 20
-3.83922
 10
2.85
 20
-3.83922
  0
LWPOLYLINE
  5
2E
100
AcDbEntity
  8
ASSEMBLY_OUTLINES_TOP
100
AcDbPolyline
 90
        2
 70
         0
 43
0.2
 10
-2.97
 20
-3.83922
 10
-5.25
 20
-3.83922
  0
LWPOLYLINE
  5
2F
100
AcDbEntity
  8
ASSEMBLY_OUTLINES_TOP
100
AcDbPolyline
 90
        2
 70
         0
 43
0.2
 10
0.0
 20
-0.51
 10
0.0
 20
-4.34922
  0
LWPOLYLINE
  5
30
100
AcDbEntity
  8
ASSEMBLY_OUTLINES_TOP
100
AcDbPolyline
 90
        2
 70
         0
 43
0.2
 10
-2.4
 20
1.89
 10
-2.4
 20
-4.34922
  0
LWPOLYLINE
  5
31
100
AcDbEntity
  8
ASSEMBLY_OUTLINES_TOP
100
AcDbPolyline
 90
        3
 70
         1
 10
3.3874
 20
0.0
 10
3.957399
 20
-1.14
 10
2.8174
 20
-1.14
  0
HATCH
  5
32
100
AcDbEntity
  8
ASSEMBLY_OUTLINES_TOP
100
AcDbHatch
 10
0.0
 20
0.0
 30
0.0
210
0.0
220
0.0
230
1.0
  2
SOLID
 70
         1
 71
         1
 91
        1
 92
        2
 72
         0
 73
         1
 93
        3
 10
3.3874
 20
0.0
 10
3.9573990000000001
 20
-1.1399999999999999
 10
2.8174000000000001
 20
-1.1399999999999999
 97
        1
330
31
 75
         0
 76
         1
 98
        1
 10
0.0
 20
0.0
  0
LWPOLYLINE
  5
33
100
AcDbEntity
  8
ASSEMBLY_OUTLINES_TOP
100
AcDbPolyline
 90
        3
 70
         1
 10
3.3874
 20
2.4
 10
2.8174
 20
3.54
 10
3.9574
 20
3.54
  0
HATCH
  5
34
100
AcDbEntity
  8
ASSEMBLY_OUTLINES_TOP
100
AcDbHatch
 10
0.0
 20
0.0
 30
0.0
210
0.0
220
0.0
230
1.0
  2
SOLID
 70
         1
 71
         1
 91
        1
 92
        2
 72
         0
 73
         1
 93
        3
 10
3.3874
 20
2.3999999999999999
 10
2.8174000000000001
 20
3.54
 10
3.9573999999999998
 20
3.54
 97
        1
330
33
 75
         0
 76
         1
 98
        1
 10
0.0
 20
0.0
  0
LWPOLYLINE
  5
35
100
AcDbEntity
  8
ASSEMBLY_OUTLINES_TOP
100
AcDbPolyline
 90
        2
 70
         0
 43
0.2
 10
3.3874
 20
-0.57
 10
3.3874
 20
-2.85
  0
LWPOLYLINE
  5
36
100
AcDbEntity
  8
ASSEMBLY_OUTLINES_TOP
100
AcDbPolyline
 90
        2
 70
         0
 43
0.2
 10
3.3874
 20
2.97
 10
3.3874
 20
5.25
  0
LWPOLYLINE
  5
37
100
AcDbEntity
  8
ASSEMBLY_OUTLINES_TOP
100
AcDbPolyline
 90
        2
 70
         0
 43
0.2
 10
0.51
 20
0.0
 10
3.8974
 20
0.0
  0
LWPOLYLINE
  5
38
100
AcDbEntity
  8
ASSEMBLY_OUTLINES_TOP
100
AcDbPolyline
 90
        2
 70
         0
 43
0.2
 10
-1.89
 20
2.4
 10
3.8974
 20
2.4
  0
LWPOLYLINE
  5
39
100
AcDbEntity
  8
ASSEMBLY_OUTLINES_TOP
100
AcDbPolyline
 90
        3
 70
         1
 10
2.183788
 20
73.6
 10
2.753787
 20
72.46
 10
1.613788
 20
72.46
  0
HATCH
  5
3A
100
AcDbEntity
  8
ASSEMBLY_OUTLINES_TOP
100
AcDbHatch
 10
0.0
 20
0.0
 30
0.0
210
0.0
220
0.0
230
1.0
  2
SOLID
 70
         1
 71
         1
 91
        1
 92
        2
 72
         0
 73
         1
 93
        3
 10
2.1837879999999998
 20
73.599999999999994
 10
2.753787
 20
72.459999999999994
 10
1.613788
 20
72.459999999999994
 97
        1
330
39
 75
         0
 76
         1
 98
        1
 10
0.0
 20
0.0
  0
LWPOLYLINE
  5
3B
100
AcDbEntity
  8
ASSEMBLY_OUTLINES_TOP
100
AcDbPolyline
 90
        3
 70
         1
 10
2.183788
 20
76.0
 10
1.613788
 20
77.14
 10
2.753788
 20
77.14
  0
HATCH
  5
3C
100
AcDbEntity
  8
ASSEMBLY_OUTLINES_TOP
100
AcDbHatch
 10
0.0
 20
0.0
 30
0.0
210
0.0
220
0.0
230
1.0
  2
SOLID
 70
         1
 71
         1
 91
        1
 92
        2
 72
         0
 73
         1
 93
        3
 10
2.1837879999999998
 20
76.0
 10
1.613788
 20
77.140000000000001
 10
2.7537880000000001
 20
77.140000000000001
 97
        1
330
3B
 75
         0
 76
         1
 98
        1
 10
0.0
 20
0.0
  0
LWPOLYLINE
  5
3D
100
AcDbEntity
  8
ASSEMBLY_OUTLINES_TOP
100
AcDbPolyline
 90
        2
 70
         0
 43
0.2
 10
2.183788
 20
73.03
 10
2.183788
 20
70.75
  0
LWPOLYLINE
  5
3E
100
AcDbEntity
  8
ASSEMBLY_OUTLINES_TOP
100
AcDbPolyline
 90
        2
 70
         0
 43
0.2
 10
2.183788
 20
76.57
 10
2.183788
 20
78.85
  0
LWPOLYLINE
  5
3F
100
AcDbEntity
  8
ASSEMBLY_OUTLINES_TOP
100
AcDbPolyline
 90
        2
 70
         0
 43
0.2
 10
-1.89
 20
73.6
 10
2.693788
 20
73.6
  0
LWPOLYLINE
  5
40
100
AcDbEntity
  8
ASSEMBLY_OUTLINES_TOP
100
AcDbPolyline
 90
        2
 70
         0
 43
0.2
 10
0.51
 20
76.0
 10
2.693788
 20
76.0
  0
LWPOLYLINE
  5
41
100
AcDbEntity
  8
ASSEMBLY_OUTLINES_TOP
100
AcDbPolyline
 90
        3
 70
         1
 10
0.0
 20
78.303622
 10
1.14
 20
78.873622
 10
1.14
 20
77.733622
  0
HATCH
  5
42
100
AcDbEntity
  8
ASSEMBLY_OUTLINES_TOP
100
AcDbHatch
 10
0.0
 20
0.0
 30
0.0
210
0.0
220
0.0
230
1.0
  2
SOLID
 70
         1
 71
         1
 91
        1
 92
        2
 72
         0
 73
         1
 93
        3
 10
0.0
 20
78.303622000000004
 10
1.1399999999999999
 20
78.873621999999997
 10
1.1399999999999999
 20
77.733621999999997
 97
        1
330
41
 75
         0
 76
         1
 98
        1
 10
0.0
 20
0.0
  0
LWPOLYLINE
  5
43
100
AcDbEntity
  8
ASSEMBLY_OUTLINES_TOP
100
AcDbPolyline
 90
        3
 70
         1
 10
-2.4
 20
78.303622
 10
-3.54
 20
77.733622
 10
-3.54
 20
78.873622
  0
HATCH
  5
44
100
AcDbEntity
  8
ASSEMBLY_OUTLINES_TOP
100
AcDbHatch
 10
0.0
 20
0.0
 30
0.0
210
0.0
220
0.0
230
1.0
  2
SOLID
 70
         1
 71
         1
 91
        1
 92
        2
 72
         0
 73
         1
 93
        3
 10
-2.3999999999999999
 20
78.303622000000004
 10
-3.54
 20
77.733621999999997
 10
-3.54
 20
78.873621999999997
 97
        1
330
43
 75
         0
 76
         1
 98
        1
 10
0.0
 20
0.0
  0
LWPOLYLINE
  5
45
100
AcDbEntity
  8
ASSEMBLY_OUTLINES_TOP
100
AcDbPolyline
 90
        2
 70
         0
 43
0.2
 10
0.57
 20
78.303622
 10
2.85
 20
78.303622
  0
LWPOLYLINE
  5
46
100
AcDbEntity
  8
ASSEMBLY_OUTLINES_TOP
100
AcDbPolyline
 90
        2
 70
         0
 43
0.2
 10
-2.97
 20
78.303622
 10
-5.25
 20
78.303622
  0
LWPOLYLINE
  5
47
100
AcDbEntity
  8
ASSEMBLY_OUTLINES_TOP
100
AcDbPolyline
 90
        2
 70
         0
 43
0.2
 10
0.0
 20
76.51
 10
0.0
 20
78.813622
  0
LWPOLYLINE
  5
48
100
AcDbEntity
  8
ASSEMBLY_OUTLINES_TOP
100
AcDbPolyline
 90
        2
 70
         0
 43
0.2
 10
-2.4
 20
74.11
 10
-2.4
 20
78.813622
  0
LWPOLYLINE
  5
49
100
AcDbEntity
  8
ASSEMBLY_OUTLINES_TOP
100
AcDbPolyline
 90
        2
 70
         1
 43
0.1
 10
-3.9
 20
73.6
 42
-1.0
 10
-0.9
 20
73.6
 42
-1.0
  0
LWPOLYLINE
  5
4A
100
AcDbEntity
  8
ASSEMBLY_OUTLINES_TOP
100
AcDbPolyline
 90
        2
 70
         1
 43
0.1
 10
-4.9
 20
73.6
 42
-1.0
 10
0.1
 20
73.6
 42
-1.0
  0
LWPOLYLINE
  5
4B
100
AcDbEntity
  8
ASSEMBLY_OUTLINES_TOP
100
AcDbPolyline
 90
        2
 70
         1
 43
0.1
 10
-3.9
 20
2.45
 42
-1.0
 10
-0.9
 20
2.45
 42
-1.0
  0
LWPOLYLINE
  5
4C
100
AcDbEntity
  8
ASSEMBLY_OUTLINES_TOP
100
AcDbPolyline
 90
        2
 70
         1
 43
0.1
 10
-4.9
 20
2.45
 42
-1.0
 10
0.1
 20
2.45
 42
-1.0
  0
LWPOLYLINE
  5
4D
100
AcDbEntity
  8
ASSEMBLY_OUTLINES_TOP
100
AcDbPolyline
 90
        2
 70
         1
 43
0.1
 10
-29.2
 20
10.35
 42
-1.0
 10
-24.2
 20
10.35
 42
-1.0
  0
LWPOLYLINE
  5
4E
100
AcDbEntity
  8
ASSEMBLY_OUTLINES_TOP
100
AcDbPolyline
 90
        2
 70
         1
 43
0.1
 10
-28.2
 20
10.35
 42
-1.0
 10
-25.2
 20
10.35
 42
-1.0
  0
LWPOLYLINE
  5
4F
100
AcDbEntity
  8
ASSEMBLY_OUTLINES_TOP
100
AcDbPolyline
 90
        2
 70
         0
 43
0.2
 10
-45.0
 20
-0.51
 10
-45.0
 20
-2.316445
  0
LWPOLYLINE
  5
50
100
AcDbEntity
  8
ASSEMBLY_OUTLINES_TOP
100
AcDbPolyline
 90
        2
 70
         0
 43
0.2
 10
0.0
 20
-0.51
 10
0.0
 20
-2.316445
  0
LWPOLYLINE
  5
51
100
AcDbEntity
  8
ASSEMBLY_OUTLINES_TOP
100
AcDbPolyline
 90
        2
 70
         0
 43
0.2
 10
-44.43
 20
-1.806445
 10
-25.248898
 20
-1.806445
  0
LWPOLYLINE
  5
52
100
AcDbEntity
  8
ASSEMBLY_OUTLINES_TOP
100
AcDbPolyline
 90
        2
 70
         0
 43
0.2
 10
-19.751102
 20
-1.806445
 10
-0.57
 20
-1.806445
  0
LWPOLYLINE
  5
53
100
AcDbEntity
  8
ASSEMBLY_OUTLINES_TOP
100
AcDbPolyline
 90
        3
 70
         1
 10
-45.0
 20
-1.806445
 10
-43.86
 20
-1.236445
 10
-43.86
 20
-2.376445
  0
HATCH
  5
54
100
AcDbEntity
  8
ASSEMBLY_OUTLINES_TOP
100
AcDbHatch
 10
0.0
 20
0.0
 30
0.0
210
0.0
220
0.0
230
1.0
  2
SOLID
 70
         1
 71
         1
 91
        1
 92
        2
 72
         0
 73
         1
 93
        3
 10
-45.0
 20
-1.8064450000000001
 10
-43.859999999999999
 20
-1.236445
 10
-43.859999999999999
 20
-2.3764449999999999
 97
        1
330
53
 75
         0
 76
         1
 98
        1
 10
0.0
 20
0.0
  0
LWPOLYLINE
  5
55
100
AcDbEntity
  8
ASSEMBLY_OUTLINES_TOP
100
AcDbPolyline
 90
        3
 70
         1
 10
0.0
 20
-1.806445
 10
-1.14
 20
-2.376445
 10
-1.14
 20
-1.236445
  0
HATCH
  5
56
100
AcDbEntity
  8
ASSEMBLY_OUTLINES_TOP
100
AcDbHatch
 10
0.0
 20
0.0
 30
0.0
210
0.0
220
0.0
230
1.0
  2
SOLID
 70
         1
 71
         1
 91
        1
 92
        2
 72
         0
 73
         1
 93
        3
 10
0.0
 20
-1.8064450000000001
 10
-1.1399999999999999
 20
-2.3764449999999999
 10
-1.1399999999999999
 20
-1.236445
 97
        1
330
55
 75
         0
 76
         1
 98
        1
 10
0.0
 20
0.0
  0
LWPOLYLINE
  5
57
100
AcDbEntity
  8
ASSEMBLY_OUTLINES_TOP
100
AcDbPolyline
 90
        2
 70
         0
 43
0.2
 10
-45.51
 20
76.0
 10
-49.806557
 20
76.0
  0
LWPOLYLINE
  5
58
100
AcDbEntity
  8
ASSEMBLY_OUTLINES_TOP
100
AcDbPolyline
 90
        2
 70
         0
 43
0.2
 10
-45.51
 20
0.0
 10
-49.806557
 20
0.0
  0
LWPOLYLINE
  5
59
100
AcDbEntity
  8
ASSEMBLY_OUTLINES_TOP
100
AcDbPolyline
 90
        2
 70
         0
 43
0.2
 10
-49.296557
 20
75.43
 10
-49.296557
 20
40.748897
  0
LWPOLYLINE
  5
5A
100
AcDbEntity
  8
ASSEMBLY_OUTLINES_TOP
100
AcDbPolyline
 90
        2
 70
         0
 43
0.2
 10
-49.296557
 20
35.251102
 10
-49.296557
 20
0.57
  0
LWPOLYLINE
  5
5B
100
AcDbEntity
  8
ASSEMBLY_OUTLINES_TOP
100
AcDbPolyline
 90
        3
 70
         1
 10
-49.296557
 20
76.0
 10
-48.726558
 20
74.86
 10
-49.866557
 20
74.86
  0
HATCH
  5
5C
100
AcDbEntity
  8
ASSEMBLY_OUTLINES_TOP
100
AcDbHatch
 10
0.0
 20
0.0
 30
0.0
210
0.0
220
0.0
230
1.0
  2
SOLID
 70
         1
 71
         1
 91
        1
 92
        2
 72
         0
 73
         1
 93
        3
 10
-49.296557
 20
76.0
 10
-48.726557999999997
 20
74.859999999999999
 10
-49.866557
 20
74.859999999999999
 97
        1
330
5B
 75
         0
 76
         1
 98
        1
 10
0.0
 20
0.0
  0
LWPOLYLINE
  5
5D
100
AcDbEntity
  8
ASSEMBLY_OUTLINES_TOP
100
AcDbPolyline
 90
        3
 70
         1
 10
-49.296557
 20
0.0
 10
-49.866557
 20
1.14
 10
-48.726557
 20
1.14
  0
HATCH
  5
5E
100
AcDbEntity
  8
ASSEMBLY_OUTLINES_TOP
100
AcDbHatch
 10
0.0
 20
0.0
 30
0.0
210
0.0
220
0.0
230
1.0
  2
SOLID
 70
         1
 71
         1
 91
        1
 92
        2
 72
         0
 73
         1
 93
        3
 10
-49.296557
 20
0.0
 10
-49.866557
 20
1.1399999999999999
 10
-48.726557
 20
1.1399999999999999
 97
        1
330
5D
 75
         0
 76
         1
 98
        1
 10
0.0
 20
0.0
  0
LWPOLYLINE
  5
5F
100
AcDbEntity
  8
ASSEMBLY_OUTLINES_TOP
100
AcDbPolyline
 90
        2
 70
         0
 43
0.2
 10
-26.7
 20
9.84
 10
-26.7
 20
-7.877074
  0
LWPOLYLINE
  5
60
100
AcDbEntity
  8
ASSEMBLY_OUTLINES_TOP
100
AcDbPolyline
 90
        2
 70
         0
 43
0.2
 10
-2.4
 20
1.89
 10
-2.4
 20
-7.877074
  0
LWPOLYLINE
  5
61
100
AcDbEntity
  8
ASSEMBLY_OUTLINES_TOP
100
AcDbPolyline
 90
        2
 70
         0
 43
0.2
 10
-26.13
 20
-7.367074
 10
-18.405703
 20
-7.367074
  0
LWPOLYLINE
  5
62
100
AcDbEntity
  8
ASSEMBLY_OUTLINES_TOP
100
AcDbPolyline
 90
        2
 70
         0
 43
0.2
 10
-10.694297
 20
-7.367074
 10
-2.97
 20
-7.367074
  0
LWPOLYLINE
  5
63
100
AcDbEntity
  8
ASSEMBLY_OUTLINES_TOP
100
AcDbPolyline
 90
        3
 70
         1
 10
-26.7
 20
-7.367074
 10
-25.56
 20
-6.797074
 10
-25.56
 20
-7.937074
  0
HATCH
  5
64
100
AcDbEntity
  8
ASSEMBLY_OUTLINES_TOP
100
AcDbHatch
 10
0.0
 20
0.0
 30
0.0
210
0.0
220
0.0
230
1.0
  2
SOLID
 70
         1
 71
         1
 91
        1
 92
        2
 72
         0
 73
         1
 93
        3
 10
-26.699999999999999
 20
-7.3670739999999997
 10
-25.559999999999999
 20
-6.7970740000000003
 10
-25.559999999999999
 20
-7.937074
 97
        1
330
63
 75
         0
 76
         1
 98
        1
 10
0.0
 20
0.0
  0
LWPOLYLINE
  5
65
100
AcDbEntity
  8
ASSEMBLY_OUTLINES_TOP
100
AcDbPolyline
 90
        3
 70
         1
 10
-2.4
 20
-7.367074
 10
-3.54
 20
-7.937074
 10
-3.54
 20
-6.797074
  0
HATCH
  5
66
100
AcDbEntity
  8
ASSEMBLY_OUTLINES_TOP
100
AcDbHatch
 10
0.0
 20
0.0
 30
0.0
210
0.0
220
0.0
230
1.0
  2
SOLID
 70
         1
 71
         1
 91
        1
 92
        2
 72
         0
 73
         1
 93
        3
 10
-2.3999999999999999
 20
-7.3670739999999997
 10
-3.54
 20
-7.937074
 10
-3.54
 20
-6.7970740000000003
 97
        1
330
65
 75
         0
 76
         1
 98
        1
 10
0.0
 20
0.0
  0
LWPOLYLINE
  5
67
100
AcDbEntity
  8
ASSEMBLY_OUTLINES_TOP
100
AcDbPolyline
 90
        2
 70
         0
 43
0.2
 10
-26.19
 20
10.35
 10
7.06
 20
10.35
  0
LWPOLYLINE
  5
68
100
AcDbEntity
  8
ASSEMBLY_OUTLINES_TOP
100
AcDbPolyline
 90
        2
 70
         0
 43
0.2
 10
-1.89
 20
2.4
 10
7.06
 20
2.4
  0
LWPOLYLINE
  5
69
100
AcDbEntity
  8
ASSEMBLY_OUTLINES_TOP
100
AcDbPolyline
 90
        2
 70
         0
 43
0.2
 10
6.55
 20
10.92
 10
6.55
 20
13.2
  0
LWPOLYLINE
  5
6A
100
AcDbEntity
  8
ASSEMBLY_OUTLINES_TOP
100
AcDbPolyline
 90
        2
 70
         0
 43
0.2
 10
6.55
 20
1.83
 10
6.55
 20
-0.45
  0
LWPOLYLINE
  5
6B
100
AcDbEntity
  8
ASSEMBLY_OUTLINES_TOP
100
AcDbPolyline
 90
        3
 70
         1
 10
6.55
 20
10.35
 10
5.98
 20
11.49
 10
7.12
 20
11.49
  0
HATCH
  5
6C
100
AcDbEntity
  8
ASSEMBLY_OUTLINES_TOP
100
AcDbHatch
 10
0.0
 20
0.0
 30
0.0
210
0.0
220
0.0
230
1.0
  2
SOLID
 70
         1
 71
         1
 91
        1
 92
        2
 72
         0
 73
         1
 93
        3
 10
6.5499999999999998
 20
10.35
 10
5.9800000000000004
 20
11.49
 10
7.1200000000000001
 20
11.49
 97
        1
330
6B
 75
         0
 76
         1
 98
        1
 10
0.0
 20
0.0
  0
LWPOLYLINE
  5
6D
100
AcDbEntity
  8
ASSEMBLY_OUTLINES_TOP
100
AcDbPolyline
 90
        3
 70
         1
 10
6.55
 20
2.4
 10
7.119999
 20
1.26
 10
5.98
 20
1.26
  0
HATCH
  5
6E
100
AcDbEntity
  8
ASSEMBLY_OUTLINES_TOP
100
AcDbHatch
 10
0.0
 20
0.0
 30
0.0
210
0.0
220
0.0
230
1.0
  2
SOLID
 70
         1
 71
         1
 91
        1
 92
        2
 72
         0
 73
         1
 93
        3
 10
6.5499999999999998
 20
2.3999999999999999
 10
7.119999
 20
1.26
 10
5.9800000000000004
 20
1.26
 97
        1
330
6D
 75
         0
 76
         1
 98
        1
 10
0.0
 20
0.0
  0
LWPOLYLINE
  5
6F
100
AcDbEntity
  8
ASSEMBLY_OUTLINES_TOP
100
AcDbPolyline
 90
        2
 70
         0
 43
0.2
 10
-45.51
 20
76.0
 10
-47.761327
 20
76.0
  0
LWPOLYLINE
  5
70
100
AcDbEntity
  8
ASSEMBLY_OUTLINES_TOP
100
AcDbPolyline
 90
        2
 70
         0
 43
0.2
 10
-43.51
 20
66.0
 10
-47.761327
 20
66.0
  0
LWPOLYLINE
  5
71
100
AcDbEntity
  8
ASSEMBLY_OUTLINES_TOP
100
AcDbPolyline
 90
        2
 70
         0
 43
0.2
 10
-47.251327
 20
76.57
 10
-47.251327
 20
78.85
  0
LWPOLYLINE
  5
72
100
AcDbEntity
  8
ASSEMBLY_OUTLINES_TOP
100
AcDbPolyline
 90
        2
 70
         0
 43
0.2
 10
-47.251327
 20
65.43
 10
-47.251327
 20
63.15
  0
LWPOLYLINE
  5
73
100
AcDbEntity
  8
ASSEMBLY_OUTLINES_TOP
100
AcDbPolyline
 90
        3
 70
         1
 10
-47.251327
 20
76.0
 10
-47.821327
 20
77.14
 10
-46.681327
 20
77.14
  0
HATCH
  5
74
100
AcDbEntity
  8
ASSEMBLY_OUTLINES_TOP
100
AcDbHatch
 10
0.0
 20
0.0
 30
0.0
210
0.0
220
0.0
230
1.0
  2
SOLID
 70
         1
 71
         1
 91
        1
 92
        2
 72
         0
 73
         1
 93
        3
 10
-47.251327000000003
 20
76.0
 10
-47.821326999999997
 20
77.140000000000001
 10
-46.681327000000003
 20
77.140000000000001
 97
        1
330
73
 75
         0
 76
         1
 98
        1
 10
0.0
 20
0.0
  0
LWPOLYLINE
  5
75
100
AcDbEntity
  8
ASSEMBLY_OUTLINES_TOP
100
AcDbPolyline
 90
        3
 70
         1
 10
-47.251327
 20
66.0
 10
-46.681328
 20
64.86
 10
-47.821327
 20
64.86
  0
HATCH
  5
76
100
AcDbEntity
  8
ASSEMBLY_OUTLINES_TOP
100
AcDbHatch
 10
0.0
 20
0.0
 30
0.0
210
0.0
220
0.0
230
1.0
  2
SOLID
 70
         1
 71
         1
 91
        1
 92
        2
 72
         0
 73
         1
 93
        3
 10
-47.251327000000003
 20
66.0
 10
-46.681328000000001
 20
64.859999999999999
 10
-47.821326999999997
 20
64.859999999999999
 97
        1
330
75
 75
         0
 76
         1
 98
        1
 10
0.0
 20
0.0
  0
LWPOLYLINE
  5
77
100
AcDbEntity
  8
ASSEMBLY_OUTLINES_TOP
100
AcDbPolyline
 90
        2
 70
         0
 43
0.2
 10
-43.0
 20
66.51
 10
-43.0
 20
80.776324
  0
LWPOLYLINE
  5
78
100
AcDbEntity
  8
ASSEMBLY_OUTLINES_TOP
100
AcDbPolyline
 90
        2
 70
         0
 43
0.2
 10
-2.4
 20
74.11
 10
-2.4
 20
80.776324
  0
LWPOLYLINE
  5
79
100
AcDbEntity
  8
ASSEMBLY_OUTLINES_TOP
100
AcDbPolyline
 90
        2
 70
         0
 43
0.2
 10
-42.43
 20
80.266324
 10
-26.555703
 20
80.266324
  0
LWPOLYLINE
  5
7A
100
AcDbEntity
  8
ASSEMBLY_OUTLINES_TOP
100
AcDbPolyline
 90
        2
 70
         0
 43
0.2
 10
-18.844297
 20
80.266324
 10
-2.97
 20
80.266324
  0
LWPOLYLINE
  5
7B
100
AcDbEntity
  8
ASSEMBLY_OUTLINES_TOP
100
AcDbPolyline
 90
        3
 70
         1
 10
-43.0
 20
80.266324
 10
-41.86
 20
80.836324
 10
-41.86
 20
79.696324
  0
HATCH
  5
7C
100
AcDbEntity
  8
ASSEMBLY_OUTLINES_TOP
100
AcDbHatch
 10
0.0
 20
0.0
 30
0.0
210
0.0
220
0.0
230
1.0
  2
SOLID
 70
         1
 71
         1
 91
        1
 92
        2
 72
         0
 73
         1
 93
        3
 10
-43.0
 20
80.266323999999997
 10
-41.859999999999999
 20
80.836324000000005
 10
-41.859999999999999
 20
79.696324000000004
 97
        1
330
7B
 75
         0
 76
         1
 98
        1
 10
0.0
 20
0.0
  0
LWPOLYLINE
  5
7D
100
AcDbEntity
  8
ASSEMBLY_OUTLINES_TOP
100
AcDbPolyline
 90
        3
 70
         1
 10
-2.4
 20
80.266324
 10
-3.54
 20
79.696324
 10
-3.54
 20
80.836324
  0
HATCH
  5
7E
100
AcDbEntity
  8
ASSEMBLY_OUTLINES_TOP
100
AcDbHatch
 10
0.0
 20
0.0
 30
0.0
210
0.0
220
0.0
230
1.0
  2
SOLID
 70
         1
 71
         1
 91
        1
 92
        2
 72
         0
 73
         1
 93
        3
 10
-2.3999999999999999
 20
80.266323999999997
 10
-3.54
 20
79.696324000000004
 10
-3.54
 20
80.836324000000005
 97
        1
330
7D
 75
         0
 76
         1
 98
        1
 10
0.0
 20
0.0
  0
LWPOLYLINE
  5
7F
100
AcDbEntity
  8
ASSEMBLY_OUTLINES_TOP
100
AcDbPolyline
 90
        2
 70
         1
 43
0.1
 10
-45.5
 20
66.0
 42
-1.0
 10
-40.5
 20
66.0
 42
-1.0
  0
LWPOLYLINE
  5
80
100
AcDbEntity
  8
ASSEMBLY_OUTLINES_TOP
100
AcDbPolyline
 90
        2
 70
         1
 43
0.1
 10
-44.5
 20
66.0
 42
-1.0
 10
-41.5
 20
66.0
 42
-1.0
  0
TEXT
  5
82
100
AcDbEntity
  8
ASSEMBLY_OUTLINES_TOP
100
AcDbText
 10
-11.227409
 20
-4.47422
 30
0.0
 40
1.27
  1
2.4mm
  7
VERIBEST_GERBER_1
 72
         1
 11
-8.375624
 21
-3.83922
 31
0.0
100
AcDbText
 73
         2
  0
TEXT
  5
83
100
AcDbEntity
  8
ASSEMBLY_OUTLINES_TOP
100
AcDbText
 10
4.0224
 20
5.523839
 30
0.0
 40
1.27
  1
2.4mm
 50
90.0
  7
VERIBEST_GERBER_1
 72
         1
 11
3.3874
 21
8.375624
 31
0.0
100
AcDbText
 73
         2
  0
TEXT
  5
84
100
AcDbEntity
  8
ASSEMBLY_OUTLINES_TOP
100
AcDbText
 10
2.818788
 20
79.123839
 30
0.0
 40
1.27
  1
2.4mm
 50
90.0
  7
VERIBEST_GERBER_1
 72
         1
 11
2.183788
 21
81.975624
 31
0.0
100
AcDbText
 73
         2
  0
TEXT
  5
85
100
AcDbEntity
  8
ASSEMBLY_OUTLINES_TOP
100
AcDbText
 10
-11.227409
 20
77.668622
 30
0.0
 40
1.27
  1
2.4mm
  7
VERIBEST_GERBER_1
 72
         1
 11
-8.375624
 21
78.303622
 31
0.0
100
AcDbText
 73
         2
  0
TEXT
  5
86
100
AcDbEntity
  8
ASSEMBLY_OUTLINES_TOP
100
AcDbText
 10
-24.89776
 20
-2.441446
 30
0.0
 40
1.27
  1
45mm
  7
VERIBEST_GERBER_1
 72
         1
 11
-22.5
 21
-1.806446
 31
0.0
100
AcDbText
 73
         2
  0
TEXT
  5
87
100
AcDbEntity
  8
ASSEMBLY_OUTLINES_TOP
100
AcDbText
 10
-48.661558
 20
35.602241
 30
0.0
 40
1.27
  1
76mm
 50
90.0
  7
VERIBEST_GERBER_1
 72
         1
 11
-49.296558
 21
38.000001
 31
0.0
100
AcDbText
 73
         2
  0
TEXT
  5
88
100
AcDbEntity
  8
ASSEMBLY_OUTLINES_TOP
100
AcDbText
 10
-18.00186
 20
-8.002074
 30
0.0
 40
1.27
  1
24.3mm
  7
VERIBEST_GERBER_1
 72
         1
 11
-14.55
 21
-7.367074
 31
0.0
100
AcDbText
 73
         2
  0
TEXT
  5
89
100
AcDbEntity
  8
ASSEMBLY_OUTLINES_TOP
100
AcDbText
 10
7.185
 20
13.503843
 30
0.0
 40
1.27
  1
7.95mm
 50
90.0
  7
VERIBEST_GERBER_1
 72
         1
 11
6.55
 21
16.955703
 31
0.0
100
AcDbText
 73
         2
  0
TEXT
  5
8A
100
AcDbEntity
  8
ASSEMBLY_OUTLINES_TOP
100
AcDbText
 10
-46.616327
 20
79.097645
 30
0.0
 40
1.27
  1
10mm
 50
90.0
  7
VERIBEST_GERBER_1
 72
         1
 11
-47.251327
 21
81.425555
 31
0.0
100
AcDbText
 73
         2
  0
TEXT
  5
8B
100
AcDbEntity
  8
ASSEMBLY_OUTLINES_TOP
100
AcDbText
 10
-26.15186
 20
79.631324
 30
0.0
 40
1.27
  1
40.6mm
  7
VERIBEST_GERBER_1
 72
         1
 11
-22.7
 21
80.266324
 31
0.0
100
AcDbText
 73
         2
  0
LWPOLYLINE
  5
8C
100
AcDbEntity
  8
ASSEMBLY_OUTLINES_TOP
100
AcDbPolyline
 90
        4
 70
         1
 43
0.1
 10
-13.15
 20
28.4
 10
-13.15
 20
31.3
 10
-11.85
 20
31.3
 10
-11.85
 20
28.4
  0
LWPOLYLINE
  5
8D
100
AcDbEntity
  8
ASSEMBLY_OUTLINES_TOP
100
AcDbPolyline
 90
        4
 70
         1
 43
0.1
 10
-13.25
 20
40.3
 10
-13.25
 20
43.2
 10
-11.95
 20
43.2
 10
-11.95
 20
40.3
  0
LWPOLYLINE
  5
8E
100
AcDbEntity
  8
ASSEMBLY_OUTLINES_TOP
100
AcDbPolyline
 90
        4
 70
         1
 43
0.1
 10
-7.85
 20
38.5
 10
-7.85
 20
41.4
 10
-6.55
 20
41.4
 10
-6.55
 20
38.5
  0
LWPOLYLINE
  5
8F
100
AcDbEntity
  8
ASSEMBLY_OUTLINES_TOP
100
AcDbPolyline
 90
        4
 70
         1
 43
0.1
 10
-13.95
 20
60.9
 10
-13.95
 20
62.2
 10
-11.05
 20
62.2
 10
-11.05
 20
60.9
  0
LWPOLYLINE
  5
90
100
AcDbEntity
  8
ASSEMBLY_OUTLINES_TOP
100
AcDbPolyline
 90
        4
 70
         1
 43
0.1
 10
-7.45
 20
43.4
 10
-7.45
 20
44.7
 10
-4.55
 20
44.7
 10
-4.55
 20
43.4
  0
LWPOLYLINE
  5
91
100
AcDbEntity
  8
ASSEMBLY_OUTLINES_TOP
100
AcDbPolyline
 90
        4
 70
         1
 43
0.1
 10
-10.95
 20
60.9
 10
-10.95
 20
62.2
 10
-8.05
 20
62.2
 10
-8.05
 20
60.9
  0
LWPOLYLINE
  5
92
100
AcDbEntity
  8
ASSEMBLY_OUTLINES_TOP
100
AcDbPolyline
 90
        4
 70
         1
 43
0.1
 10
-6.95
 20
59.05
 10
-6.95
 20
60.35
 10
-4.05
 20
60.35
 10
-4.05
 20
59.05
  0
LWPOLYLINE
  5
93
100
AcDbEntity
  8
ASSEMBLY_OUTLINES_TOP
100
AcDbPolyline
 90
        4
 70
         1
 43
0.1
 10
-5.35
 20
34.6
 10
-5.35
 20
35.9
 10
-2.45
 20
35.9
 10
-2.45
 20
34.6
  0
LWPOLYLINE
  5
94
100
AcDbEntity
  8
ASSEMBLY_OUTLINES_TOP
100
AcDbPolyline
 90
        4
 70
         1
 43
0.1
 10
-3.85
 20
59.05
 10
-3.85
 20
60.35
 10
-0.95
 20
60.35
 10
-0.95
 20
59.05
  0
LWPOLYLINE
  5
95
100
AcDbEntity
  8
ASSEMBLY_OUTLINES_TOP
100
AcDbPolyline
 90
        4
 70
         1
 43
0.1
 10
-37.75
 20
62.85
 10
-37.75
 20
65.85
 10
-36.05
 20
65.85
 10
-36.05
 20
62.85
  0
LWPOLYLINE
  5
96
100
AcDbEntity
  8
ASSEMBLY_OUTLINES_TOP
100
AcDbPolyline
 90
        2
 70
         0
 43
0.1
 10
-36.05
 20
62.95
 10
-36.15
 20
62.85
  0
LWPOLYLINE
  5
97
100
AcDbEntity
  8
ASSEMBLY_OUTLINES_TOP
100
AcDbPolyline
 90
        2
 70
         0
 43
0.1
 10
-36.05
 20
63.05
 10
-36.25
 20
62.85
  0
LWPOLYLINE
  5
98
100
AcDbEntity
  8
ASSEMBLY_OUTLINES_TOP
100
AcDbPolyline
 90
        2
 70
         0
 43
0.1
 10
-36.05
 20
63.15
 10
-36.35
 20
62.85
  0
LWPOLYLINE
  5
99
100
AcDbEntity
  8
ASSEMBLY_OUTLINES_TOP
100
AcDbPolyline
 90
        2
 70
         0
 43
0.1
 10
-36.05
 20
63.25
 10
-36.45
 20
62.85
  0
LWPOLYLINE
  5
9A
100
AcDbEntity
  8
ASSEMBLY_OUTLINES_TOP
100
AcDbPolyline
 90
        2
 70
         0
 43
0.1
 10
-36.05
 20
63.35
 10
-36.55
 20
62.85
  0
LWPOLYLINE
  5
9B
100
AcDbEntity
  8
ASSEMBLY_OUTLINES_TOP
100
AcDbPolyline
 90
        2
 70
         0
 43
0.1
 10
-36.05
 20
63.45
 10
-36.65
 20
62.85
  0
LWPOLYLINE
  5
9C
100
AcDbEntity
  8
ASSEMBLY_OUTLINES_TOP
100
AcDbPolyline
 90
        4
 70
         1
 43
0.1
 10
-25.7
 20
18.8
 10
-25.7
 20
21.3
 10
-24.7
 20
21.3
 10
-24.7
 20
18.8
  0
LWPOLYLINE
  5
9D
100
AcDbEntity
  8
ASSEMBLY_OUTLINES_TOP
100
AcDbPolyline
 90
        2
 70
         0
 43
0.1
 10
-24.8
 20
18.8
 10
-24.7
 20
18.9
  0
LWPOLYLINE
  5
9E
100
AcDbEntity
  8
ASSEMBLY_OUTLINES_TOP
100
AcDbPolyline
 90
        2
 70
         0
 43
0.1
 10
-24.9
 20
18.8
 10
-24.7
 20
19.0
  0
LWPOLYLINE
  5
9F
100
AcDbEntity
  8
ASSEMBLY_OUTLINES_TOP
100
AcDbPolyline
 90
        2
 70
         0
 43
0.1
 10
-25.0
 20
18.8
 10
-24.7
 20
19.1
  0
LWPOLYLINE
  5
A0
100
AcDbEntity
  8
ASSEMBLY_OUTLINES_TOP
100
AcDbPolyline
 90
        2
 70
         0
 43
0.1
 10
-25.1
 20
18.8
 10
-24.7
 20
19.2
  0
LWPOLYLINE
  5
A1
100
AcDbEntity
  8
ASSEMBLY_OUTLINES_TOP
100
AcDbPolyline
 90
        2
 70
         0
 43
0.1
 10
-25.2
 20
18.8
 10
-24.7
 20
19.3
  0
LWPOLYLINE
  5
A2
100
AcDbEntity
  8
ASSEMBLY_OUTLINES_TOP
100
AcDbPolyline
 90
        2
 70
         0
 43
0.1
 10
-25.3
 20
18.8
 10
-24.7
 20
19.4
  0
LWPOLYLINE
  5
A3
100
AcDbEntity
  8
ASSEMBLY_OUTLINES_TOP
100
AcDbPolyline
 90
        2
 70
         0
 43
0.1
 10
-25.4
 20
18.8
 10
-24.7
 20
19.5
  0
LWPOLYLINE
  5
A4
100
AcDbEntity
  8
ASSEMBLY_OUTLINES_TOP
100
AcDbPolyline
 90
        2
 70
         0
 43
0.1
 10
-25.5
 20
18.8
 10
-24.7
 20
19.6
  0
LWPOLYLINE
  5
A5
100
AcDbEntity
  8
ASSEMBLY_OUTLINES_TOP
100
AcDbPolyline
 90
        2
 70
         0
 43
0.1
 10
-25.6
 20
18.8
 10
-24.7
 20
19.7
  0
LWPOLYLINE
  5
A6
100
AcDbEntity
  8
ASSEMBLY_OUTLINES_TOP
100
AcDbPolyline
 90
        2
 70
         0
 43
0.1
 10
-25.7
 20
18.8
 10
-24.7
 20
19.8
  0
LWPOLYLINE
  5
A7
100
AcDbEntity
  8
ASSEMBLY_OUTLINES_TOP
100
AcDbPolyline
 90
        4
 70
         1
 43
0.1
 10
-24.35
 20
64.05
 10
-24.35
 20
67.05
 10
-22.65
 20
67.05
 10
-22.65
 20
64.05
  0
LWPOLYLINE
  5
A8
100
AcDbEntity
  8
ASSEMBLY_OUTLINES_TOP
100
AcDbPolyline
 90
        2
 70
         0
 43
0.1
 10
-24.35
 20
66.95
 10
-24.25
 20
67.05
  0
LWPOLYLINE
  5
A9
100
AcDbEntity
  8
ASSEMBLY_OUTLINES_TOP
100
AcDbPolyline
 90
        2
 70
         0
 43
0.1
 10
-24.35
 20
66.85
 10
-24.15
 20
67.05
  0
LWPOLYLINE
  5
AA
100
AcDbEntity
  8
ASSEMBLY_OUTLINES_TOP
100
AcDbPolyline
 90
        2
 70
         0
 43
0.1
 10
-24.35
 20
66.75
 10
-24.05
 20
67.05
  0
LWPOLYLINE
  5
AB
100
AcDbEntity
  8
ASSEMBLY_OUTLINES_TOP
100
AcDbPolyline
 90
        2
 70
         0
 43
0.1
 10
-24.35
 20
66.65
 10
-23.95
 20
67.05
  0
LWPOLYLINE
  5
AC
100
AcDbEntity
  8
ASSEMBLY_OUTLINES_TOP
100
AcDbPolyline
 90
        2
 70
         0
 43
0.1
 10
-24.35
 20
66.55
 10
-23.85
 20
67.05
  0
LWPOLYLINE
  5
AD
100
AcDbEntity
  8
ASSEMBLY_OUTLINES_TOP
100
AcDbPolyline
 90
        2
 70
         0
 43
0.1
 10
-24.35
 20
66.45
 10
-23.75
 20
67.05
  0
LWPOLYLINE
  5
AE
100
AcDbEntity
  8
ASSEMBLY_OUTLINES_TOP
100
AcDbPolyline
 90
        4
 70
         1
 43
0.1
 10
-18.35
 20
35.25
 10
-18.35
 20
38.25
 10
-16.65
 20
38.25
 10
-16.65
 20
35.25
  0
LWPOLYLINE
  5
AF
100
AcDbEntity
  8
ASSEMBLY_OUTLINES_TOP
100
AcDbPolyline
 90
        2
 70
         0
 43
0.1
 10
-16.65
 20
35.35
 10
-16.75
 20
35.25
  0
LWPOLYLINE
  5
B0
100
AcDbEntity
  8
ASSEMBLY_OUTLINES_TOP
100
AcDbPolyline
 90
        2
 70
         0
 43
0.1
 10
-16.65
 20
35.45
 10
-16.85
 20
35.25
  0
LWPOLYLINE
  5
B1
100
AcDbEntity
  8
ASSEMBLY_OUTLINES_TOP
100
AcDbPolyline
 90
        2
 70
         0
 43
0.1
 10
-16.65
 20
35.55
 10
-16.95
 20
35.25
  0
LWPOLYLINE
  5
B2
100
AcDbEntity
  8
ASSEMBLY_OUTLINES_TOP
100
AcDbPolyline
 90
        2
 70
         0
 43
0.1
 10
-16.65
 20
35.65
 10
-17.05
 20
35.25
  0
LWPOLYLINE
  5
B3
100
AcDbEntity
  8
ASSEMBLY_OUTLINES_TOP
100
AcDbPolyline
 90
        2
 70
         0
 43
0.1
 10
-16.65
 20
35.75
 10
-17.15
 20
35.25
  0
LWPOLYLINE
  5
B4
100
AcDbEntity
  8
ASSEMBLY_OUTLINES_TOP
100
AcDbPolyline
 90
        2
 70
         0
 43
0.1
 10
-16.65
 20
35.85
 10
-17.25
 20
35.25
  0
LWPOLYLINE
  5
B5
100
AcDbEntity
  8
ASSEMBLY_OUTLINES_TOP
100
AcDbPolyline
 90
        4
 70
         1
 43
0.1
 10
-7.5
 20
30.2
 10
-7.5
 20
32.7
 10
-6.5
 20
32.7
 10
-6.5
 20
30.2
  0
LWPOLYLINE
  5
B6
100
AcDbEntity
  8
ASSEMBLY_OUTLINES_TOP
100
AcDbPolyline
 90
        2
 70
         0
 43
0.1
 10
-6.6
 20
30.2
 10
-6.5
 20
30.3
  0
LWPOLYLINE
  5
B7
100
AcDbEntity
  8
ASSEMBLY_OUTLINES_TOP
100
AcDbPolyline
 90
        2
 70
         0
 43
0.1
 10
-6.7
 20
30.2
 10
-6.5
 20
30.4
  0
LWPOLYLINE
  5
B8
100
AcDbEntity
  8
ASSEMBLY_OUTLINES_TOP
100
AcDbPolyline
 90
        2
 70
         0
 43
0.1
 10
-6.8
 20
30.2
 10
-6.5
 20
30.5
  0
LWPOLYLINE
  5
B9
100
AcDbEntity
  8
ASSEMBLY_OUTLINES_TOP
100
AcDbPolyline
 90
        2
 70
         0
 43
0.1
 10
-6.9
 20
30.2
 10
-6.5
 20
30.6
  0
LWPOLYLINE
  5
BA
100
AcDbEntity
  8
ASSEMBLY_OUTLINES_TOP
100
AcDbPolyline
 90
        2
 70
         0
 43
0.1
 10
-7.0
 20
30.2
 10
-6.5
 20
30.7
  0
LWPOLYLINE
  5
BB
100
AcDbEntity
  8
ASSEMBLY_OUTLINES_TOP
100
AcDbPolyline
 90
        2
 70
         0
 43
0.1
 10
-7.1
 20
30.2
 10
-6.5
 20
30.8
  0
LWPOLYLINE
  5
BC
100
AcDbEntity
  8
ASSEMBLY_OUTLINES_TOP
100
AcDbPolyline
 90
        2
 70
         0
 43
0.1
 10
-7.2
 20
30.2
 10
-6.5
 20
30.9
  0
LWPOLYLINE
  5
BD
100
AcDbEntity
  8
ASSEMBLY_OUTLINES_TOP
100
AcDbPolyline
 90
        2
 70
         0
 43
0.1
 10
-7.3
 20
30.2
 10
-6.5
 20
31.0
  0
LWPOLYLINE
  5
BE
100
AcDbEntity
  8
ASSEMBLY_OUTLINES_TOP
100
AcDbPolyline
 90
        2
 70
         0
 43
0.1
 10
-7.4
 20
30.2
 10
-6.5
 20
31.1
  0
LWPOLYLINE
  5
BF
100
AcDbEntity
  8
ASSEMBLY_OUTLINES_TOP
100
AcDbPolyline
 90
        2
 70
         0
 43
0.1
 10
-7.5
 20
30.2
 10
-6.5
 20
31.2
  0
LWPOLYLINE
  5
C0
100
AcDbEntity
  8
ASSEMBLY_OUTLINES_TOP
100
AcDbPolyline
 90
        4
 70
         1
 43
0.1
 10
-43.15
 20
51.5
 10
-43.15
 20
59.0
 10
-29.85
 20
59.0
 10
-29.85
 20
51.5
  0
LWPOLYLINE
  5
C1
100
AcDbEntity
  8
ASSEMBLY_OUTLINES_TOP
100
AcDbPolyline
 90
        4
 70
         1
 43
0.1
 10
-37.5
 20
31.65
 10
-37.5
 20
45.65
 10
-23.5
 20
45.65
 10
-23.5
 20
31.65
  0
LWPOLYLINE
  5
C2
100
AcDbEntity
  8
ASSEMBLY_OUTLINES_TOP
100
AcDbPolyline
 90
        2
 70
         0
 43
0.1
 10
-23.5
 20
45.55
 10
-23.6
 20
45.65
  0
LWPOLYLINE
  5
C3
100
AcDbEntity
  8
ASSEMBLY_OUTLINES_TOP
100
AcDbPolyline
 90
        2
 70
         0
 43
0.1
 10
-23.5
 20
45.45
 10
-23.7
 20
45.65
  0
LWPOLYLINE
  5
C4
100
AcDbEntity
  8
ASSEMBLY_OUTLINES_TOP
100
AcDbPolyline
 90
        2
 70
         0
 43
0.1
 10
-23.5
 20
45.35
 10
-23.8
 20
45.65
  0
LWPOLYLINE
  5
C5
100
AcDbEntity
  8
ASSEMBLY_OUTLINES_TOP
100
AcDbPolyline
 90
        2
 70
         0
 43
0.1
 10
-23.5
 20
45.25
 10
-23.9
 20
45.65
  0
LWPOLYLINE
  5
C6
100
AcDbEntity
  8
ASSEMBLY_OUTLINES_TOP
100
AcDbPolyline
 90
        2
 70
         0
 43
0.1
 10
-23.5
 20
45.15
 10
-24.0
 20
45.65
  0
LWPOLYLINE
  5
C7
100
AcDbEntity
  8
ASSEMBLY_OUTLINES_TOP
100
AcDbPolyline
 90
        2
 70
         0
 43
0.1
 10
-23.5
 20
45.05
 10
-24.1
 20
45.65
  0
LWPOLYLINE
  5
C8
100
AcDbEntity
  8
ASSEMBLY_OUTLINES_TOP
100
AcDbPolyline
 90
        2
 70
         0
 43
0.1
 10
-23.5
 20
44.95
 10
-24.2
 20
45.65
  0
LWPOLYLINE
  5
C9
100
AcDbEntity
  8
ASSEMBLY_OUTLINES_TOP
100
AcDbPolyline
 90
        2
 70
         0
 43
0.1
 10
-23.5
 20
44.85
 10
-24.3
 20
45.65
  0
LWPOLYLINE
  5
CA
100
AcDbEntity
  8
ASSEMBLY_OUTLINES_TOP
100
AcDbPolyline
 90
        2
 70
         0
 43
0.1
 10
-23.5
 20
44.75
 10
-24.4
 20
45.65
  0
LWPOLYLINE
  5
CB
100
AcDbEntity
  8
ASSEMBLY_OUTLINES_TOP
100
AcDbPolyline
 90
        2
 70
         0
 43
0.1
 10
-23.5
 20
44.65
 10
-24.5
 20
45.65
  0
LWPOLYLINE
  5
CC
100
AcDbEntity
  8
ASSEMBLY_OUTLINES_TOP
100
AcDbPolyline
 90
        4
 70
         1
 43
0.1
 10
-28.45
 20
25.5
 10
-28.45
 20
29.5
 10
-24.45
 20
29.5
 10
-24.45
 20
25.5
  0
LWPOLYLINE
  5
CD
100
AcDbEntity
  8
ASSEMBLY_OUTLINES_TOP
100
AcDbPolyline
 90
        2
 70
         0
 43
0.1
 10
-24.55
 20
25.5
 10
-24.45
 20
25.6
  0
LWPOLYLINE
  5
CE
100
AcDbEntity
  8
ASSEMBLY_OUTLINES_TOP
100
AcDbPolyline
 90
        2
 70
         0
 43
0.1
 10
-24.65
 20
25.5
 10
-24.45
 20
25.7
  0
LWPOLYLINE
  5
CF
100
AcDbEntity
  8
ASSEMBLY_OUTLINES_TOP
100
AcDbPolyline
 90
        2
 70
         0
 43
0.1
 10
-24.75
 20
25.5
 10
-24.45
 20
25.8
  0
LWPOLYLINE
  5
D0
100
AcDbEntity
  8
ASSEMBLY_OUTLINES_TOP
100
AcDbPolyline
 90
        2
 70
         0
 43
0.1
 10
-24.85
 20
25.5
 10
-24.45
 20
25.9
  0
LWPOLYLINE
  5
D1
100
AcDbEntity
  8
ASSEMBLY_OUTLINES_TOP
100
AcDbPolyline
 90
        2
 70
         0
 43
0.1
 10
-24.95
 20
25.5
 10
-24.45
 20
26.0
  0
LWPOLYLINE
  5
D2
100
AcDbEntity
  8
ASSEMBLY_OUTLINES_TOP
100
AcDbPolyline
 90
        2
 70
         0
 43
0.1
 10
-25.05
 20
25.5
 10
-24.45
 20
26.1
  0
LWPOLYLINE
  5
D3
100
AcDbEntity
  8
ASSEMBLY_OUTLINES_TOP
100
AcDbPolyline
 90
        2
 70
         0
 43
0.1
 10
-25.15
 20
25.5
 10
-24.45
 20
26.2
  0
LWPOLYLINE
  5
D4
100
AcDbEntity
  8
ASSEMBLY_OUTLINES_TOP
100
AcDbPolyline
 90
        2
 70
         0
 43
0.1
 10
-25.25
 20
25.5
 10
-24.45
 20
26.3
  0
LWPOLYLINE
  5
D5
100
AcDbEntity
  8
ASSEMBLY_OUTLINES_TOP
100
AcDbPolyline
 90
        2
 70
         0
 43
0.1
 10
-25.35
 20
25.5
 10
-24.45
 20
26.4
  0
LWPOLYLINE
  5
D6
100
AcDbEntity
  8
ASSEMBLY_OUTLINES_TOP
100
AcDbPolyline
 90
        2
 70
         0
 43
0.1
 10
-25.45
 20
25.5
 10
-24.45
 20
26.5
  0
LWPOLYLINE
  5
D7
100
AcDbEntity
  8
ASSEMBLY_OUTLINES_TOP
100
AcDbPolyline
 90
        4
 70
         1
 43
0.1
 10
-27.65
 20
47.75
 10
-27.65
 20
60.75
 10
-16.15
 20
60.75
 10
-16.15
 20
47.75
  0
LWPOLYLINE
  5
D8
100
AcDbEntity
  8
ASSEMBLY_OUTLINES_TOP
100
AcDbPolyline
 90
        2
 70
         0
 43
0.1
 10
-16.25
 20
47.75
 10
-16.15
 20
47.85
  0
LWPOLYLINE
  5
D9
100
AcDbEntity
  8
ASSEMBLY_OUTLINES_TOP
100
AcDbPolyline
 90
        2
 70
         0
 43
0.1
 10
-16.35
 20
47.75
 10
-16.15
 20
47.95
  0
LWPOLYLINE
  5
DA
100
AcDbEntity
  8
ASSEMBLY_OUTLINES_TOP
100
AcDbPolyline
 90
        2
 70
         0
 43
0.1
 10
-16.45
 20
47.75
 10
-16.15
 20
48.05
  0
LWPOLYLINE
  5
DB
100
AcDbEntity
  8
ASSEMBLY_OUTLINES_TOP
100
AcDbPolyline
 90
        2
 70
         0
 43
0.1
 10
-16.55
 20
47.75
 10
-16.15
 20
48.15
  0
LWPOLYLINE
  5
DC
100
AcDbEntity
  8
ASSEMBLY_OUTLINES_TOP
100
AcDbPolyline
 90
        2
 70
         0
 43
0.1
 10
-16.65
 20
47.75
 10
-16.15
 20
48.25
  0
LWPOLYLINE
  5
DD
100
AcDbEntity
  8
ASSEMBLY_OUTLINES_TOP
100
AcDbPolyline
 90
        2
 70
         0
 43
0.1
 10
-16.75
 20
47.75
 10
-16.15
 20
48.35
  0
LWPOLYLINE
  5
DE
100
AcDbEntity
  8
ASSEMBLY_OUTLINES_TOP
100
AcDbPolyline
 90
        2
 70
         0
 43
0.1
 10
-16.85
 20
47.75
 10
-16.15
 20
48.45
  0
LWPOLYLINE
  5
DF
100
AcDbEntity
  8
ASSEMBLY_OUTLINES_TOP
100
AcDbPolyline
 90
        2
 70
         0
 43
0.1
 10
-16.95
 20
47.75
 10
-16.15
 20
48.55
  0
LWPOLYLINE
  5
E0
100
AcDbEntity
  8
ASSEMBLY_OUTLINES_TOP
100
AcDbPolyline
 90
        2
 70
         0
 43
0.1
 10
-17.05
 20
47.75
 10
-16.15
 20
48.65
  0
LWPOLYLINE
  5
E1
100
AcDbEntity
  8
ASSEMBLY_OUTLINES_TOP
100
AcDbPolyline
 90
        2
 70
         0
 43
0.1
 10
-17.15
 20
47.75
 10
-16.15
 20
48.75
  0
LWPOLYLINE
  5
E2
100
AcDbEntity
  8
ASSEMBLY_OUTLINES_TOP
100
AcDbPolyline
 90
        4
 70
         1
 43
0.1
 10
-43.55
 20
41.4
 10
-43.55
 20
44.4
 10
-42.15
 20
44.4
 10
-42.15
 20
41.4
  0
LWPOLYLINE
  5
E3
100
AcDbEntity
  8
ASSEMBLY_OUTLINES_TOP
100
AcDbPolyline
 90
        2
 70
         0
 43
0.1
 10
-43.55
 20
44.3
 10
-43.45
 20
44.4
  0
LWPOLYLINE
  5
E4
100
AcDbEntity
  8
ASSEMBLY_OUTLINES_TOP
100
AcDbPolyline
 90
        2
 70
         0
 43
0.1
 10
-43.55
 20
44.2
 10
-43.35
 20
44.4
  0
LWPOLYLINE
  5
E5
100
AcDbEntity
  8
ASSEMBLY_OUTLINES_TOP
100
AcDbPolyline
 90
        2
 70
         0
 43
0.1
 10
-43.55
 20
44.1
 10
-43.25
 20
44.4
  0
LWPOLYLINE
  5
E6
100
AcDbEntity
  8
ASSEMBLY_OUTLINES_TOP
100
AcDbPolyline
 90
        2
 70
         0
 43
0.1
 10
-43.55
 20
44.0
 10
-43.15
 20
44.4
  0
LWPOLYLINE
  5
E7
100
AcDbEntity
  8
ASSEMBLY_OUTLINES_TOP
100
AcDbPolyline
 90
        2
 70
         0
 43
0.1
 10
-43.55
 20
43.9
 10
-43.05
 20
44.4
  0
LWPOLYLINE
  5
E8
100
AcDbEntity
  8
ASSEMBLY_OUTLINES_TOP
100
AcDbPolyline
 90
        2
 70
         0
 43
0.1
 10
-43.55
 20
43.8
 10
-42.95
 20
44.4
  0
LWPOLYLINE
  5
E9
100
AcDbEntity
  8
ASSEMBLY_OUTLINES_TOP
100
AcDbPolyline
 90
        4
 70
         1
 43
0.1
 10
-16.3
 20
26.35
 10
-16.3
 20
27.75
 10
-13.3
 20
27.75
 10
-13.3
 20
26.35
  0
LWPOLYLINE
  5
EA
100
AcDbEntity
  8
ASSEMBLY_OUTLINES_TOP
100
AcDbPolyline
 90
        2
 70
         0
 43
0.1
 10
-16.2
 20
26.35
 10
-16.3
 20
26.45
  0
LWPOLYLINE
  5
EB
100
AcDbEntity
  8
ASSEMBLY_OUTLINES_TOP
100
AcDbPolyline
 90
        2
 70
         0
 43
0.1
 10
-16.1
 20
26.35
 10
-16.3
 20
26.55
  0
LWPOLYLINE
  5
EC
100
AcDbEntity
  8
ASSEMBLY_OUTLINES_TOP
100
AcDbPolyline
 90
        2
 70
         0
 43
0.1
 10
-16.0
 20
26.35
 10
-16.3
 20
26.65
  0
LWPOLYLINE
  5
ED
100
AcDbEntity
  8
ASSEMBLY_OUTLINES_TOP
100
AcDbPolyline
 90
        2
 70
         0
 43
0.1
 10
-15.9
 20
26.35
 10
-16.3
 20
26.75
  0
LWPOLYLINE
  5
EE
100
AcDbEntity
  8
ASSEMBLY_OUTLINES_TOP
100
AcDbPolyline
 90
        2
 70
         0
 43
0.1
 10
-15.8
 20
26.35
 10
-16.3
 20
26.85
  0
LWPOLYLINE
  5
EF
100
AcDbEntity
  8
ASSEMBLY_OUTLINES_TOP
100
AcDbPolyline
 90
        2
 70
         0
 43
0.1
 10
-15.7
 20
26.35
 10
-16.3
 20
26.95
  0
LWPOLYLINE
  5
F0
100
AcDbEntity
  8
ASSEMBLY_OUTLINES_TOP
100
AcDbPolyline
 90
        4
 70
         1
 43
0.1
 10
-11.6
 20
26.35
 10
-11.6
 20
31.95
 10
-7.8
 20
31.95
 10
-7.8
 20
26.35
  0
LWPOLYLINE
  5
F1
100
AcDbEntity
  8
ASSEMBLY_OUTLINES_TOP
100
AcDbPolyline
 90
        2
 70
         0
 43
0.1
 10
-11.6
 20
31.85
 10
-7.8
 20
31.85
  0
LWPOLYLINE
  5
F2
100
AcDbEntity
  8
ASSEMBLY_OUTLINES_TOP
100
AcDbPolyline
 90
        2
 70
         0
 43
0.1
 10
-11.6
 20
31.75
 10
-7.8
 20
31.75
  0
LWPOLYLINE
  5
F3
100
AcDbEntity
  8
ASSEMBLY_OUTLINES_TOP
100
AcDbPolyline
 90
        2
 70
         0
 43
0.1
 10
-11.6
 20
31.65
 10
-7.8
 20
31.65
  0
LWPOLYLINE
  5
F4
100
AcDbEntity
  8
ASSEMBLY_OUTLINES_TOP
100
AcDbPolyline
 90
        2
 70
         0
 43
0.1
 10
-11.6
 20
31.55
 10
-7.8
 20
31.55
  0
LWPOLYLINE
  5
F5
100
AcDbEntity
  8
ASSEMBLY_OUTLINES_TOP
100
AcDbPolyline
 90
        2
 70
         0
 43
0.1
 10
-11.6
 20
31.45
 10
-7.8
 20
31.45
  0
LWPOLYLINE
  5
F6
100
AcDbEntity
  8
ASSEMBLY_OUTLINES_TOP
100
AcDbPolyline
 90
        2
 70
         0
 43
0.1
 10
-11.6
 20
31.35
 10
-7.8
 20
31.35
  0
LWPOLYLINE
  5
F7
100
AcDbEntity
  8
ASSEMBLY_OUTLINES_TOP
100
AcDbPolyline
 90
        2
 70
         0
 43
0.1
 10
-11.6
 20
31.25
 10
-7.8
 20
31.25
  0
LWPOLYLINE
  5
F8
100
AcDbEntity
  8
ASSEMBLY_OUTLINES_TOP
100
AcDbPolyline
 90
        2
 70
         0
 43
0.1
 10
-11.6
 20
31.15
 10
-7.8
 20
31.15
  0
LWPOLYLINE
  5
F9
100
AcDbEntity
  8
ASSEMBLY_OUTLINES_TOP
100
AcDbPolyline
 90
        4
 70
         1
 43
0.1
 10
-7.3
 20
27.45
 10
-7.3
 20
28.65
 10
-6.5
 20
28.65
 10
-6.5
 20
27.45
  0
LWPOLYLINE
  5
FA
100
AcDbEntity
  8
ASSEMBLY_OUTLINES_TOP
100
AcDbPolyline
 90
        2
 70
         0
 43
0.1
 10
-7.3
 20
28.65
 10
-6.5
 20
28.65
  0
LWPOLYLINE
  5
FB
100
AcDbEntity
  8
ASSEMBLY_OUTLINES_TOP
100
AcDbPolyline
 90
        2
 70
         0
 43
0.1
 10
-7.3
 20
28.55
 10
-6.5
 20
28.55
  0
LWPOLYLINE
  5
FC
100
AcDbEntity
  8
ASSEMBLY_OUTLINES_TOP
100
AcDbPolyline
 90
        2
 70
         0
 43
0.1
 10
-7.3
 20
28.45
 10
-6.5
 20
28.45
  0
LWPOLYLINE
  5
FD
100
AcDbEntity
  8
ASSEMBLY_OUTLINES_TOP
100
AcDbPolyline
 90
        2
 70
         0
 43
0.1
 10
-7.3
 20
28.35
 10
-6.5
 20
28.35
  0
LWPOLYLINE
  5
FE
100
AcDbEntity
  8
ASSEMBLY_OUTLINES_TOP
100
AcDbPolyline
 90
        2
 70
         0
 43
0.1
 10
-7.3
 20
28.25
 10
-6.5
 20
28.25
  0
LWPOLYLINE
  5
FF
100
AcDbEntity
  8
ASSEMBLY_OUTLINES_TOP
100
AcDbPolyline
 90
        2
 70
         0
 43
0.1
 10
-7.3
 20
28.15
 10
-6.5
 20
28.15
  0
LWPOLYLINE
  5
100
100
AcDbEntity
  8
ASSEMBLY_OUTLINES_TOP
100
AcDbPolyline
 90
        4
 70
         1
 43
0.1
 10
-44.25
 20
28.55
 10
-44.25
 20
31.35
 10
-42.95
 20
31.35
 10
-42.95
 20
28.55
  0
LWPOLYLINE
  5
101
100
AcDbEntity
  8
ASSEMBLY_OUTLINES_TOP
100
AcDbPolyline
 90
        4
 70
         1
 10
-44.77
 20
23.24
 10
-44.77
 20
28.32
 10
-42.23
 20
28.32
 10
-42.23
 20
23.24
  0
LWPOLYLINE
  5
102
100
AcDbEntity
  8
ASSEMBLY_OUTLINES_TOP
100
AcDbPolyline
 90
        4
 70
         1
 43
0.1
 10
-34.9
 20
66.25
 10
-34.9
 20
67.85
 10
-32.9
 20
67.85
 10
-32.9
 20
66.25
  0
LWPOLYLINE
  5
103
100
AcDbEntity
  8
ASSEMBLY_OUTLINES_TOP
100
AcDbPolyline
 90
        4
 70
         1
 43
0.1
 10
-44.55
 20
38.3
 10
-44.55
 20
41.2
 10
-43.25
 20
41.2
 10
-43.25
 20
38.3
  0
LWPOLYLINE
  5
104
100
AcDbEntity
  8
ASSEMBLY_OUTLINES_TOP
100
AcDbPolyline
 90
        4
 70
         1
 43
0.1
 10
-21.0
 20
8.86
 10
-21.0
 20
25.12
 10
0.0
 20
25.12
 10
0.0
 20
8.86
  0
LWPOLYLINE
  5
105
100
AcDbEntity
  8
ASSEMBLY_OUTLINES_TOP
100
AcDbPolyline
 90
        4
 70
         1
 10
-44.7
 20
8.95
 10
-44.7
 20
22.35
 10
-32.6
 20
22.35
 10
-32.6
 20
8.95
  0
LWPOLYLINE
  5
106
100
AcDbEntity
  8
ASSEMBLY_OUTLINES_TOP
100
AcDbPolyline
 90
        4
 70
         1
 10
-51.7
 20
10.65
 10
-51.7
 20
21.65
 10
-44.7
 20
21.65
 10
-44.7
 20
10.65
  0
LWPOLYLINE
  5
107
100
AcDbEntity
  8
ASSEMBLY_OUTLINES_TOP
100
AcDbPolyline
 90
        4
 70
         1
 43
0.1
 10
-44.65
 20
50.65
 10
-44.65
 20
53.45
 10
-43.35
 20
53.45
 10
-43.35
 20
50.65
  0
LWPOLYLINE
  5
108
100
AcDbEntity
  8
ASSEMBLY_OUTLINES_TOP
100
AcDbPolyline
 90
        4
 70
         1
 43
0.1
 10
-28.1
 20
64.95
 10
-28.1
 20
66.55
 10
-26.1
 20
66.55
 10
-26.1
 20
64.95
  0
LWPOLYLINE
  5
109
100
AcDbEntity
  8
ASSEMBLY_OUTLINES_TOP
100
AcDbPolyline
 90
        4
 70
         1
 43
0.1
 10
-44.55
 20
44.5
 10
-44.55
 20
47.4
 10
-43.25
 20
47.4
 10
-43.25
 20
44.5
  0
LWPOLYLINE
  5
10A
100
AcDbEntity
  8
ASSEMBLY_OUTLINES_TOP
100
AcDbPolyline
 90
        4
 70
         1
 10
-45.0
 20
2.0
 10
-45.0
 20
6.1
 10
-5.0
 20
6.1
 10
-5.0
 20
2.0
  0
CIRCLE
  5
10B
100
AcDbEntity
  8
ASSEMBLY_OUTLINES_TOP
100
AcDbCircle
 10
-8.0
 20
3.0
 30
0.0
 40
0.25
  0
HATCH
  5
10C
100
AcDbEntity
  8
ASSEMBLY_OUTLINES_TOP
100
AcDbHatch
 10
0.0
 20
0.0
 30
0.0
210
0.0
220
0.0
230
1.0
  2
SOLID
 70
         1
 71
         1
 91
        1
 92
        1
 93
        1
 72
         2
 10
-8.0
 20
3.0
 40
0.25
 50
0.0
 51
360.0
 73
         1
 97
        1
330
10B
 75
         0
 76
         1
 98
        1
 10
0.0
 20
0.0
  0
CIRCLE
  5
10D
100
AcDbEntity
  8
ASSEMBLY_OUTLINES_TOP
100
AcDbCircle
 10
-8.0
 20
5.0
 30
0.0
 40
0.25
  0
HATCH
  5
10E
100
AcDbEntity
  8
ASSEMBLY_OUTLINES_TOP
100
AcDbHatch
 10
0.0
 20
0.0
 30
0.0
210
0.0
220
0.0
230
1.0
  2
SOLID
 70
         1
 71
         1
 91
        1
 92
        1
 93
        1
 72
         2
 10
-8.0
 20
5.0
 40
0.25
 50
0.0
 51
360.0
 73
         1
 97
        1
330
10D
 75
         0
 76
         1
 98
        1
 10
0.0
 20
0.0
  0
CIRCLE
  5
10F
100
AcDbEntity
  8
ASSEMBLY_OUTLINES_TOP
100
AcDbCircle
 10
-6.0
 20
5.0
 30
0.0
 40
0.25
  0
HATCH
  5
110
100
AcDbEntity
  8
ASSEMBLY_OUTLINES_TOP
100
AcDbHatch
 10
0.0
 20
0.0
 30
0.0
210
0.0
220
0.0
230
1.0
  2
SOLID
 70
         1
 71
         1
 91
        1
 92
        1
 93
        1
 72
         2
 10
-6.0
 20
5.0
 40
0.25
 50
0.0
 51
360.0
 73
         1
 97
        1
330
10F
 75
         0
 76
         1
 98
        1
 10
0.0
 20
0.0
  0
CIRCLE
  5
111
100
AcDbEntity
  8
ASSEMBLY_OUTLINES_TOP
100
AcDbCircle
 10
-10.0
 20
5.0
 30
0.0
 40
0.25
  0
HATCH
  5
112
100
AcDbEntity
  8
ASSEMBLY_OUTLINES_TOP
100
AcDbHatch
 10
0.0
 20
0.0
 30
0.0
210
0.0
220
0.0
230
1.0
  2
SOLID
 70
         1
 71
         1
 91
        1
 92
        1
 93
        1
 72
         2
 10
-10.0
 20
5.0
 40
0.25
 50
0.0
 51
360.0
 73
         1
 97
        1
330
111
 75
         0
 76
         1
 98
        1
 10
0.0
 20
0.0
  0
CIRCLE
  5
113
100
AcDbEntity
  8
ASSEMBLY_OUTLINES_TOP
100
AcDbCircle
 10
-12.0
 20
5.0
 30
0.0
 40
0.25
  0
HATCH
  5
114
100
AcDbEntity
  8
ASSEMBLY_OUTLINES_TOP
100
AcDbHatch
 10
0.0
 20
0.0
 30
0.0
210
0.0
220
0.0
230
1.0
  2
SOLID
 70
         1
 71
         1
 91
        1
 92
        1
 93
        1
 72
         2
 10
-12.0
 20
5.0
 40
0.25
 50
0.0
 51
360.0
 73
         1
 97
        1
330
113
 75
         0
 76
         1
 98
        1
 10
0.0
 20
0.0
  0
CIRCLE
  5
115
100
AcDbEntity
  8
ASSEMBLY_OUTLINES_TOP
100
AcDbCircle
 10
-14.0
 20
5.0
 30
0.0
 40
0.25
  0
HATCH
  5
116
100
AcDbEntity
  8
ASSEMBLY_OUTLINES_TOP
100
AcDbHatch
 10
0.0
 20
0.0
 30
0.0
210
0.0
220
0.0
230
1.0
  2
SOLID
 70
         1
 71
         1
 91
        1
 92
        1
 93
        1
 72
         2
 10
-14.0
 20
5.0
 40
0.25
 50
0.0
 51
360.0
 73
         1
 97
        1
330
115
 75
         0
 76
         1
 98
        1
 10
0.0
 20
0.0
  0
CIRCLE
  5
117
100
AcDbEntity
  8
ASSEMBLY_OUTLINES_TOP
100
AcDbCircle
 10
-16.0
 20
5.0
 30
0.0
 40
0.25
  0
HATCH
  5
118
100
AcDbEntity
  8
ASSEMBLY_OUTLINES_TOP
100
AcDbHatch
 10
0.0
 20
0.0
 30
0.0
210
0.0
220
0.0
230
1.0
  2
SOLID
 70
         1
 71
         1
 91
        1
 92
        1
 93
        1
 72
         2
 10
-16.0
 20
5.0
 40
0.25
 50
0.0
 51
360.0
 73
         1
 97
        1
330
117
 75
         0
 76
         1
 98
        1
 10
0.0
 20
0.0
  0
CIRCLE
  5
119
100
AcDbEntity
  8
ASSEMBLY_OUTLINES_TOP
100
AcDbCircle
 10
-18.0
 20
5.0
 30
0.0
 40
0.25
  0
HATCH
  5
11A
100
AcDbEntity
  8
ASSEMBLY_OUTLINES_TOP
100
AcDbHatch
 10
0.0
 20
0.0
 30
0.0
210
0.0
220
0.0
230
1.0
  2
SOLID
 70
         1
 71
         1
 91
        1
 92
        1
 93
        1
 72
         2
 10
-18.0
 20
5.0
 40
0.25
 50
0.0
 51
360.0
 73
         1
 97
        1
330
119
 75
         0
 76
         1
 98
        1
 10
0.0
 20
0.0
  0
CIRCLE
  5
11B
100
AcDbEntity
  8
ASSEMBLY_OUTLINES_TOP
100
AcDbCircle
 10
-20.0
 20
5.0
 30
0.0
 40
0.25
  0
HATCH
  5
11C
100
AcDbEntity
  8
ASSEMBLY_OUTLINES_TOP
100
AcDbHatch
 10
0.0
 20
0.0
 30
0.0
210
0.0
220
0.0
230
1.0
  2
SOLID
 70
         1
 71
         1
 91
        1
 92
        1
 93
        1
 72
         2
 10
-20.0
 20
5.0
 40
0.25
 50
0.0
 51
360.0
 73
         1
 97
        1
330
11B
 75
         0
 76
         1
 98
        1
 10
0.0
 20
0.0
  0
CIRCLE
  5
11D
100
AcDbEntity
  8
ASSEMBLY_OUTLINES_TOP
100
AcDbCircle
 10
-22.0
 20
5.0
 30
0.0
 40
0.25
  0
HATCH
  5
11E
100
AcDbEntity
  8
ASSEMBLY_OUTLINES_TOP
100
AcDbHatch
 10
0.0
 20
0.0
 30
0.0
210
0.0
220
0.0
230
1.0
  2
SOLID
 70
         1
 71
         1
 91
        1
 92
        1
 93
        1
 72
         2
 10
-22.0
 20
5.0
 40
0.25
 50
0.0
 51
360.0
 73
         1
 97
        1
330
11D
 75
         0
 76
         1
 98
        1
 10
0.0
 20
0.0
  0
CIRCLE
  5
11F
100
AcDbEntity
  8
ASSEMBLY_OUTLINES_TOP
100
AcDbCircle
 10
-24.0
 20
5.0
 30
0.0
 40
0.25
  0
HATCH
  5
120
100
AcDbEntity
  8
ASSEMBLY_OUTLINES_TOP
100
AcDbHatch
 10
0.0
 20
0.0
 30
0.0
210
0.0
220
0.0
230
1.0
  2
SOLID
 70
         1
 71
         1
 91
        1
 92
        1
 93
        1
 72
         2
 10
-24.0
 20
5.0
 40
0.25
 50
0.0
 51
360.0
 73
         1
 97
        1
330
11F
 75
         0
 76
         1
 98
        1
 10
0.0
 20
0.0
  0
CIRCLE
  5
121
100
AcDbEntity
  8
ASSEMBLY_OUTLINES_TOP
100
AcDbCircle
 10
-26.0
 20
5.0
 30
0.0
 40
0.25
  0
HATCH
  5
122
100
AcDbEntity
  8
ASSEMBLY_OUTLINES_TOP
100
AcDbHatch
 10
0.0
 20
0.0
 30
0.0
210
0.0
220
0.0
230
1.0
  2
SOLID
 70
         1
 71
         1
 91
        1
 92
        1
 93
        1
 72
         2
 10
-26.0
 20
5.0
 40
0.25
 50
0.0
 51
360.0
 73
         1
 97
        1
330
121
 75
         0
 76
         1
 98
        1
 10
0.0
 20
0.0
  0
CIRCLE
  5
123
100
AcDbEntity
  8
ASSEMBLY_OUTLINES_TOP
100
AcDbCircle
 10
-28.0
 20
5.0
 30
0.0
 40
0.25
  0
HATCH
  5
124
100
AcDbEntity
  8
ASSEMBLY_OUTLINES_TOP
100
AcDbHatch
 10
0.0
 20
0.0
 30
0.0
210
0.0
220
0.0
230
1.0
  2
SOLID
 70
         1
 71
         1
 91
        1
 92
        1
 93
        1
 72
         2
 10
-28.0
 20
5.0
 40
0.25
 50
0.0
 51
360.0
 73
         1
 97
        1
330
123
 75
         0
 76
         1
 98
        1
 10
0.0
 20
0.0
  0
CIRCLE
  5
125
100
AcDbEntity
  8
ASSEMBLY_OUTLINES_TOP
100
AcDbCircle
 10
-30.0
 20
5.0
 30
0.0
 40
0.25
  0
HATCH
  5
126
100
AcDbEntity
  8
ASSEMBLY_OUTLINES_TOP
100
AcDbHatch
 10
0.0
 20
0.0
 30
0.0
210
0.0
220
0.0
230
1.0
  2
SOLID
 70
         1
 71
         1
 91
        1
 92
        1
 93
        1
 72
         2
 10
-30.0
 20
5.0
 40
0.25
 50
0.0
 51
360.0
 73
         1
 97
        1
330
125
 75
         0
 76
         1
 98
        1
 10
0.0
 20
0.0
  0
CIRCLE
  5
127
100
AcDbEntity
  8
ASSEMBLY_OUTLINES_TOP
100
AcDbCircle
 10
-32.0
 20
5.0
 30
0.0
 40
0.25
  0
HATCH
  5
128
100
AcDbEntity
  8
ASSEMBLY_OUTLINES_TOP
100
AcDbHatch
 10
0.0
 20
0.0
 30
0.0
210
0.0
220
0.0
230
1.0
  2
SOLID
 70
         1
 71
         1
 91
        1
 92
        1
 93
        1
 72
         2
 10
-32.0
 20
5.0
 40
0.25
 50
0.0
 51
360.0
 73
         1
 97
        1
330
127
 75
         0
 76
         1
 98
        1
 10
0.0
 20
0.0
  0
CIRCLE
  5
129
100
AcDbEntity
  8
ASSEMBLY_OUTLINES_TOP
100
AcDbCircle
 10
-34.0
 20
5.0
 30
0.0
 40
0.25
  0
HATCH
  5
12A
100
AcDbEntity
  8
ASSEMBLY_OUTLINES_TOP
100
AcDbHatch
 10
0.0
 20
0.0
 30
0.0
210
0.0
220
0.0
230
1.0
  2
SOLID
 70
         1
 71
         1
 91
        1
 92
        1
 93
        1
 72
         2
 10
-34.0
 20
5.0
 40
0.25
 50
0.0
 51
360.0
 73
         1
 97
        1
330
129
 75
         0
 76
         1
 98
        1
 10
0.0
 20
0.0
  0
CIRCLE
  5
12B
100
AcDbEntity
  8
ASSEMBLY_OUTLINES_TOP
100
AcDbCircle
 10
-36.0
 20
5.0
 30
0.0
 40
0.25
  0
HATCH
  5
12C
100
AcDbEntity
  8
ASSEMBLY_OUTLINES_TOP
100
AcDbHatch
 10
0.0
 20
0.0
 30
0.0
210
0.0
220
0.0
230
1.0
  2
SOLID
 70
         1
 71
         1
 91
        1
 92
        1
 93
        1
 72
         2
 10
-36.0
 20
5.0
 40
0.25
 50
0.0
 51
360.0
 73
         1
 97
        1
330
12B
 75
         0
 76
         1
 98
        1
 10
0.0
 20
0.0
  0
CIRCLE
  5
12D
100
AcDbEntity
  8
ASSEMBLY_OUTLINES_TOP
100
AcDbCircle
 10
-38.0
 20
5.0
 30
0.0
 40
0.25
  0
HATCH
  5
12E
100
AcDbEntity
  8
ASSEMBLY_OUTLINES_TOP
100
AcDbHatch
 10
0.0
 20
0.0
 30
0.0
210
0.0
220
0.0
230
1.0
  2
SOLID
 70
         1
 71
         1
 91
        1
 92
        1
 93
        1
 72
         2
 10
-38.0
 20
5.0
 40
0.25
 50
0.0
 51
360.0
 73
         1
 97
        1
330
12D
 75
         0
 76
         1
 98
        1
 10
0.0
 20
0.0
  0
CIRCLE
  5
12F
100
AcDbEntity
  8
ASSEMBLY_OUTLINES_TOP
100
AcDbCircle
 10
-40.0
 20
5.0
 30
0.0
 40
0.25
  0
HATCH
  5
130
100
AcDbEntity
  8
ASSEMBLY_OUTLINES_TOP
100
AcDbHatch
 10
0.0
 20
0.0
 30
0.0
210
0.0
220
0.0
230
1.0
  2
SOLID
 70
         1
 71
         1
 91
        1
 92
        1
 93
        1
 72
         2
 10
-40.0
 20
5.0
 40
0.25
 50
0.0
 51
360.0
 73
         1
 97
        1
330
12F
 75
         0
 76
         1
 98
        1
 10
0.0
 20
0.0
  0
CIRCLE
  5
131
100
AcDbEntity
  8
ASSEMBLY_OUTLINES_TOP
100
AcDbCircle
 10
-42.0
 20
5.0
 30
0.0
 40
0.25
  0
HATCH
  5
132
100
AcDbEntity
  8
ASSEMBLY_OUTLINES_TOP
100
AcDbHatch
 10
0.0
 20
0.0
 30
0.0
210
0.0
220
0.0
230
1.0
  2
SOLID
 70
         1
 71
         1
 91
        1
 92
        1
 93
        1
 72
         2
 10
-42.0
 20
5.0
 40
0.25
 50
0.0
 51
360.0
 73
         1
 97
        1
330
131
 75
         0
 76
         1
 98
        1
 10
0.0
 20
0.0
  0
CIRCLE
  5
133
100
AcDbEntity
  8
ASSEMBLY_OUTLINES_TOP
100
AcDbCircle
 10
-44.0
 20
5.0
 30
0.0
 40
0.25
  0
HATCH
  5
134
100
AcDbEntity
  8
ASSEMBLY_OUTLINES_TOP
100
AcDbHatch
 10
0.0
 20
0.0
 30
0.0
210
0.0
220
0.0
230
1.0
  2
SOLID
 70
         1
 71
         1
 91
        1
 92
        1
 93
        1
 72
         2
 10
-44.0
 20
5.0
 40
0.25
 50
0.0
 51
360.0
 73
         1
 97
        1
330
133
 75
         0
 76
         1
 98
        1
 10
0.0
 20
0.0
  0
CIRCLE
  5
135
100
AcDbEntity
  8
ASSEMBLY_OUTLINES_TOP
100
AcDbCircle
 10
-6.0
 20
3.0
 30
0.0
 40
0.25
  0
HATCH
  5
136
100
AcDbEntity
  8
ASSEMBLY_OUTLINES_TOP
100
AcDbHatch
 10
0.0
 20
0.0
 30
0.0
210
0.0
220
0.0
230
1.0
  2
SOLID
 70
         1
 71
         1
 91
        1
 92
        1
 93
        1
 72
         2
 10
-6.0
 20
3.0
 40
0.25
 50
0.0
 51
360.0
 73
         1
 97
        1
330
135
 75
         0
 76
         1
 98
        1
 10
0.0
 20
0.0
  0
CIRCLE
  5
137
100
AcDbEntity
  8
ASSEMBLY_OUTLINES_TOP
100
AcDbCircle
 10
-10.0
 20
3.0
 30
0.0
 40
0.25
  0
HATCH
  5
138
100
AcDbEntity
  8
ASSEMBLY_OUTLINES_TOP
100
AcDbHatch
 10
0.0
 20
0.0
 30
0.0
210
0.0
220
0.0
230
1.0
  2
SOLID
 70
         1
 71
         1
 91
        1
 92
        1
 93
        1
 72
         2
 10
-10.0
 20
3.0
 40
0.25
 50
0.0
 51
360.0
 73
         1
 97
        1
330
137
 75
         0
 76
         1
 98
        1
 10
0.0
 20
0.0
  0
CIRCLE
  5
139
100
AcDbEntity
  8
ASSEMBLY_OUTLINES_TOP
100
AcDbCircle
 10
-12.0
 20
3.0
 30
0.0
 40
0.25
  0
HATCH
  5
13A
100
AcDbEntity
  8
ASSEMBLY_OUTLINES_TOP
100
AcDbHatch
 10
0.0
 20
0.0
 30
0.0
210
0.0
220
0.0
230
1.0
  2
SOLID
 70
         1
 71
         1
 91
        1
 92
        1
 93
        1
 72
         2
 10
-12.0
 20
3.0
 40
0.25
 50
0.0
 51
360.0
 73
         1
 97
        1
330
139
 75
         0
 76
         1
 98
        1
 10
0.0
 20
0.0
  0
CIRCLE
  5
13B
100
AcDbEntity
  8
ASSEMBLY_OUTLINES_TOP
100
AcDbCircle
 10
-14.0
 20
3.0
 30
0.0
 40
0.25
  0
HATCH
  5
13C
100
AcDbEntity
  8
ASSEMBLY_OUTLINES_TOP
100
AcDbHatch
 10
0.0
 20
0.0
 30
0.0
210
0.0
220
0.0
230
1.0
  2
SOLID
 70
         1
 71
         1
 91
        1
 92
        1
 93
        1
 72
         2
 10
-14.0
 20
3.0
 40
0.25
 50
0.0
 51
360.0
 73
         1
 97
        1
330
13B
 75
         0
 76
         1
 98
        1
 10
0.0
 20
0.0
  0
CIRCLE
  5
13D
100
AcDbEntity
  8
ASSEMBLY_OUTLINES_TOP
100
AcDbCircle
 10
-16.0
 20
3.0
 30
0.0
 40
0.25
  0
HATCH
  5
13E
100
AcDbEntity
  8
ASSEMBLY_OUTLINES_TOP
100
AcDbHatch
 10
0.0
 20
0.0
 30
0.0
210
0.0
220
0.0
230
1.0
  2
SOLID
 70
         1
 71
         1
 91
        1
 92
        1
 93
        1
 72
         2
 10
-16.0
 20
3.0
 40
0.25
 50
0.0
 51
360.0
 73
         1
 97
        1
330
13D
 75
         0
 76
         1
 98
        1
 10
0.0
 20
0.0
  0
CIRCLE
  5
13F
100
AcDbEntity
  8
ASSEMBLY_OUTLINES_TOP
100
AcDbCircle
 10
-18.0
 20
3.0
 30
0.0
 40
0.25
  0
HATCH
  5
140
100
AcDbEntity
  8
ASSEMBLY_OUTLINES_TOP
100
AcDbHatch
 10
0.0
 20
0.0
 30
0.0
210
0.0
220
0.0
230
1.0
  2
SOLID
 70
         1
 71
         1
 91
        1
 92
        1
 93
        1
 72
         2
 10
-18.0
 20
3.0
 40
0.25
 50
0.0
 51
360.0
 73
         1
 97
        1
330
13F
 75
         0
 76
         1
 98
        1
 10
0.0
 20
0.0
  0
CIRCLE
  5
141
100
AcDbEntity
  8
ASSEMBLY_OUTLINES_TOP
100
AcDbCircle
 10
-20.0
 20
3.0
 30
0.0
 40
0.25
  0
HATCH
  5
142
100
AcDbEntity
  8
ASSEMBLY_OUTLINES_TOP
100
AcDbHatch
 10
0.0
 20
0.0
 30
0.0
210
0.0
220
0.0
230
1.0
  2
SOLID
 70
         1
 71
         1
 91
        1
 92
        1
 93
        1
 72
         2
 10
-20.0
 20
3.0
 40
0.25
 50
0.0
 51
360.0
 73
         1
 97
        1
330
141
 75
         0
 76
         1
 98
        1
 10
0.0
 20
0.0
  0
CIRCLE
  5
143
100
AcDbEntity
  8
ASSEMBLY_OUTLINES_TOP
100
AcDbCircle
 10
-22.0
 20
3.0
 30
0.0
 40
0.25
  0
HATCH
  5
144
100
AcDbEntity
  8
ASSEMBLY_OUTLINES_TOP
100
AcDbHatch
 10
0.0
 20
0.0
 30
0.0
210
0.0
220
0.0
230
1.0
  2
SOLID
 70
         1
 71
         1
 91
        1
 92
        1
 93
        1
 72
         2
 10
-22.0
 20
3.0
 40
0.25
 50
0.0
 51
360.0
 73
         1
 97
        1
330
143
 75
         0
 76
         1
 98
        1
 10
0.0
 20
0.0
  0
CIRCLE
  5
145
100
AcDbEntity
  8
ASSEMBLY_OUTLINES_TOP
100
AcDbCircle
 10
-24.0
 20
3.0
 30
0.0
 40
0.25
  0
HATCH
  5
146
100
AcDbEntity
  8
ASSEMBLY_OUTLINES_TOP
100
AcDbHatch
 10
0.0
 20
0.0
 30
0.0
210
0.0
220
0.0
230
1.0
  2
SOLID
 70
         1
 71
         1
 91
        1
 92
        1
 93
        1
 72
         2
 10
-24.0
 20
3.0
 40
0.25
 50
0.0
 51
360.0
 73
         1
 97
        1
330
145
 75
         0
 76
         1
 98
        1
 10
0.0
 20
0.0
  0
CIRCLE
  5
147
100
AcDbEntity
  8
ASSEMBLY_OUTLINES_TOP
100
AcDbCircle
 10
-26.0
 20
3.0
 30
0.0
 40
0.25
  0
HATCH
  5
148
100
AcDbEntity
  8
ASSEMBLY_OUTLINES_TOP
100
AcDbHatch
 10
0.0
 20
0.0
 30
0.0
210
0.0
220
0.0
230
1.0
  2
SOLID
 70
         1
 71
         1
 91
        1
 92
        1
 93
        1
 72
         2
 10
-26.0
 20
3.0
 40
0.25
 50
0.0
 51
360.0
 73
         1
 97
        1
330
147
 75
         0
 76
         1
 98
        1
 10
0.0
 20
0.0
  0
CIRCLE
  5
149
100
AcDbEntity
  8
ASSEMBLY_OUTLINES_TOP
100
AcDbCircle
 10
-28.0
 20
3.0
 30
0.0
 40
0.25
  0
HATCH
  5
14A
100
AcDbEntity
  8
ASSEMBLY_OUTLINES_TOP
100
AcDbHatch
 10
0.0
 20
0.0
 30
0.0
210
0.0
220
0.0
230
1.0
  2
SOLID
 70
         1
 71
         1
 91
        1
 92
        1
 93
        1
 72
         2
 10
-28.0
 20
3.0
 40
0.25
 50
0.0
 51
360.0
 73
         1
 97
        1
330
149
 75
         0
 76
         1
 98
        1
 10
0.0
 20
0.0
  0
CIRCLE
  5
14B
100
AcDbEntity
  8
ASSEMBLY_OUTLINES_TOP
100
AcDbCircle
 10
-30.0
 20
3.0
 30
0.0
 40
0.25
  0
HATCH
  5
14C
100
AcDbEntity
  8
ASSEMBLY_OUTLINES_TOP
100
AcDbHatch
 10
0.0
 20
0.0
 30
0.0
210
0.0
220
0.0
230
1.0
  2
SOLID
 70
         1
 71
         1
 91
        1
 92
        1
 93
        1
 72
         2
 10
-30.0
 20
3.0
 40
0.25
 50
0.0
 51
360.0
 73
         1
 97
        1
330
14B
 75
         0
 76
         1
 98
        1
 10
0.0
 20
0.0
  0
CIRCLE
  5
14D
100
AcDbEntity
  8
ASSEMBLY_OUTLINES_TOP
100
AcDbCircle
 10
-32.0
 20
3.0
 30
0.0
 40
0.25
  0
HATCH
  5
14E
100
AcDbEntity
  8
ASSEMBLY_OUTLINES_TOP
100
AcDbHatch
 10
0.0
 20
0.0
 30
0.0
210
0.0
220
0.0
230
1.0
  2
SOLID
 70
         1
 71
         1
 91
        1
 92
        1
 93
        1
 72
         2
 10
-32.0
 20
3.0
 40
0.25
 50
0.0
 51
360.0
 73
         1
 97
        1
330
14D
 75
         0
 76
         1
 98
        1
 10
0.0
 20
0.0
  0
CIRCLE
  5
14F
100
AcDbEntity
  8
ASSEMBLY_OUTLINES_TOP
100
AcDbCircle
 10
-34.0
 20
3.0
 30
0.0
 40
0.25
  0
HATCH
  5
150
100
AcDbEntity
  8
ASSEMBLY_OUTLINES_TOP
100
AcDbHatch
 10
0.0
 20
0.0
 30
0.0
210
0.0
220
0.0
230
1.0
  2
SOLID
 70
         1
 71
         1
 91
        1
 92
        1
 93
        1
 72
         2
 10
-34.0
 20
3.0
 40
0.25
 50
0.0
 51
360.0
 73
         1
 97
        1
330
14F
 75
         0
 76
         1
 98
        1
 10
0.0
 20
0.0
  0
CIRCLE
  5
151
100
AcDbEntity
  8
ASSEMBLY_OUTLINES_TOP
100
AcDbCircle
 10
-36.0
 20
3.0
 30
0.0
 40
0.25
  0
HATCH
  5
152
100
AcDbEntity
  8
ASSEMBLY_OUTLINES_TOP
100
AcDbHatch
 10
0.0
 20
0.0
 30
0.0
210
0.0
220
0.0
230
1.0
  2
SOLID
 70
         1
 71
         1
 91
        1
 92
        1
 93
        1
 72
         2
 10
-36.0
 20
3.0
 40
0.25
 50
0.0
 51
360.0
 73
         1
 97
        1
330
151
 75
         0
 76
         1
 98
        1
 10
0.0
 20
0.0
  0
CIRCLE
  5
153
100
AcDbEntity
  8
ASSEMBLY_OUTLINES_TOP
100
AcDbCircle
 10
-38.0
 20
3.0
 30
0.0
 40
0.25
  0
HATCH
  5
154
100
AcDbEntity
  8
ASSEMBLY_OUTLINES_TOP
100
AcDbHatch
 10
0.0
 20
0.0
 30
0.0
210
0.0
220
0.0
230
1.0
  2
SOLID
 70
         1
 71
         1
 91
        1
 92
        1
 93
        1
 72
         2
 10
-38.0
 20
3.0
 40
0.25
 50
0.0
 51
360.0
 73
         1
 97
        1
330
153
 75
         0
 76
         1
 98
        1
 10
0.0
 20
0.0
  0
CIRCLE
  5
155
100
AcDbEntity
  8
ASSEMBLY_OUTLINES_TOP
100
AcDbCircle
 10
-40.0
 20
3.0
 30
0.0
 40
0.25
  0
HATCH
  5
156
100
AcDbEntity
  8
ASSEMBLY_OUTLINES_TOP
100
AcDbHatch
 10
0.0
 20
0.0
 30
0.0
210
0.0
220
0.0
230
1.0
  2
SOLID
 70
         1
 71
         1
 91
        1
 92
        1
 93
        1
 72
         2
 10
-40.0
 20
3.0
 40
0.25
 50
0.0
 51
360.0
 73
         1
 97
        1
330
155
 75
         0
 76
         1
 98
        1
 10
0.0
 20
0.0
  0
CIRCLE
  5
157
100
AcDbEntity
  8
ASSEMBLY_OUTLINES_TOP
100
AcDbCircle
 10
-42.0
 20
3.0
 30
0.0
 40
0.25
  0
HATCH
  5
158
100
AcDbEntity
  8
ASSEMBLY_OUTLINES_TOP
100
AcDbHatch
 10
0.0
 20
0.0
 30
0.0
210
0.0
220
0.0
230
1.0
  2
SOLID
 70
         1
 71
         1
 91
        1
 92
        1
 93
        1
 72
         2
 10
-42.0
 20
3.0
 40
0.25
 50
0.0
 51
360.0
 73
         1
 97
        1
330
157
 75
         0
 76
         1
 98
        1
 10
0.0
 20
0.0
  0
CIRCLE
  5
159
100
AcDbEntity
  8
ASSEMBLY_OUTLINES_TOP
100
AcDbCircle
 10
-44.0
 20
3.0
 30
0.0
 40
0.25
  0
HATCH
  5
15A
100
AcDbEntity
  8
ASSEMBLY_OUTLINES_TOP
100
AcDbHatch
 10
0.0
 20
0.0
 30
0.0
210
0.0
220
0.0
230
1.0
  2
SOLID
 70
         1
 71
         1
 91
        1
 92
        1
 93
        1
 72
         2
 10
-44.0
 20
3.0
 40
0.25
 50
0.0
 51
360.0
 73
         1
 97
        1
330
159
 75
         0
 76
         1
 98
        1
 10
0.0
 20
0.0
  0
LWPOLYLINE
  5
15B
100
AcDbEntity
  8
ASSEMBLY_OUTLINES_TOP
100
AcDbPolyline
 90
        4
 70
         1
 43
0.1
 10
-44.65
 20
53.55
 10
-44.65
 20
56.35
 10
-43.35
 20
56.35
 10
-43.35
 20
53.55
  0
LWPOLYLINE
  5
15C
100
AcDbEntity
  8
ASSEMBLY_OUTLINES_TOP
100
AcDbPolyline
 90
        4
 70
         1
 43
0.1
 10
-17.35
 20
39.1
 10
-17.35
 20
41.1
 10
-15.75
 20
41.1
 10
-15.75
 20
39.1
  0
LWPOLYLINE
  5
15D
100
AcDbEntity
  8
ASSEMBLY_OUTLINES_TOP
100
AcDbPolyline
 90
        4
 70
         1
 43
0.1
 10
-44.55
 20
47.4
 10
-44.55
 20
50.3
 10
-43.25
 20
50.3
 10
-43.25
 20
47.4
  0
LWPOLYLINE
  5
15E
100
AcDbEntity
  8
ASSEMBLY_OUTLINES_TOP
100
AcDbPolyline
 90
        4
 70
         1
 10
-45.0
 20
70.0
 10
-45.0
 20
74.1
 10
-5.0
 20
74.1
 10
-5.0
 20
70.0
  0
CIRCLE
  5
15F
100
AcDbEntity
  8
ASSEMBLY_OUTLINES_TOP
100
AcDbCircle
 10
-42.0
 20
73.1
 30
0.0
 40
0.25
  0
HATCH
  5
160
100
AcDbEntity
  8
ASSEMBLY_OUTLINES_TOP
100
AcDbHatch
 10
0.0
 20
0.0
 30
0.0
210
0.0
220
0.0
230
1.0
  2
SOLID
 70
         1
 71
         1
 91
        1
 92
        1
 93
        1
 72
         2
 10
-42.0
 20
73.099999999999994
 40
0.25
 50
0.0
 51
360.0
 73
         1
 97
        1
330
15F
 75
         0
 76
         1
 98
        1
 10
0.0
 20
0.0
  0
CIRCLE
  5
161
100
AcDbEntity
  8
ASSEMBLY_OUTLINES_TOP
100
AcDbCircle
 10
-42.0
 20
71.1
 30
0.0
 40
0.25
  0
HATCH
  5
162
100
AcDbEntity
  8
ASSEMBLY_OUTLINES_TOP
100
AcDbHatch
 10
0.0
 20
0.0
 30
0.0
210
0.0
220
0.0
230
1.0
  2
SOLID
 70
         1
 71
         1
 91
        1
 92
        1
 93
        1
 72
         2
 10
-42.0
 20
71.099999999999994
 40
0.25
 50
0.0
 51
360.0
 73
         1
 97
        1
330
161
 75
         0
 76
         1
 98
        1
 10
0.0
 20
0.0
  0
CIRCLE
  5
163
100
AcDbEntity
  8
ASSEMBLY_OUTLINES_TOP
100
AcDbCircle
 10
-44.0
 20
71.1
 30
0.0
 40
0.25
  0
HATCH
  5
164
100
AcDbEntity
  8
ASSEMBLY_OUTLINES_TOP
100
AcDbHatch
 10
0.0
 20
0.0
 30
0.0
210
0.0
220
0.0
230
1.0
  2
SOLID
 70
         1
 71
         1
 91
        1
 92
        1
 93
        1
 72
         2
 10
-44.0
 20
71.099999999999994
 40
0.25
 50
0.0
 51
360.0
 73
         1
 97
        1
330
163
 75
         0
 76
         1
 98
        1
 10
0.0
 20
0.0
  0
CIRCLE
  5
165
100
AcDbEntity
  8
ASSEMBLY_OUTLINES_TOP
100
AcDbCircle
 10
-40.0
 20
71.1
 30
0.0
 40
0.25
  0
HATCH
  5
166
100
AcDbEntity
  8
ASSEMBLY_OUTLINES_TOP
100
AcDbHatch
 10
0.0
 20
0.0
 30
0.0
210
0.0
220
0.0
230
1.0
  2
SOLID
 70
         1
 71
         1
 91
        1
 92
        1
 93
        1
 72
         2
 10
-40.0
 20
71.099999999999994
 40
0.25
 50
0.0
 51
360.0
 73
         1
 97
        1
330
165
 75
         0
 76
         1
 98
        1
 10
0.0
 20
0.0
  0
CIRCLE
  5
167
100
AcDbEntity
  8
ASSEMBLY_OUTLINES_TOP
100
AcDbCircle
 10
-38.0
 20
71.1
 30
0.0
 40
0.25
  0
HATCH
  5
168
100
AcDbEntity
  8
ASSEMBLY_OUTLINES_TOP
100
AcDbHatch
 10
0.0
 20
0.0
 30
0.0
210
0.0
220
0.0
230
1.0
  2
SOLID
 70
         1
 71
         1
 91
        1
 92
        1
 93
        1
 72
         2
 10
-38.0
 20
71.099999999999994
 40
0.25
 50
0.0
 51
360.0
 73
         1
 97
        1
330
167
 75
         0
 76
         1
 98
        1
 10
0.0
 20
0.0
  0
CIRCLE
  5
169
100
AcDbEntity
  8
ASSEMBLY_OUTLINES_TOP
100
AcDbCircle
 10
-36.0
 20
71.1
 30
0.0
 40
0.25
  0
HATCH
  5
16A
100
AcDbEntity
  8
ASSEMBLY_OUTLINES_TOP
100
AcDbHatch
 10
0.0
 20
0.0
 30
0.0
210
0.0
220
0.0
230
1.0
  2
SOLID
 70
         1
 71
         1
 91
        1
 92
        1
 93
        1
 72
         2
 10
-36.0
 20
71.099999999999994
 40
0.25
 50
0.0
 51
360.0
 73
         1
 97
        1
330
169
 75
         0
 76
         1
 98
        1
 10
0.0
 20
0.0
  0
CIRCLE
  5
16B
100
AcDbEntity
  8
ASSEMBLY_OUTLINES_TOP
100
AcDbCircle
 10
-34.0
 20
71.1
 30
0.0
 40
0.25
  0
HATCH
  5
16C
100
AcDbEntity
  8
ASSEMBLY_OUTLINES_TOP
100
AcDbHatch
 10
0.0
 20
0.0
 30
0.0
210
0.0
220
0.0
230
1.0
  2
SOLID
 70
         1
 71
         1
 91
        1
 92
        1
 93
        1
 72
         2
 10
-34.0
 20
71.099999999999994
 40
0.25
 50
0.0
 51
360.0
 73
         1
 97
        1
330
16B
 75
         0
 76
         1
 98
        1
 10
0.0
 20
0.0
  0
CIRCLE
  5
16D
100
AcDbEntity
  8
ASSEMBLY_OUTLINES_TOP
100
AcDbCircle
 10
-32.0
 20
71.1
 30
0.0
 40
0.25
  0
HATCH
  5
16E
100
AcDbEntity
  8
ASSEMBLY_OUTLINES_TOP
100
AcDbHatch
 10
0.0
 20
0.0
 30
0.0
210
0.0
220
0.0
230
1.0
  2
SOLID
 70
         1
 71
         1
 91
        1
 92
        1
 93
        1
 72
         2
 10
-32.0
 20
71.099999999999994
 40
0.25
 50
0.0
 51
360.0
 73
         1
 97
        1
330
16D
 75
         0
 76
         1
 98
        1
 10
0.0
 20
0.0
  0
CIRCLE
  5
16F
100
AcDbEntity
  8
ASSEMBLY_OUTLINES_TOP
100
AcDbCircle
 10
-30.0
 20
71.1
 30
0.0
 40
0.25
  0
HATCH
  5
170
100
AcDbEntity
  8
ASSEMBLY_OUTLINES_TOP
100
AcDbHatch
 10
0.0
 20
0.0
 30
0.0
210
0.0
220
0.0
230
1.0
  2
SOLID
 70
         1
 71
         1
 91
        1
 92
        1
 93
        1
 72
         2
 10
-30.0
 20
71.099999999999994
 40
0.25
 50
0.0
 51
360.0
 73
         1
 97
        1
330
16F
 75
         0
 76
         1
 98
        1
 10
0.0
 20
0.0
  0
CIRCLE
  5
171
100
AcDbEntity
  8
ASSEMBLY_OUTLINES_TOP
100
AcDbCircle
 10
-28.0
 20
71.1
 30
0.0
 40
0.25
  0
HATCH
  5
172
100
AcDbEntity
  8
ASSEMBLY_OUTLINES_TOP
100
AcDbHatch
 10
0.0
 20
0.0
 30
0.0
210
0.0
220
0.0
230
1.0
  2
SOLID
 70
         1
 71
         1
 91
        1
 92
        1
 93
        1
 72
         2
 10
-28.0
 20
71.099999999999994
 40
0.25
 50
0.0
 51
360.0
 73
         1
 97
        1
330
171
 75
         0
 76
         1
 98
        1
 10
0.0
 20
0.0
  0
CIRCLE
  5
173
100
AcDbEntity
  8
ASSEMBLY_OUTLINES_TOP
100
AcDbCircle
 10
-26.0
 20
71.1
 30
0.0
 40
0.25
  0
HATCH
  5
174
100
AcDbEntity
  8
ASSEMBLY_OUTLINES_TOP
100
AcDbHatch
 10
0.0
 20
0.0
 30
0.0
210
0.0
220
0.0
230
1.0
  2
SOLID
 70
         1
 71
         1
 91
        1
 92
        1
 93
        1
 72
         2
 10
-26.0
 20
71.099999999999994
 40
0.25
 50
0.0
 51
360.0
 73
         1
 97
        1
330
173
 75
         0
 76
         1
 98
        1
 10
0.0
 20
0.0
  0
CIRCLE
  5
175
100
AcDbEntity
  8
ASSEMBLY_OUTLINES_TOP
100
AcDbCircle
 10
-24.0
 20
71.1
 30
0.0
 40
0.25
  0
HATCH
  5
176
100
AcDbEntity
  8
ASSEMBLY_OUTLINES_TOP
100
AcDbHatch
 10
0.0
 20
0.0
 30
0.0
210
0.0
220
0.0
230
1.0
  2
SOLID
 70
         1
 71
         1
 91
        1
 92
        1
 93
        1
 72
         2
 10
-24.0
 20
71.099999999999994
 40
0.25
 50
0.0
 51
360.0
 73
         1
 97
        1
330
175
 75
         0
 76
         1
 98
        1
 10
0.0
 20
0.0
  0
CIRCLE
  5
177
100
AcDbEntity
  8
ASSEMBLY_OUTLINES_TOP
100
AcDbCircle
 10
-22.0
 20
71.1
 30
0.0
 40
0.25
  0
HATCH
  5
178
100
AcDbEntity
  8
ASSEMBLY_OUTLINES_TOP
100
AcDbHatch
 10
0.0
 20
0.0
 30
0.0
210
0.0
220
0.0
230
1.0
  2
SOLID
 70
         1
 71
         1
 91
        1
 92
        1
 93
        1
 72
         2
 10
-22.0
 20
71.099999999999994
 40
0.25
 50
0.0
 51
360.0
 73
         1
 97
        1
330
177
 75
         0
 76
         1
 98
        1
 10
0.0
 20
0.0
  0
CIRCLE
  5
179
100
AcDbEntity
  8
ASSEMBLY_OUTLINES_TOP
100
AcDbCircle
 10
-20.0
 20
71.1
 30
0.0
 40
0.25
  0
HATCH
  5
17A
100
AcDbEntity
  8
ASSEMBLY_OUTLINES_TOP
100
AcDbHatch
 10
0.0
 20
0.0
 30
0.0
210
0.0
220
0.0
230
1.0
  2
SOLID
 70
         1
 71
         1
 91
        1
 92
        1
 93
        1
 72
         2
 10
-20.0
 20
71.099999999999994
 40
0.25
 50
0.0
 51
360.0
 73
         1
 97
        1
330
179
 75
         0
 76
         1
 98
        1
 10
0.0
 20
0.0
  0
CIRCLE
  5
17B
100
AcDbEntity
  8
ASSEMBLY_OUTLINES_TOP
100
AcDbCircle
 10
-18.0
 20
71.1
 30
0.0
 40
0.25
  0
HATCH
  5
17C
100
AcDbEntity
  8
ASSEMBLY_OUTLINES_TOP
100
AcDbHatch
 10
0.0
 20
0.0
 30
0.0
210
0.0
220
0.0
230
1.0
  2
SOLID
 70
         1
 71
         1
 91
        1
 92
        1
 93
        1
 72
         2
 10
-18.0
 20
71.099999999999994
 40
0.25
 50
0.0
 51
360.0
 73
         1
 97
        1
330
17B
 75
         0
 76
         1
 98
        1
 10
0.0
 20
0.0
  0
CIRCLE
  5
17D
100
AcDbEntity
  8
ASSEMBLY_OUTLINES_TOP
100
AcDbCircle
 10
-16.0
 20
71.1
 30
0.0
 40
0.25
  0
HATCH
  5
17E
100
AcDbEntity
  8
ASSEMBLY_OUTLINES_TOP
100
AcDbHatch
 10
0.0
 20
0.0
 30
0.0
210
0.0
220
0.0
230
1.0
  2
SOLID
 70
         1
 71
         1
 91
        1
 92
        1
 93
        1
 72
         2
 10
-16.0
 20
71.099999999999994
 40
0.25
 50
0.0
 51
360.0
 73
         1
 97
        1
330
17D
 75
         0
 76
         1
 98
        1
 10
0.0
 20
0.0
  0
CIRCLE
  5
17F
100
AcDbEntity
  8
ASSEMBLY_OUTLINES_TOP
100
AcDbCircle
 10
-14.0
 20
71.1
 30
0.0
 40
0.25
  0
HATCH
  5
180
100
AcDbEntity
  8
ASSEMBLY_OUTLINES_TOP
100
AcDbHatch
 10
0.0
 20
0.0
 30
0.0
210
0.0
220
0.0
230
1.0
  2
SOLID
 70
         1
 71
         1
 91
        1
 92
        1
 93
        1
 72
         2
 10
-14.0
 20
71.099999999999994
 40
0.25
 50
0.0
 51
360.0
 73
         1
 97
        1
330
17F
 75
         0
 76
         1
 98
        1
 10
0.0
 20
0.0
  0
CIRCLE
  5
181
100
AcDbEntity
  8
ASSEMBLY_OUTLINES_TOP
100
AcDbCircle
 10
-12.0
 20
71.1
 30
0.0
 40
0.25
  0
HATCH
  5
182
100
AcDbEntity
  8
ASSEMBLY_OUTLINES_TOP
100
AcDbHatch
 10
0.0
 20
0.0
 30
0.0
210
0.0
220
0.0
230
1.0
  2
SOLID
 70
         1
 71
         1
 91
        1
 92
        1
 93
        1
 72
         2
 10
-12.0
 20
71.099999999999994
 40
0.25
 50
0.0
 51
360.0
 73
         1
 97
        1
330
181
 75
         0
 76
         1
 98
        1
 10
0.0
 20
0.0
  0
CIRCLE
  5
183
100
AcDbEntity
  8
ASSEMBLY_OUTLINES_TOP
100
AcDbCircle
 10
-10.0
 20
71.1
 30
0.0
 40
0.25
  0
HATCH
  5
184
100
AcDbEntity
  8
ASSEMBLY_OUTLINES_TOP
100
AcDbHatch
 10
0.0
 20
0.0
 30
0.0
210
0.0
220
0.0
230
1.0
  2
SOLID
 70
         1
 71
         1
 91
        1
 92
        1
 93
        1
 72
         2
 10
-10.0
 20
71.099999999999994
 40
0.25
 50
0.0
 51
360.0
 73
         1
 97
        1
330
183
 75
         0
 76
         1
 98
        1
 10
0.0
 20
0.0
  0
CIRCLE
  5
185
100
AcDbEntity
  8
ASSEMBLY_OUTLINES_TOP
100
AcDbCircle
 10
-8.0
 20
71.1
 30
0.0
 40
0.25
  0
HATCH
  5
186
100
AcDbEntity
  8
ASSEMBLY_OUTLINES_TOP
100
AcDbHatch
 10
0.0
 20
0.0
 30
0.0
210
0.0
220
0.0
230
1.0
  2
SOLID
 70
         1
 71
         1
 91
        1
 92
        1
 93
        1
 72
         2
 10
-8.0
 20
71.099999999999994
 40
0.25
 50
0.0
 51
360.0
 73
         1
 97
        1
330
185
 75
         0
 76
         1
 98
        1
 10
0.0
 20
0.0
  0
CIRCLE
  5
187
100
AcDbEntity
  8
ASSEMBLY_OUTLINES_TOP
100
AcDbCircle
 10
-6.0
 20
71.1
 30
0.0
 40
0.25
  0
HATCH
  5
188
100
AcDbEntity
  8
ASSEMBLY_OUTLINES_TOP
100
AcDbHatch
 10
0.0
 20
0.0
 30
0.0
210
0.0
220
0.0
230
1.0
  2
SOLID
 70
         1
 71
         1
 91
        1
 92
        1
 93
        1
 72
         2
 10
-6.0
 20
71.099999999999994
 40
0.25
 50
0.0
 51
360.0
 73
         1
 97
        1
330
187
 75
         0
 76
         1
 98
        1
 10
0.0
 20
0.0
  0
CIRCLE
  5
189
100
AcDbEntity
  8
ASSEMBLY_OUTLINES_TOP
100
AcDbCircle
 10
-44.0
 20
73.1
 30
0.0
 40
0.25
  0
HATCH
  5
18A
100
AcDbEntity
  8
ASSEMBLY_OUTLINES_TOP
100
AcDbHatch
 10
0.0
 20
0.0
 30
0.0
210
0.0
220
0.0
230
1.0
  2
SOLID
 70
         1
 71
         1
 91
        1
 92
        1
 93
        1
 72
         2
 10
-44.0
 20
73.099999999999994
 40
0.25
 50
0.0
 51
360.0
 73
         1
 97
        1
330
189
 75
         0
 76
         1
 98
        1
 10
0.0
 20
0.0
  0
CIRCLE
  5
18B
100
AcDbEntity
  8
ASSEMBLY_OUTLINES_TOP
100
AcDbCircle
 10
-40.0
 20
73.1
 30
0.0
 40
0.25
  0
HATCH
  5
18C
100
AcDbEntity
  8
ASSEMBLY_OUTLINES_TOP
100
AcDbHatch
 10
0.0
 20
0.0
 30
0.0
210
0.0
220
0.0
230
1.0
  2
SOLID
 70
         1
 71
         1
 91
        1
 92
        1
 93
        1
 72
         2
 10
-40.0
 20
73.099999999999994
 40
0.25
 50
0.0
 51
360.0
 73
         1
 97
        1
330
18B
 75
         0
 76
         1
 98
        1
 10
0.0
 20
0.0
  0
CIRCLE
  5
18D
100
AcDbEntity
  8
ASSEMBLY_OUTLINES_TOP
100
AcDbCircle
 10
-38.0
 20
73.1
 30
0.0
 40
0.25
  0
HATCH
  5
18E
100
AcDbEntity
  8
ASSEMBLY_OUTLINES_TOP
100
AcDbHatch
 10
0.0
 20
0.0
 30
0.0
210
0.0
220
0.0
230
1.0
  2
SOLID
 70
         1
 71
         1
 91
        1
 92
        1
 93
        1
 72
         2
 10
-38.0
 20
73.099999999999994
 40
0.25
 50
0.0
 51
360.0
 73
         1
 97
        1
330
18D
 75
         0
 76
         1
 98
        1
 10
0.0
 20
0.0
  0
CIRCLE
  5
18F
100
AcDbEntity
  8
ASSEMBLY_OUTLINES_TOP
100
AcDbCircle
 10
-36.0
 20
73.1
 30
0.0
 40
0.25
  0
HATCH
  5
190
100
AcDbEntity
  8
ASSEMBLY_OUTLINES_TOP
100
AcDbHatch
 10
0.0
 20
0.0
 30
0.0
210
0.0
220
0.0
230
1.0
  2
SOLID
 70
         1
 71
         1
 91
        1
 92
        1
 93
        1
 72
         2
 10
-36.0
 20
73.099999999999994
 40
0.25
 50
0.0
 51
360.0
 73
         1
 97
        1
330
18F
 75
         0
 76
         1
 98
        1
 10
0.0
 20
0.0
  0
CIRCLE
  5
191
100
AcDbEntity
  8
ASSEMBLY_OUTLINES_TOP
100
AcDbCircle
 10
-34.0
 20
73.1
 30
0.0
 40
0.25
  0
HATCH
  5
192
100
AcDbEntity
  8
ASSEMBLY_OUTLINES_TOP
100
AcDbHatch
 10
0.0
 20
0.0
 30
0.0
210
0.0
220
0.0
230
1.0
  2
SOLID
 70
         1
 71
         1
 91
        1
 92
        1
 93
        1
 72
         2
 10
-34.0
 20
73.099999999999994
 40
0.25
 50
0.0
 51
360.0
 73
         1
 97
        1
330
191
 75
         0
 76
         1
 98
        1
 10
0.0
 20
0.0
  0
CIRCLE
  5
193
100
AcDbEntity
  8
ASSEMBLY_OUTLINES_TOP
100
AcDbCircle
 10
-32.0
 20
73.1
 30
0.0
 40
0.25
  0
HATCH
  5
194
100
AcDbEntity
  8
ASSEMBLY_OUTLINES_TOP
100
AcDbHatch
 10
0.0
 20
0.0
 30
0.0
210
0.0
220
0.0
230
1.0
  2
SOLID
 70
         1
 71
         1
 91
        1
 92
        1
 93
        1
 72
         2
 10
-32.0
 20
73.099999999999994
 40
0.25
 50
0.0
 51
360.0
 73
         1
 97
        1
330
193
 75
         0
 76
         1
 98
        1
 10
0.0
 20
0.0
  0
CIRCLE
  5
195
100
AcDbEntity
  8
ASSEMBLY_OUTLINES_TOP
100
AcDbCircle
 10
-30.0
 20
73.1
 30
0.0
 40
0.25
  0
HATCH
  5
196
100
AcDbEntity
  8
ASSEMBLY_OUTLINES_TOP
100
AcDbHatch
 10
0.0
 20
0.0
 30
0.0
210
0.0
220
0.0
230
1.0
  2
SOLID
 70
         1
 71
         1
 91
        1
 92
        1
 93
        1
 72
         2
 10
-30.0
 20
73.099999999999994
 40
0.25
 50
0.0
 51
360.0
 73
         1
 97
        1
330
195
 75
         0
 76
         1
 98
        1
 10
0.0
 20
0.0
  0
CIRCLE
  5
197
100
AcDbEntity
  8
ASSEMBLY_OUTLINES_TOP
100
AcDbCircle
 10
-28.0
 20
73.1
 30
0.0
 40
0.25
  0
HATCH
  5
198
100
AcDbEntity
  8
ASSEMBLY_OUTLINES_TOP
100
AcDbHatch
 10
0.0
 20
0.0
 30
0.0
210
0.0
220
0.0
230
1.0
  2
SOLID
 70
         1
 71
         1
 91
        1
 92
        1
 93
        1
 72
         2
 10
-28.0
 20
73.099999999999994
 40
0.25
 50
0.0
 51
360.0
 73
         1
 97
        1
330
197
 75
         0
 76
         1
 98
        1
 10
0.0
 20
0.0
  0
CIRCLE
  5
199
100
AcDbEntity
  8
ASSEMBLY_OUTLINES_TOP
100
AcDbCircle
 10
-26.0
 20
73.1
 30
0.0
 40
0.25
  0
HATCH
  5
19A
100
AcDbEntity
  8
ASSEMBLY_OUTLINES_TOP
100
AcDbHatch
 10
0.0
 20
0.0
 30
0.0
210
0.0
220
0.0
230
1.0
  2
SOLID
 70
         1
 71
         1
 91
        1
 92
        1
 93
        1
 72
         2
 10
-26.0
 20
73.099999999999994
 40
0.25
 50
0.0
 51
360.0
 73
         1
 97
        1
330
199
 75
         0
 76
         1
 98
        1
 10
0.0
 20
0.0
  0
CIRCLE
  5
19B
100
AcDbEntity
  8
ASSEMBLY_OUTLINES_TOP
100
AcDbCircle
 10
-24.0
 20
73.1
 30
0.0
 40
0.25
  0
HATCH
  5
19C
100
AcDbEntity
  8
ASSEMBLY_OUTLINES_TOP
100
AcDbHatch
 10
0.0
 20
0.0
 30
0.0
210
0.0
220
0.0
230
1.0
  2
SOLID
 70
         1
 71
         1
 91
        1
 92
        1
 93
        1
 72
         2
 10
-24.0
 20
73.099999999999994
 40
0.25
 50
0.0
 51
360.0
 73
         1
 97
        1
330
19B
 75
         0
 76
         1
 98
        1
 10
0.0
 20
0.0
  0
CIRCLE
  5
19D
100
AcDbEntity
  8
ASSEMBLY_OUTLINES_TOP
100
AcDbCircle
 10
-22.0
 20
73.1
 30
0.0
 40
0.25
  0
HATCH
  5
19E
100
AcDbEntity
  8
ASSEMBLY_OUTLINES_TOP
100
AcDbHatch
 10
0.0
 20
0.0
 30
0.0
210
0.0
220
0.0
230
1.0
  2
SOLID
 70
         1
 71
         1
 91
        1
 92
        1
 93
        1
 72
         2
 10
-22.0
 20
73.099999999999994
 40
0.25
 50
0.0
 51
360.0
 73
         1
 97
        1
330
19D
 75
         0
 76
         1
 98
        1
 10
0.0
 20
0.0
  0
CIRCLE
  5
19F
100
AcDbEntity
  8
ASSEMBLY_OUTLINES_TOP
100
AcDbCircle
 10
-20.0
 20
73.1
 30
0.0
 40
0.25
  0
HATCH
  5
1A0
100
AcDbEntity
  8
ASSEMBLY_OUTLINES_TOP
100
AcDbHatch
 10
0.0
 20
0.0
 30
0.0
210
0.0
220
0.0
230
1.0
  2
SOLID
 70
         1
 71
         1
 91
        1
 92
        1
 93
        1
 72
         2
 10
-20.0
 20
73.099999999999994
 40
0.25
 50
0.0
 51
360.0
 73
         1
 97
        1
330
19F
 75
         0
 76
         1
 98
        1
 10
0.0
 20
0.0
  0
CIRCLE
  5
1A1
100
AcDbEntity
  8
ASSEMBLY_OUTLINES_TOP
100
AcDbCircle
 10
-18.0
 20
73.1
 30
0.0
 40
0.25
  0
HATCH
  5
1A2
100
AcDbEntity
  8
ASSEMBLY_OUTLINES_TOP
100
AcDbHatch
 10
0.0
 20
0.0
 30
0.0
210
0.0
220
0.0
230
1.0
  2
SOLID
 70
         1
 71
         1
 91
        1
 92
        1
 93
        1
 72
         2
 10
-18.0
 20
73.099999999999994
 40
0.25
 50
0.0
 51
360.0
 73
         1
 97
        1
330
1A1
 75
         0
 76
         1
 98
        1
 10
0.0
 20
0.0
  0
CIRCLE
  5
1A3
100
AcDbEntity
  8
ASSEMBLY_OUTLINES_TOP
100
AcDbCircle
 10
-16.0
 20
73.1
 30
0.0
 40
0.25
  0
HATCH
  5
1A4
100
AcDbEntity
  8
ASSEMBLY_OUTLINES_TOP
100
AcDbHatch
 10
0.0
 20
0.0
 30
0.0
210
0.0
220
0.0
230
1.0
  2
SOLID
 70
         1
 71
         1
 91
        1
 92
        1
 93
        1
 72
         2
 10
-16.0
 20
73.099999999999994
 40
0.25
 50
0.0
 51
360.0
 73
         1
 97
        1
330
1A3
 75
         0
 76
         1
 98
        1
 10
0.0
 20
0.0
  0
CIRCLE
  5
1A5
100
AcDbEntity
  8
ASSEMBLY_OUTLINES_TOP
100
AcDbCircle
 10
-14.0
 20
73.1
 30
0.0
 40
0.25
  0
HATCH
  5
1A6
100
AcDbEntity
  8
ASSEMBLY_OUTLINES_TOP
100
AcDbHatch
 10
0.0
 20
0.0
 30
0.0
210
0.0
220
0.0
230
1.0
  2
SOLID
 70
         1
 71
         1
 91
        1
 92
        1
 93
        1
 72
         2
 10
-14.0
 20
73.099999999999994
 40
0.25
 50
0.0
 51
360.0
 73
         1
 97
        1
330
1A5
 75
         0
 76
         1
 98
        1
 10
0.0
 20
0.0
  0
CIRCLE
  5
1A7
100
AcDbEntity
  8
ASSEMBLY_OUTLINES_TOP
100
AcDbCircle
 10
-12.0
 20
73.1
 30
0.0
 40
0.25
  0
HATCH
  5
1A8
100
AcDbEntity
  8
ASSEMBLY_OUTLINES_TOP
100
AcDbHatch
 10
0.0
 20
0.0
 30
0.0
210
0.0
220
0.0
230
1.0
  2
SOLID
 70
         1
 71
         1
 91
        1
 92
        1
 93
        1
 72
         2
 10
-12.0
 20
73.099999999999994
 40
0.25
 50
0.0
 51
360.0
 73
         1
 97
        1
330
1A7
 75
         0
 76
         1
 98
        1
 10
0.0
 20
0.0
  0
CIRCLE
  5
1A9
100
AcDbEntity
  8
ASSEMBLY_OUTLINES_TOP
100
AcDbCircle
 10
-10.0
 20
73.1
 30
0.0
 40
0.25
  0
HATCH
  5
1AA
100
AcDbEntity
  8
ASSEMBLY_OUTLINES_TOP
100
AcDbHatch
 10
0.0
 20
0.0
 30
0.0
210
0.0
220
0.0
230
1.0
  2
SOLID
 70
         1
 71
         1
 91
        1
 92
        1
 93
        1
 72
         2
 10
-10.0
 20
73.099999999999994
 40
0.25
 50
0.0
 51
360.0
 73
         1
 97
        1
330
1A9
 75
         0
 76
         1
 98
        1
 10
0.0
 20
0.0
  0
CIRCLE
  5
1AB
100
AcDbEntity
  8
ASSEMBLY_OUTLINES_TOP
100
AcDbCircle
 10
-8.0
 20
73.1
 30
0.0
 40
0.25
  0
HATCH
  5
1AC
100
AcDbEntity
  8
ASSEMBLY_OUTLINES_TOP
100
AcDbHatch
 10
0.0
 20
0.0
 30
0.0
210
0.0
220
0.0
230
1.0
  2
SOLID
 70
         1
 71
         1
 91
        1
 92
        1
 93
        1
 72
         2
 10
-8.0
 20
73.099999999999994
 40
0.25
 50
0.0
 51
360.0
 73
         1
 97
        1
330
1AB
 75
         0
 76
         1
 98
        1
 10
0.0
 20
0.0
  0
CIRCLE
  5
1AD
100
AcDbEntity
  8
ASSEMBLY_OUTLINES_TOP
100
AcDbCircle
 10
-6.0
 20
73.1
 30
0.0
 40
0.25
  0
HATCH
  5
1AE
100
AcDbEntity
  8
ASSEMBLY_OUTLINES_TOP
100
AcDbHatch
 10
0.0
 20
0.0
 30
0.0
210
0.0
220
0.0
230
1.0
  2
SOLID
 70
         1
 71
         1
 91
        1
 92
        1
 93
        1
 72
         2
 10
-6.0
 20
73.099999999999994
 40
0.25
 50
0.0
 51
360.0
 73
         1
 97
        1
330
1AD
 75
         0
 76
         1
 98
        1
 10
0.0
 20
0.0
  0
LWPOLYLINE
  5
1AF
100
AcDbEntity
  8
ASSEMBLY_OUTLINES_TOP
100
AcDbPolyline
 90
        4
 70
         1
 43
0.1
 10
-44.65
 20
56.45
 10
-44.65
 20
59.25
 10
-43.35
 20
59.25
 10
-43.35
 20
56.45
  0
LWPOLYLINE
  5
1B0
100
AcDbEntity
  8
ASSEMBLY_OUTLINES_TOP
100
AcDbPolyline
 90
        4
 70
         1
 43
0.1
 10
-42.25
 20
23.75
 10
-42.25
 20
26.65
 10
-40.95
 20
26.65
 10
-40.95
 20
23.75
  0
LWPOLYLINE
  5
1B1
100
AcDbEntity
  8
ASSEMBLY_OUTLINES_TOP
100
AcDbPolyline
 90
        4
 70
         1
 43
0.1
 10
-14.0
 20
45.7
 10
-14.0
 20
58.2
 10
0.0
 20
58.2
 10
0.0
 20
45.7
  0
LWPOLYLINE
  5
1B2
100
AcDbEntity
  8
ASSEMBLY_OUTLINES_TOP
100
AcDbPolyline
 90
        4
 70
         1
 43
0.1
 10
-43.9
 20
31.45
 10
-43.9
 20
32.75
 10
-41.1
 20
32.75
 10
-41.1
 20
31.45
  0
LWPOLYLINE
  5
1B3
100
AcDbEntity
  8
ASSEMBLY_OUTLINES_TOP
100
AcDbPolyline
 90
        4
 70
         1
 43
0.1
 10
-44.05
 20
32.8
 10
-44.05
 20
34.1
 10
-41.15
 20
34.1
 10
-41.15
 20
32.8
  0
LWPOLYLINE
  5
1B4
100
AcDbEntity
  8
ASSEMBLY_OUTLINES_TOP
100
AcDbPolyline
 90
        4
 70
         1
 10
-13.2
 20
62.65
 10
-13.2
 20
68.25
 10
-1.4
 20
68.25
 10
-1.4
 20
62.65
  0
LWPOLYLINE
  5
1B5
100
AcDbEntity
  8
ASSEMBLY_OUTLINES_TOP
100
AcDbPolyline
 90
        4
 70
         1
 10
-1.4
 20
62.95
 10
-1.4
 20
67.95
 10
1.1
 20
67.95
 10
1.1
 20
62.95
  0
LWPOLYLINE
  5
1B6
100
AcDbEntity
  8
ASSEMBLY_OUTLINES_TOP
100
AcDbPolyline
 90
        4
 70
         1
 43
0.1
 10
-44.2
 20
34.1
 10
-44.2
 20
35.4
 10
-41.4
 20
35.4
 10
-41.4
 20
34.1
  0
LWPOLYLINE
  5
1B7
100
AcDbEntity
  8
ASSEMBLY_OUTLINES_TOP
100
AcDbPolyline
 90
        4
 70
         1
 43
0.1
 10
-43.65
 20
62.1
 10
-43.65
 20
63.4
 10
-40.75
 20
63.4
 10
-40.75
 20
62.1
  0
CIRCLE
  5
1B8
100
AcDbEntity
  8
ASSEMBLY_OUTLINES_TOP
100
AcDbCircle
 10
-2.55
 20
30.45
 30
0.0
 40
0.25
  0
HATCH
  5
1B9
100
AcDbEntity
  8
ASSEMBLY_OUTLINES_TOP
100
AcDbHatch
 10
0.0
 20
0.0
 30
0.0
210
0.0
220
0.0
230
1.0
  2
SOLID
 70
         1
 71
         1
 91
        1
 92
        1
 93
        1
 72
         2
 10
-2.5499999999999998
 20
30.449999999999999
 40
0.25
 50
0.0
 51
360.0
 73
         1
 97
        1
330
1B8
 75
         0
 76
         1
 98
        1
 10
0.0
 20
0.0
  0
LWPOLYLINE
  5
1BA
100
AcDbEntity
  8
ASSEMBLY_OUTLINES_TOP
100
AcDbPolyline
 90
        4
 70
         1
 43
0.1
 10
-5.05
 20
26.75
 10
-5.05
 20
34.15
 10
0.45
 20
34.15
 10
0.45
 20
26.75
  0
LWPOLYLINE
  5
1BB
100
AcDbEntity
  8
ASSEMBLY_OUTLINES_TOP
100
AcDbPolyline
 90
        2
 70
         0
 43
0.1
 10
-5.05
 20
29.15
 10
-5.35
 20
29.15
  0
LWPOLYLINE
  5
1BC
100
AcDbEntity
  8
ASSEMBLY_OUTLINES_TOP
100
AcDbPolyline
 90
        2
 70
         0
 43
0.1
 10
-5.05
 20
30.45
 10
-5.35
 20
30.45
  0
LWPOLYLINE
  5
1BD
100
AcDbEntity
  8
ASSEMBLY_OUTLINES_TOP
100
AcDbPolyline
 90
        2
 70
         0
 43
0.1
 10
-5.05
 20
31.75
 10
-5.35
 20
31.75
  0
LWPOLYLINE
  5
1BE
100
AcDbEntity
  8
ASSEMBLY_OUTLINES_TOP
100
AcDbPolyline
 90
        2
 70
         0
 43
0.1
 10
-5.05
 20
29.8
 10
-5.35
 20
29.8
  0
LWPOLYLINE
  5
1BF
100
AcDbEntity
  8
ASSEMBLY_OUTLINES_TOP
100
AcDbPolyline
 90
        2
 70
         0
 43
0.1
 10
-5.05
 20
31.1
 10
-5.35
 20
31.1
  0
LWPOLYLINE
  5
1C0
100
AcDbEntity
  8
ASSEMBLY_OUTLINES_TOP
100
AcDbPolyline
 90
        2
 70
         0
 43
0.02
 10
-0.05
 20
26.75
 10
-0.05
 20
34.15
  0
LWPOLYLINE
  5
1C1
100
AcDbEntity
  8
ASSEMBLY_OUTLINES_TOP
100
AcDbPolyline
 90
        4
 70
         1
 43
0.1
 10
-43.25
 20
47.45
 10
-43.25
 20
50.25
 10
-41.95
 20
50.25
 10
-41.95
 20
47.45
  0
LWPOLYLINE
  5
1C2
100
AcDbEntity
  8
ASSEMBLY_OUTLINES_TOP
100
AcDbPolyline
 90
        4
 70
         1
 43
0.1
 10
-44.2
 20
35.4
 10
-44.2
 20
36.7
 10
-41.4
 20
36.7
 10
-41.4
 20
35.4
  0
LWPOLYLINE
  5
1C3
100
AcDbEntity
  8
ASSEMBLY_OUTLINES_TOP
100
AcDbPolyline
 90
        4
 70
         1
 43
0.1
 10
-42.4
 20
59.2
 10
-42.4
 20
60.5
 10
-39.6
 20
60.5
 10
-39.6
 20
59.2
  0
LWPOLYLINE
  5
1C4
100
AcDbEntity
  8
ASSEMBLY_OUTLINES_TOP
100
AcDbPolyline
 90
        4
 70
         1
 43
0.1
 10
-42.4
 20
60.6
 10
-42.4
 20
61.9
 10
-39.6
 20
61.9
 10
-39.6
 20
60.6
  0
LWPOLYLINE
  5
1C5
100
AcDbEntity
  8
ASSEMBLY_OUTLINES_TOP
100
AcDbPolyline
 90
        4
 70
         1
 43
0.1
 10
-40.95
 20
32.05
 10
-40.95
 20
34.85
 10
-39.65
 20
34.85
 10
-39.65
 20
32.05
  0
LWPOLYLINE
  5
1C6
100
AcDbEntity
  8
ASSEMBLY_OUTLINES_TOP
100
AcDbPolyline
 90
        4
 70
         1
 43
0.1
 10
-38.85
 20
60.6
 10
-38.85
 20
61.9
 10
-35.95
 20
61.9
 10
-35.95
 20
60.6
  0
LWPOLYLINE
  5
1C7
100
AcDbEntity
  8
ASSEMBLY_OUTLINES_TOP
100
AcDbPolyline
 90
        4
 70
         1
 43
0.1
 10
-40.45
 20
23.8
 10
-40.45
 20
26.7
 10
-39.15
 20
26.7
 10
-39.15
 20
23.8
  0
LWPOLYLINE
  5
1C8
100
AcDbEntity
  8
ASSEMBLY_OUTLINES_TOP
100
AcDbPolyline
 90
        4
 70
         1
 43
0.1
 10
-40.75
 20
35.05
 10
-40.75
 20
37.85
 10
-39.45
 20
37.85
 10
-39.45
 20
35.05
  0
LWPOLYLINE
  5
1C9
100
AcDbEntity
  8
ASSEMBLY_OUTLINES_TOP
100
AcDbPolyline
 90
        4
 70
         1
 43
0.1
 10
-39.05
 20
66.5
 10
-39.05
 20
67.8
 10
-36.15
 20
67.8
 10
-36.15
 20
66.5
  0
LWPOLYLINE
  5
1CA
100
AcDbEntity
  8
ASSEMBLY_OUTLINES_TOP
100
AcDbPolyline
 90
        4
 70
         1
 43
0.1
 10
-39.95
 20
38.45
 10
-39.95
 20
41.25
 10
-38.65
 20
41.25
 10
-38.65
 20
38.45
  0
LWPOLYLINE
  5
1CB
100
AcDbEntity
  8
ASSEMBLY_OUTLINES_TOP
100
AcDbPolyline
 90
        4
 70
         1
 43
0.1
 10
-4.7
 20
36.25
 10
-4.7
 20
42.25
 10
-0.45
 20
42.25
 10
-0.45
 20
36.25
  0
LWPOLYLINE
  5
1CC
100
AcDbEntity
  8
ASSEMBLY_OUTLINES_TOP
100
AcDbPolyline
 90
        4
 70
         1
 43
0.1
 10
-37.45
 20
23.2
 10
-37.45
 20
26.1
 10
-36.15
 20
26.1
 10
-36.15
 20
23.2
  0
LWPOLYLINE
  5
1CD
100
AcDbEntity
  8
ASSEMBLY_OUTLINES_TOP
100
AcDbPolyline
 90
        4
 70
         1
 43
0.1
 10
-41.8
 20
38.4
 10
-41.8
 20
41.7
 10
-40.0
 20
41.7
 10
-40.0
 20
38.4
  0
LWPOLYLINE
  5
1CE
100
AcDbEntity
  8
ASSEMBLY_OUTLINES_TOP
100
AcDbPolyline
 90
        4
 70
         1
 43
0.1
 10
-35.85
 20
23.4
 10
-35.85
 20
26.3
 10
-34.55
 20
26.3
 10
-34.55
 20
23.4
  0
LWPOLYLINE
  5
1CF
100
AcDbEntity
  8
ASSEMBLY_OUTLINES_TOP
100
AcDbPolyline
 90
        4
 70
         1
 43
0.1
 10
-40.9
 20
49.9
 10
-40.9
 20
51.2
 10
-38.1
 20
51.2
 10
-38.1
 20
49.9
  0
LWPOLYLINE
  5
1D0
100
AcDbEntity
  8
ASSEMBLY_OUTLINES_TOP
100
AcDbPolyline
 90
        4
 70
         1
 43
0.1
 10
-34.55
 20
46.6
 10
-34.55
 20
49.5
 10
-33.25
 20
49.5
 10
-33.25
 20
46.6
  0
LWPOLYLINE
  5
1D1
100
AcDbEntity
  8
ASSEMBLY_OUTLINES_TOP
100
AcDbPolyline
 90
        4
 70
         1
 43
0.1
 10
-40.5
 20
62.7
 10
-40.5
 20
66.0
 10
-38.7
 20
66.0
 10
-38.7
 20
62.7
  0
LWPOLYLINE
  5
1D2
100
AcDbEntity
  8
ASSEMBLY_OUTLINES_TOP
100
AcDbPolyline
 90
        4
 70
         1
 43
0.1
 10
-39.45
 20
32.05
 10
-39.45
 20
34.85
 10
-38.15
 20
34.85
 10
-38.15
 20
32.05
  0
LWPOLYLINE
  5
1D3
100
AcDbEntity
  8
ASSEMBLY_OUTLINES_TOP
100
AcDbPolyline
 90
        4
 70
         1
 43
0.1
 10
-43.15
 20
38.35
 10
-43.15
 20
41.15
 10
-41.85
 20
41.15
 10
-41.85
 20
38.35
  0
LWPOLYLINE
  5
1D4
100
AcDbEntity
  8
ASSEMBLY_OUTLINES_TOP
100
AcDbPolyline
 90
        4
 70
         1
 43
0.1
 10
-35.95
 20
60.6
 10
-35.95
 20
61.9
 10
-33.05
 20
61.9
 10
-33.05
 20
60.6
  0
LWPOLYLINE
  5
1D5
100
AcDbEntity
  8
ASSEMBLY_OUTLINES_TOP
100
AcDbPolyline
 90
        4
 70
         1
 43
0.1
 10
-39.0
 20
23.85
 10
-39.0
 20
26.65
 10
-37.7
 20
26.65
 10
-37.7
 20
23.85
  0
LWPOLYLINE
  5
1D6
100
AcDbEntity
  8
ASSEMBLY_OUTLINES_TOP
100
AcDbPolyline
 90
        4
 70
         1
 43
0.1
 10
-39.35
 20
35.25
 10
-39.35
 20
38.05
 10
-38.05
 20
38.05
 10
-38.05
 20
35.25
  0
LWPOLYLINE
  5
1D7
100
AcDbEntity
  8
ASSEMBLY_OUTLINES_TOP
100
AcDbPolyline
 90
        4
 70
         1
 43
0.1
 10
-34.25
 20
22.9
 10
-34.25
 20
24.2
 10
-31.35
 20
24.2
 10
-31.35
 20
22.9
  0
LWPOLYLINE
  5
1D8
100
AcDbEntity
  8
ASSEMBLY_OUTLINES_TOP
100
AcDbPolyline
 90
        4
 70
         1
 43
0.1
 10
-39.1
 20
59.2
 10
-39.1
 20
60.5
 10
-36.3
 20
60.5
 10
-36.3
 20
59.2
  0
LWPOLYLINE
  5
1D9
100
AcDbEntity
  8
ASSEMBLY_OUTLINES_TOP
100
AcDbPolyline
 90
        4
 70
         1
 43
0.1
 10
-32.75
 20
26.4
 10
-32.75
 20
27.7
 10
-29.85
 20
27.7
 10
-29.85
 20
26.4
  0
LWPOLYLINE
  5
1DA
100
AcDbEntity
  8
ASSEMBLY_OUTLINES_TOP
100
AcDbPolyline
 90
        4
 70
         1
 43
0.1
 10
-37.5
 20
28.4
 10
-37.5
 20
29.7
 10
-34.7
 20
29.7
 10
-34.7
 20
28.4
  0
LWPOLYLINE
  5
1DB
100
AcDbEntity
  8
ASSEMBLY_OUTLINES_TOP
100
AcDbPolyline
 90
        4
 70
         1
 43
0.1
 10
-30.85
 20
14.0
 10
-30.85
 20
15.3
 10
-27.95
 20
15.3
 10
-27.95
 20
14.0
  0
LWPOLYLINE
  5
1DC
100
AcDbEntity
  8
ASSEMBLY_OUTLINES_TOP
100
AcDbPolyline
 90
        4
 70
         1
 43
0.1
 10
-30.75
 20
9.4
 10
-30.75
 20
12.3
 10
-29.45
 20
12.3
 10
-29.45
 20
9.4
  0
LWPOLYLINE
  5
1DD
100
AcDbEntity
  8
ASSEMBLY_OUTLINES_TOP
100
AcDbPolyline
 90
        4
 70
         1
 43
0.1
 10
-41.25
 20
26.85
 10
-41.25
 20
28.15
 10
-38.35
 20
28.15
 10
-38.35
 20
26.85
  0
LWPOLYLINE
  5
1DE
100
AcDbEntity
  8
ASSEMBLY_OUTLINES_TOP
100
AcDbPolyline
 90
        4
 70
         1
 43
0.1
 10
-37.5
 20
29.8
 10
-37.5
 20
31.1
 10
-34.7
 20
31.1
 10
-34.7
 20
29.8
  0
LWPOLYLINE
  5
1DF
100
AcDbEntity
  8
ASSEMBLY_OUTLINES_TOP
100
AcDbPolyline
 90
        4
 70
         1
 43
0.1
 10
-44.275
 20
36.925
 10
-44.275
 20
37.975
 10
-41.125
 20
37.975
 10
-41.125
 20
36.925
  0
LWPOLYLINE
  5
1E0
100
AcDbEntity
  8
ASSEMBLY_OUTLINES_TOP
100
AcDbPolyline
 90
        2
 70
         0
 43
0.1
 10
-44.275
 20
36.925
 10
-44.275
 20
37.975
  0
LWPOLYLINE
  5
1E1
100
AcDbEntity
  8
ASSEMBLY_OUTLINES_TOP
100
AcDbPolyline
 90
        2
 70
         0
 43
0.1
 10
-44.175
 20
36.925
 10
-44.175
 20
37.975
  0
LWPOLYLINE
  5
1E2
100
AcDbEntity
  8
ASSEMBLY_OUTLINES_TOP
100
AcDbPolyline
 90
        2
 70
         0
 43
0.1
 10
-44.075
 20
36.925
 10
-44.075
 20
37.975
  0
LWPOLYLINE
  5
1E3
100
AcDbEntity
  8
ASSEMBLY_OUTLINES_TOP
100
AcDbPolyline
 90
        2
 70
         0
 43
0.1
 10
-43.975
 20
36.925
 10
-43.975
 20
37.975
  0
LWPOLYLINE
  5
1E4
100
AcDbEntity
  8
ASSEMBLY_OUTLINES_TOP
100
AcDbPolyline
 90
        2
 70
         0
 43
0.1
 10
-43.875
 20
36.925
 10
-43.875
 20
37.975
  0
LWPOLYLINE
  5
1E5
100
AcDbEntity
  8
ASSEMBLY_OUTLINES_TOP
100
AcDbPolyline
 90
        2
 70
         0
 43
0.1
 10
-43.775
 20
36.925
 10
-43.775
 20
37.975
  0
LWPOLYLINE
  5
1E6
100
AcDbEntity
  8
ASSEMBLY_OUTLINES_TOP
100
AcDbPolyline
 90
        2
 70
         0
 43
0.1
 10
-43.675
 20
36.925
 10
-43.675
 20
37.975
  0
LWPOLYLINE
  5
1E7
100
AcDbEntity
  8
ASSEMBLY_OUTLINES_TOP
100
AcDbPolyline
 90
        2
 70
         0
 43
0.1
 10
-43.575
 20
36.925
 10
-43.575
 20
37.975
  0
LWPOLYLINE
  5
1E8
100
AcDbEntity
  8
ASSEMBLY_OUTLINES_TOP
100
AcDbPolyline
 90
        4
 70
         1
 43
0.1
 10
-30.85
 20
19.0
 10
-30.85
 20
20.3
 10
-27.95
 20
20.3
 10
-27.95
 20
19.0
  0
LWPOLYLINE
  5
1E9
100
AcDbEntity
  8
ASSEMBLY_OUTLINES_TOP
100
AcDbPolyline
 90
        4
 70
         1
 43
0.1
 10
-30.85
 20
12.6
 10
-30.85
 20
13.9
 10
-27.95
 20
13.9
 10
-27.95
 20
12.6
  0
LWPOLYLINE
  5
1EA
100
AcDbEntity
  8
ASSEMBLY_OUTLINES_TOP
100
AcDbPolyline
 90
        4
 70
         1
 43
0.1
 10
-37.2
 20
48.4
 10
-37.2
 20
51.2
 10
-35.9
 20
51.2
 10
-35.9
 20
48.4
  0
LWPOLYLINE
  5
1EB
100
AcDbEntity
  8
ASSEMBLY_OUTLINES_TOP
100
AcDbPolyline
 90
        4
 70
         1
 43
0.1
 10
-42.5
 20
28.7
 10
-42.5
 20
31.2
 10
-39.3
 20
31.2
 10
-39.3
 20
28.7
  0
LWPOLYLINE
  5
1EC
100
AcDbEntity
  8
ASSEMBLY_OUTLINES_TOP
100
AcDbPolyline
 90
        2
 70
         0
 43
0.1
 10
-39.3
 20
31.1
 10
-39.4
 20
31.2
  0
LWPOLYLINE
  5
1ED
100
AcDbEntity
  8
ASSEMBLY_OUTLINES_TOP
100
AcDbPolyline
 90
        2
 70
         0
 43
0.1
 10
-39.3
 20
31.0
 10
-39.5
 20
31.2
  0
LWPOLYLINE
  5
1EE
100
AcDbEntity
  8
ASSEMBLY_OUTLINES_TOP
100
AcDbPolyline
 90
        2
 70
         0
 43
0.1
 10
-39.3
 20
30.9
 10
-39.6
 20
31.2
  0
LWPOLYLINE
  5
1EF
100
AcDbEntity
  8
ASSEMBLY_OUTLINES_TOP
100
AcDbPolyline
 90
        2
 70
         0
 43
0.1
 10
-39.3
 20
30.8
 10
-39.7
 20
31.2
  0
LWPOLYLINE
  5
1F0
100
AcDbEntity
  8
ASSEMBLY_OUTLINES_TOP
100
AcDbPolyline
 90
        2
 70
         0
 43
0.1
 10
-39.3
 20
30.7
 10
-39.8
 20
31.2
  0
LWPOLYLINE
  5
1F1
100
AcDbEntity
  8
ASSEMBLY_OUTLINES_TOP
100
AcDbPolyline
 90
        2
 70
         0
 43
0.1
 10
-39.3
 20
30.6
 10
-39.9
 20
31.2
  0
LWPOLYLINE
  5
1F2
100
AcDbEntity
  8
ASSEMBLY_OUTLINES_TOP
100
AcDbPolyline
 90
        2
 70
         0
 43
0.1
 10
-39.3
 20
30.5
 10
-40.0
 20
31.2
  0
LWPOLYLINE
  5
1F3
100
AcDbEntity
  8
ASSEMBLY_OUTLINES_TOP
100
AcDbPolyline
 90
        2
 70
         0
 43
0.1
 10
-39.3
 20
30.4
 10
-40.1
 20
31.2
  0
LWPOLYLINE
  5
1F4
100
AcDbEntity
  8
ASSEMBLY_OUTLINES_TOP
100
AcDbPolyline
 90
        2
 70
         0
 43
0.1
 10
-39.3
 20
30.3
 10
-40.2
 20
31.2
  0
LWPOLYLINE
  5
1F5
100
AcDbEntity
  8
ASSEMBLY_OUTLINES_TOP
100
AcDbPolyline
 90
        2
 70
         0
 43
0.1
 10
-39.3
 20
30.2
 10
-40.3
 20
31.2
  0
LWPOLYLINE
  5
1F6
100
AcDbEntity
  8
ASSEMBLY_OUTLINES_TOP
100
AcDbPolyline
 90
        4
 70
         1
 43
0.1
 10
-30.85
 20
20.4
 10
-30.85
 20
21.7
 10
-27.95
 20
21.7
 10
-27.95
 20
20.4
  0
LWPOLYLINE
  5
1F7
100
AcDbEntity
  8
ASSEMBLY_OUTLINES_TOP
100
AcDbPolyline
 90
        4
 70
         1
 43
0.1
 10
-34.65
 20
28.25
 10
-34.65
 20
31.05
 10
-33.35
 20
31.05
 10
-33.35
 20
28.25
  0
LWPOLYLINE
  5
1F8
100
AcDbEntity
  8
ASSEMBLY_OUTLINES_TOP
100
AcDbPolyline
 90
        4
 70
         1
 43
0.1
 10
-31.15
 20
22.9
 10
-31.15
 20
24.2
 10
-28.25
 20
24.2
 10
-28.25
 20
22.9
  0
LWPOLYLINE
  5
1F9
100
AcDbEntity
  8
ASSEMBLY_OUTLINES_TOP
100
AcDbPolyline
 90
        4
 70
         1
 43
0.1
 10
-35.3
 20
50.0
 10
-35.3
 20
51.3
 10
-32.5
 20
51.3
 10
-32.5
 20
50.0
  0
LWPOLYLINE
  5
1FA
100
AcDbEntity
  8
ASSEMBLY_OUTLINES_TOP
100
AcDbPolyline
 90
        4
 70
         1
 43
0.1
 10
-30.15
 20
60.1
 10
-30.15
 20
63.0
 10
-28.85
 20
63.0
 10
-28.85
 20
60.1
  0
LWPOLYLINE
  5
1FB
100
AcDbEntity
  8
ASSEMBLY_OUTLINES_TOP
100
AcDbPolyline
 90
        4
 70
         1
 43
0.1
 10
-35.9
 20
59.2
 10
-35.9
 20
60.5
 10
-33.1
 20
60.5
 10
-33.1
 20
59.2
  0
LWPOLYLINE
  5
1FC
100
AcDbEntity
  8
ASSEMBLY_OUTLINES_TOP
100
AcDbPolyline
 90
        4
 70
         1
 43
0.1
 10
-43.25
 20
44.55
 10
-43.25
 20
47.35
 10
-41.95
 20
47.35
 10
-41.95
 20
44.55
  0
LWPOLYLINE
  5
1FD
100
AcDbEntity
  8
ASSEMBLY_OUTLINES_TOP
100
AcDbPolyline
 90
        4
 70
         1
 43
0.1
 10
-34.85
 20
64.15
 10
-34.85
 20
65.95
 10
-31.55
 20
65.95
 10
-31.55
 20
64.15
  0
LWPOLYLINE
  5
1FE
100
AcDbEntity
  8
ASSEMBLY_OUTLINES_TOP
100
AcDbPolyline
 90
        4
 70
         1
 43
0.1
 10
-31.45
 20
63.0
 10
-31.45
 20
65.9
 10
-30.15
 20
65.9
 10
-30.15
 20
63.0
  0
LWPOLYLINE
  5
1FF
100
AcDbEntity
  8
ASSEMBLY_OUTLINES_TOP
100
AcDbPolyline
 90
        4
 70
         1
 43
0.1
 10
-34.85
 20
62.25
 10
-34.85
 20
64.05
 10
-31.55
 20
64.05
 10
-31.55
 20
62.25
  0
LWPOLYLINE
  5
200
100
AcDbEntity
  8
ASSEMBLY_OUTLINES_TOP
100
AcDbPolyline
 90
        4
 70
         1
 43
0.1
 10
-33.35
 20
27.75
 10
-33.35
 20
30.55
 10
-32.05
 20
30.55
 10
-32.05
 20
27.75
  0
LWPOLYLINE
  5
201
100
AcDbEntity
  8
ASSEMBLY_OUTLINES_TOP
100
AcDbPolyline
 90
        4
 70
         1
 43
0.1
 10
-30.05
 20
63.0
 10
-30.05
 20
65.9
 10
-28.75
 20
65.9
 10
-28.75
 20
63.0
  0
LWPOLYLINE
  5
202
100
AcDbEntity
  8
ASSEMBLY_OUTLINES_TOP
100
AcDbPolyline
 90
        4
 70
         1
 43
0.1
 10
-31.95
 20
27.95
 10
-31.95
 20
30.75
 10
-30.65
 20
30.75
 10
-30.65
 20
27.95
  0
LWPOLYLINE
  5
203
100
AcDbEntity
  8
ASSEMBLY_OUTLINES_TOP
100
AcDbPolyline
 90
        4
 70
         1
 43
0.1
 10
-31.95
 20
66.6
 10
-31.95
 20
67.9
 10
-29.05
 20
67.9
 10
-29.05
 20
66.6
  0
LWPOLYLINE
  5
204
100
AcDbEntity
  8
ASSEMBLY_OUTLINES_TOP
100
AcDbPolyline
 90
        4
 70
         1
 43
0.1
 10
-33.0
 20
59.2
 10
-33.0
 20
60.5
 10
-30.2
 20
60.5
 10
-30.2
 20
59.2
  0
LWPOLYLINE
  5
205
100
AcDbEntity
  8
ASSEMBLY_OUTLINES_TOP
100
AcDbPolyline
 90
        4
 70
         1
 43
0.1
 10
-26.35
 20
12.9
 10
-26.35
 20
14.2
 10
-23.45
 20
14.2
 10
-23.45
 20
12.9
  0
LWPOLYLINE
  5
206
100
AcDbEntity
  8
ASSEMBLY_OUTLINES_TOP
100
AcDbPolyline
 90
        4
 70
         1
 43
0.1
 10
-28.75
 20
15.4
 10
-28.75
 20
18.3
 10
-27.45
 20
18.3
 10
-27.45
 20
15.4
  0
LWPOLYLINE
  5
207
100
AcDbEntity
  8
ASSEMBLY_OUTLINES_TOP
100
AcDbPolyline
 90
        4
 70
         1
 43
0.1
 10
-38.9
 20
28.7
 10
-38.9
 20
31.6
 10
-37.6
 20
31.6
 10
-37.6
 20
28.7
  0
LWPOLYLINE
  5
208
100
AcDbEntity
  8
ASSEMBLY_OUTLINES_TOP
100
AcDbPolyline
 90
        4
 70
         1
 43
0.1
 10
-33.1
 20
60.6
 10
-33.1
 20
61.9
 10
-30.3
 20
61.9
 10
-30.3
 20
60.6
  0
LWPOLYLINE
  5
209
100
AcDbEntity
  8
ASSEMBLY_OUTLINES_TOP
100
AcDbPolyline
 90
        4
 70
         1
 43
0.1
 10
-26.35
 20
14.3
 10
-26.35
 20
15.6
 10
-23.45
 20
15.6
 10
-23.45
 20
14.3
  0
LWPOLYLINE
  5
20A
100
AcDbEntity
  8
ASSEMBLY_OUTLINES_TOP
100
AcDbPolyline
 90
        4
 70
         1
 43
0.1
 10
-28.45
 20
66.9
 10
-28.45
 20
68.2
 10
-25.55
 20
68.2
 10
-25.55
 20
66.9
  0
LWPOLYLINE
  5
20B
100
AcDbEntity
  8
ASSEMBLY_OUTLINES_TOP
100
AcDbPolyline
 90
        4
 70
         1
 43
0.1
 10
-30.7
 20
15.5
 10
-30.7
 20
18.8
 10
-28.9
 20
18.8
 10
-28.9
 20
15.5
  0
LWPOLYLINE
  5
20C
100
AcDbEntity
  8
ASSEMBLY_OUTLINES_TOP
100
AcDbPolyline
 90
        4
 70
         1
 43
0.1
 10
-26.05
 20
21.6
 10
-26.05
 20
22.9
 10
-23.15
 20
22.9
 10
-23.15
 20
21.6
  0
LWPOLYLINE
  5
20D
100
AcDbEntity
  8
ASSEMBLY_OUTLINES_TOP
100
AcDbPolyline
 90
        4
 70
         1
 43
0.1
 10
-32.0
 20
25.0
 10
-32.0
 20
26.3
 10
-29.2
 20
26.3
 10
-29.2
 20
25.0
  0
LWPOLYLINE
  5
20E
100
AcDbEntity
  8
ASSEMBLY_OUTLINES_TOP
100
AcDbPolyline
 90
        4
 70
         1
 43
0.1
 10
-26.05
 20
23.0
 10
-26.05
 20
24.3
 10
-23.15
 20
24.3
 10
-23.15
 20
23.0
  0
LWPOLYLINE
  5
20F
100
AcDbEntity
  8
ASSEMBLY_OUTLINES_TOP
100
AcDbPolyline
 90
        4
 70
         1
 43
0.1
 10
-31.15
 20
47.25
 10
-31.15
 20
50.05
 10
-29.85
 20
50.05
 10
-29.85
 20
47.25
  0
LWPOLYLINE
  5
210
100
AcDbEntity
  8
ASSEMBLY_OUTLINES_TOP
100
AcDbPolyline
 90
        4
 70
         1
 43
0.1
 10
-26.15
 20
46.1
 10
-26.15
 20
47.4
 10
-23.25
 20
47.4
 10
-23.25
 20
46.1
  0
LWPOLYLINE
  5
211
100
AcDbEntity
  8
ASSEMBLY_OUTLINES_TOP
100
AcDbPolyline
 90
        4
 70
         1
 43
0.1
 10
-29.35
 20
55.95
 10
-29.35
 20
58.75
 10
-28.05
 20
58.75
 10
-28.05
 20
55.95
  0
LWPOLYLINE
  5
212
100
AcDbEntity
  8
ASSEMBLY_OUTLINES_TOP
100
AcDbPolyline
 90
        4
 70
         1
 43
0.1
 10
-28.75
 20
62.85
 10
-28.75
 20
64.65
 10
-25.45
 20
64.65
 10
-25.45
 20
62.85
  0
LWPOLYLINE
  5
213
100
AcDbEntity
  8
ASSEMBLY_OUTLINES_TOP
100
AcDbPolyline
 90
        4
 70
         1
 43
0.1
 10
-24.2
 20
24.45
 10
-24.2
 20
25.75
 10
-21.3
 20
25.75
 10
-21.3
 20
24.45
  0
LWPOLYLINE
  5
214
100
AcDbEntity
  8
ASSEMBLY_OUTLINES_TOP
100
AcDbPolyline
 90
        4
 70
         1
 43
0.1
 10
-25.35
 20
61.95
 10
-25.35
 20
63.75
 10
-22.05
 20
63.75
 10
-22.05
 20
61.95
  0
LWPOLYLINE
  5
215
100
AcDbEntity
  8
ASSEMBLY_OUTLINES_TOP
100
AcDbPolyline
 90
        4
 70
         1
 43
0.1
 10
-28.75
 20
60.95
 10
-28.75
 20
62.75
 10
-25.45
 20
62.75
 10
-25.45
 20
60.95
  0
LWPOLYLINE
  5
216
100
AcDbEntity
  8
ASSEMBLY_OUTLINES_TOP
100
AcDbPolyline
 90
        4
 70
         1
 43
0.1
 10
-22.05
 20
26.05
 10
-22.05
 20
28.95
 10
-20.75
 20
28.95
 10
-20.75
 20
26.05
  0
LWPOLYLINE
  5
217
100
AcDbEntity
  8
ASSEMBLY_OUTLINES_TOP
100
AcDbPolyline
 90
        4
 70
         1
 43
0.1
 10
-23.5
 20
26.1
 10
-23.5
 20
28.9
 10
-22.2
 20
28.9
 10
-22.2
 20
26.1
  0
LWPOLYLINE
  5
218
100
AcDbEntity
  8
ASSEMBLY_OUTLINES_TOP
100
AcDbPolyline
 90
        4
 70
         1
 43
0.1
 10
-20.95
 20
29.0
 10
-20.95
 20
31.9
 10
-19.65
 20
31.9
 10
-19.65
 20
29.0
  0
LWPOLYLINE
  5
219
100
AcDbEntity
  8
ASSEMBLY_OUTLINES_TOP
100
AcDbPolyline
 90
        4
 70
         1
 43
0.1
 10
-23.85
 20
29.35
 10
-23.85
 20
30.65
 10
-21.05
 20
30.65
 10
-21.05
 20
29.35
  0
LWPOLYLINE
  5
21A
100
AcDbEntity
  8
ASSEMBLY_OUTLINES_TOP
100
AcDbPolyline
 90
        4
 70
         1
 43
0.1
 10
-21.35
 20
46.2
 10
-21.35
 20
47.5
 10
-18.45
 20
47.5
 10
-18.45
 20
46.2
  0
LWPOLYLINE
  5
21B
100
AcDbEntity
  8
ASSEMBLY_OUTLINES_TOP
100
AcDbPolyline
 90
        4
 70
         1
 43
0.1
 10
-20.55
 20
32.0
 10
-20.55
 20
34.9
 10
-19.25
 20
34.9
 10
-19.25
 20
32.0
  0
LWPOLYLINE
  5
21C
100
AcDbEntity
  8
ASSEMBLY_OUTLINES_TOP
100
AcDbPolyline
 90
        4
 70
         1
 43
0.1
 10
-22.5
 20
33.1
 10
-22.5
 20
36.4
 10
-20.7
 20
36.4
 10
-20.7
 20
33.1
  0
LWPOLYLINE
  5
21D
100
AcDbEntity
  8
ASSEMBLY_OUTLINES_TOP
100
AcDbPolyline
 90
        4
 70
         1
 43
0.1
 10
-20.55
 20
62.3
 10
-20.55
 20
63.6
 10
-17.65
 20
63.6
 10
-17.65
 20
62.3
  0
LWPOLYLINE
  5
21E
100
AcDbEntity
  8
ASSEMBLY_OUTLINES_TOP
100
AcDbPolyline
 90
        4
 70
         1
 43
0.1
 10
-20.55
 20
43.15
 10
-20.55
 20
46.05
 10
-19.25
 20
46.05
 10
-19.25
 20
43.15
  0
LWPOLYLINE
  5
21F
100
AcDbEntity
  8
ASSEMBLY_OUTLINES_TOP
100
AcDbPolyline
 90
        4
 70
         1
 43
0.1
 10
-23.0
 20
36.5
 10
-23.0
 20
37.8
 10
-20.2
 20
37.8
 10
-20.2
 20
36.5
  0
LWPOLYLINE
  5
220
100
AcDbEntity
  8
ASSEMBLY_OUTLINES_TOP
100
AcDbPolyline
 90
        4
 70
         1
 43
0.1
 10
-21.55
 20
63.7
 10
-21.55
 20
66.6
 10
-20.25
 20
66.6
 10
-20.25
 20
63.7
  0
LWPOLYLINE
  5
221
100
AcDbEntity
  8
ASSEMBLY_OUTLINES_TOP
100
AcDbPolyline
 90
        4
 70
         1
 43
0.1
 10
-22.7
 20
37.9
 10
-22.7
 20
39.2
 10
-19.9
 20
39.2
 10
-19.9
 20
37.9
  0
LWPOLYLINE
  5
222
100
AcDbEntity
  8
ASSEMBLY_OUTLINES_TOP
100
AcDbPolyline
 90
        4
 70
         1
 43
0.1
 10
-20.15
 20
63.8
 10
-20.15
 20
66.7
 10
-18.85
 20
66.7
 10
-18.85
 20
63.8
  0
LWPOLYLINE
  5
223
100
AcDbEntity
  8
ASSEMBLY_OUTLINES_TOP
100
AcDbPolyline
 90
        4
 70
         1
 43
0.1
 10
-21.9
 20
39.4
 10
-21.9
 20
42.7
 10
-20.1
 20
42.7
 10
-20.1
 20
39.4
  0
LWPOLYLINE
  5
224
100
AcDbEntity
  8
ASSEMBLY_OUTLINES_TOP
100
AcDbPolyline
 90
        4
 70
         1
 43
0.1
 10
-22.35
 20
66.9
 10
-22.35
 20
68.2
 10
-19.45
 20
68.2
 10
-19.45
 20
66.9
  0
LWPOLYLINE
  5
225
100
AcDbEntity
  8
ASSEMBLY_OUTLINES_TOP
100
AcDbPolyline
 90
        4
 70
         1
 43
0.1
 10
-20.1
 20
41.8
 10
-20.1
 20
43.1
 10
-17.3
 20
43.1
 10
-17.3
 20
41.8
  0
LWPOLYLINE
  5
226
100
AcDbEntity
  8
ASSEMBLY_OUTLINES_TOP
100
AcDbPolyline
 90
        4
 70
         1
 43
0.1
 10
-19.05
 20
33.05
 10
-19.05
 20
34.85
 10
-15.75
 20
34.85
 10
-15.75
 20
33.05
  0
LWPOLYLINE
  5
227
100
AcDbEntity
  8
ASSEMBLY_OUTLINES_TOP
100
AcDbPolyline
 90
        4
 70
         1
 43
0.1
 10
-17.85
 20
25.4
 10
-17.85
 20
28.3
 10
-16.55
 20
28.3
 10
-16.55
 20
25.4
  0
LWPOLYLINE
  5
228
100
AcDbEntity
  8
ASSEMBLY_OUTLINES_TOP
100
AcDbPolyline
 90
        4
 70
         1
 43
0.1
 10
-18.5
 20
46.2
 10
-18.5
 20
47.5
 10
-15.7
 20
47.5
 10
-15.7
 20
46.2
  0
LWPOLYLINE
  5
229
100
AcDbEntity
  8
ASSEMBLY_OUTLINES_TOP
100
AcDbPolyline
 90
        4
 70
         1
 43
0.1
 10
-19.4
 20
38.4
 10
-19.4
 20
41.7
 10
-17.6
 20
41.7
 10
-17.6
 20
38.4
  0
LWPOLYLINE
  5
22A
100
AcDbEntity
  8
ASSEMBLY_OUTLINES_TOP
100
AcDbPolyline
 90
        4
 70
         1
 43
0.1
 10
-19.5
 20
28.6
 10
-19.5
 20
31.5
 10
-18.2
 20
31.5
 10
-18.2
 20
28.6
  0
LWPOLYLINE
  5
22B
100
AcDbEntity
  8
ASSEMBLY_OUTLINES_TOP
100
AcDbPolyline
 90
        4
 70
         1
 43
0.1
 10
-17.5
 20
62.3
 10
-17.5
 20
63.6
 10
-14.7
 20
63.6
 10
-14.7
 20
62.3
  0
LWPOLYLINE
  5
22C
100
AcDbEntity
  8
ASSEMBLY_OUTLINES_TOP
100
AcDbPolyline
 90
        4
 70
         1
 43
0.1
 10
-18.65
 20
31.6
 10
-18.65
 20
32.9
 10
-15.75
 20
32.9
 10
-15.75
 20
31.6
  0
LWPOLYLINE
  5
22D
100
AcDbEntity
  8
ASSEMBLY_OUTLINES_TOP
100
AcDbPolyline
 90
        4
 70
         1
 43
0.1
 10
-17.25
 20
63.85
 10
-17.25
 20
66.65
 10
-15.95
 20
66.65
 10
-15.95
 20
63.85
  0
LWPOLYLINE
  5
22E
100
AcDbEntity
  8
ASSEMBLY_OUTLINES_TOP
100
AcDbPolyline
 90
        4
 70
         1
 43
0.1
 10
-14.5
 20
33.25
 10
-14.5
 20
36.25
 10
-13.1
 20
36.25
 10
-13.1
 20
33.25
  0
LWPOLYLINE
  5
22F
100
AcDbEntity
  8
ASSEMBLY_OUTLINES_TOP
100
AcDbPolyline
 90
        2
 70
         0
 43
0.1
 10
-14.5
 20
36.15
 10
-14.4
 20
36.25
  0
LWPOLYLINE
  5
230
100
AcDbEntity
  8
ASSEMBLY_OUTLINES_TOP
100
AcDbPolyline
 90
        2
 70
         0
 43
0.1
 10
-14.5
 20
36.05
 10
-14.3
 20
36.25
  0
LWPOLYLINE
  5
231
100
AcDbEntity
  8
ASSEMBLY_OUTLINES_TOP
100
AcDbPolyline
 90
        2
 70
         0
 43
0.1
 10
-14.5
 20
35.95
 10
-14.2
 20
36.25
  0
LWPOLYLINE
  5
232
100
AcDbEntity
  8
ASSEMBLY_OUTLINES_TOP
100
AcDbPolyline
 90
        2
 70
         0
 43
0.1
 10
-14.5
 20
35.85
 10
-14.1
 20
36.25
  0
LWPOLYLINE
  5
233
100
AcDbEntity
  8
ASSEMBLY_OUTLINES_TOP
100
AcDbPolyline
 90
        2
 70
         0
 43
0.1
 10
-14.5
 20
35.75
 10
-14.0
 20
36.25
  0
LWPOLYLINE
  5
234
100
AcDbEntity
  8
ASSEMBLY_OUTLINES_TOP
100
AcDbPolyline
 90
        2
 70
         0
 43
0.1
 10
-14.5
 20
35.65
 10
-13.9
 20
36.25
  0
LWPOLYLINE
  5
235
100
AcDbEntity
  8
ASSEMBLY_OUTLINES_TOP
100
AcDbPolyline
 90
        4
 70
         1
 43
0.1
 10
-18.75
 20
63.8
 10
-18.75
 20
66.7
 10
-17.45
 20
66.7
 10
-17.45
 20
63.8
  0
LWPOLYLINE
  5
236
100
AcDbEntity
  8
ASSEMBLY_OUTLINES_TOP
100
AcDbPolyline
 90
        4
 70
         1
 43
0.1
 10
-18.65
 20
43.2
 10
-18.65
 20
44.5
 10
-15.75
 20
44.5
 10
-15.75
 20
43.2
  0
LWPOLYLINE
  5
237
100
AcDbEntity
  8
ASSEMBLY_OUTLINES_TOP
100
AcDbPolyline
 90
        4
 70
         1
 43
0.1
 10
-16.4
 20
66.9
 10
-16.4
 20
68.2
 10
-13.6
 20
68.2
 10
-13.6
 20
66.9
  0
LWPOLYLINE
  5
238
100
AcDbEntity
  8
ASSEMBLY_OUTLINES_TOP
100
AcDbPolyline
 90
        4
 70
         1
 43
0.1
 10
-14.0
 20
36.55
 10
-14.0
 20
39.55
 10
-12.6
 20
39.55
 10
-12.6
 20
36.55
  0
LWPOLYLINE
  5
239
100
AcDbEntity
  8
ASSEMBLY_OUTLINES_TOP
100
AcDbPolyline
 90
        2
 70
         0
 43
0.1
 10
-14.0
 20
39.45
 10
-13.9
 20
39.55
  0
LWPOLYLINE
  5
23A
100
AcDbEntity
  8
ASSEMBLY_OUTLINES_TOP
100
AcDbPolyline
 90
        2
 70
         0
 43
0.1
 10
-14.0
 20
39.35
 10
-13.8
 20
39.55
  0
LWPOLYLINE
  5
23B
100
AcDbEntity
  8
ASSEMBLY_OUTLINES_TOP
100
AcDbPolyline
 90
        2
 70
         0
 43
0.1
 10
-14.0
 20
39.25
 10
-13.7
 20
39.55
  0
LWPOLYLINE
  5
23C
100
AcDbEntity
  8
ASSEMBLY_OUTLINES_TOP
100
AcDbPolyline
 90
        2
 70
         0
 43
0.1
 10
-14.0
 20
39.15
 10
-13.6
 20
39.55
  0
LWPOLYLINE
  5
23D
100
AcDbEntity
  8
ASSEMBLY_OUTLINES_TOP
100
AcDbPolyline
 90
        2
 70
         0
 43
0.1
 10
-14.0
 20
39.05
 10
-13.5
 20
39.55
  0
LWPOLYLINE
  5
23E
100
AcDbEntity
  8
ASSEMBLY_OUTLINES_TOP
100
AcDbPolyline
 90
        2
 70
         0
 43
0.1
 10
-14.0
 20
38.95
 10
-13.4
 20
39.55
  0
LWPOLYLINE
  5
23F
100
AcDbEntity
  8
ASSEMBLY_OUTLINES_TOP
100
AcDbPolyline
 90
        4
 70
         1
 43
0.1
 10
-19.35
 20
66.9
 10
-19.35
 20
68.2
 10
-16.45
 20
68.2
 10
-16.45
 20
66.9
  0
LWPOLYLINE
  5
240
100
AcDbEntity
  8
ASSEMBLY_OUTLINES_TOP
100
AcDbPolyline
 90
        4
 70
         1
 43
0.1
 10
-18.65
 20
44.7
 10
-18.65
 20
46.0
 10
-15.75
 20
46.0
 10
-15.75
 20
44.7
  0
LWPOLYLINE
  5
241
100
AcDbEntity
  8
ASSEMBLY_OUTLINES_TOP
100
AcDbPolyline
 90
        4
 70
         1
 43
0.1
 10
-15.4
 20
40.7
 10
-15.4
 20
44.0
 10
-13.6
 20
44.0
 10
-13.6
 20
40.7
  0
LWPOLYLINE
  5
242
100
AcDbEntity
  8
ASSEMBLY_OUTLINES_TOP
100
AcDbPolyline
 90
        4
 70
         1
 43
0.1
 10
-10.6
 20
33.55
 10
-10.6
 20
36.55
 10
-9.2
 20
36.55
 10
-9.2
 20
33.55
  0
LWPOLYLINE
  5
243
100
AcDbEntity
  8
ASSEMBLY_OUTLINES_TOP
100
AcDbPolyline
 90
        2
 70
         0
 43
0.1
 10
-10.6
 20
36.45
 10
-10.5
 20
36.55
  0
LWPOLYLINE
  5
244
100
AcDbEntity
  8
ASSEMBLY_OUTLINES_TOP
100
AcDbPolyline
 90
        2
 70
         0
 43
0.1
 10
-10.6
 20
36.35
 10
-10.4
 20
36.55
  0
LWPOLYLINE
  5
245
100
AcDbEntity
  8
ASSEMBLY_OUTLINES_TOP
100
AcDbPolyline
 90
        2
 70
         0
 43
0.1
 10
-10.6
 20
36.25
 10
-10.3
 20
36.55
  0
LWPOLYLINE
  5
246
100
AcDbEntity
  8
ASSEMBLY_OUTLINES_TOP
100
AcDbPolyline
 90
        2
 70
         0
 43
0.1
 10
-10.6
 20
36.15
 10
-10.2
 20
36.55
  0
LWPOLYLINE
  5
247
100
AcDbEntity
  8
ASSEMBLY_OUTLINES_TOP
100
AcDbPolyline
 90
        2
 70
         0
 43
0.1
 10
-10.6
 20
36.05
 10
-10.1
 20
36.55
  0
LWPOLYLINE
  5
248
100
AcDbEntity
  8
ASSEMBLY_OUTLINES_TOP
100
AcDbPolyline
 90
        2
 70
         0
 43
0.1
 10
-10.6
 20
35.95
 10
-10.0
 20
36.55
  0
LWPOLYLINE
  5
249
100
AcDbEntity
  8
ASSEMBLY_OUTLINES_TOP
100
AcDbPolyline
 90
        4
 70
         1
 43
0.1
 10
-16.95
 20
28.5
 10
-16.95
 20
31.4
 10
-15.65
 20
31.4
 10
-15.65
 20
28.5
  0
LWPOLYLINE
  5
24A
100
AcDbEntity
  8
ASSEMBLY_OUTLINES_TOP
100
AcDbPolyline
 90
        4
 70
         1
 43
0.1
 10
-15.45
 20
59.35
 10
-15.45
 20
62.15
 10
-14.15
 20
62.15
 10
-14.15
 20
59.35
  0
LWPOLYLINE
  5
24B
100
AcDbEntity
  8
ASSEMBLY_OUTLINES_TOP
100
AcDbPolyline
 90
        4
 70
         1
 43
0.1
 10
-10.6
 20
36.85
 10
-10.6
 20
39.85
 10
-9.2
 20
39.85
 10
-9.2
 20
36.85
  0
LWPOLYLINE
  5
24C
100
AcDbEntity
  8
ASSEMBLY_OUTLINES_TOP
100
AcDbPolyline
 90
        2
 70
         0
 43
0.1
 10
-10.6
 20
39.75
 10
-10.5
 20
39.85
  0
LWPOLYLINE
  5
24D
100
AcDbEntity
  8
ASSEMBLY_OUTLINES_TOP
100
AcDbPolyline
 90
        2
 70
         0
 43
0.1
 10
-10.6
 20
39.65
 10
-10.4
 20
39.85
  0
LWPOLYLINE
  5
24E
100
AcDbEntity
  8
ASSEMBLY_OUTLINES_TOP
100
AcDbPolyline
 90
        2
 70
         0
 43
0.1
 10
-10.6
 20
39.55
 10
-10.3
 20
39.85
  0
LWPOLYLINE
  5
24F
100
AcDbEntity
  8
ASSEMBLY_OUTLINES_TOP
100
AcDbPolyline
 90
        2
 70
         0
 43
0.1
 10
-10.6
 20
39.45
 10
-10.2
 20
39.85
  0
LWPOLYLINE
  5
250
100
AcDbEntity
  8
ASSEMBLY_OUTLINES_TOP
100
AcDbPolyline
 90
        2
 70
         0
 43
0.1
 10
-10.6
 20
39.35
 10
-10.1
 20
39.85
  0
LWPOLYLINE
  5
251
100
AcDbEntity
  8
ASSEMBLY_OUTLINES_TOP
100
AcDbPolyline
 90
        2
 70
         0
 43
0.1
 10
-10.6
 20
39.25
 10
-10.0
 20
39.85
  0
LWPOLYLINE
  5
252
100
AcDbEntity
  8
ASSEMBLY_OUTLINES_TOP
100
AcDbPolyline
 90
        4
 70
         1
 43
0.1
 10
-14.85
 20
31.5
 10
-14.85
 20
32.8
 10
-11.95
 20
32.8
 10
-11.95
 20
31.5
  0
LWPOLYLINE
  5
253
100
AcDbEntity
  8
ASSEMBLY_OUTLINES_TOP
100
AcDbPolyline
 90
        4
 70
         1
 43
0.1
 10
-7.85
 20
35.15
 10
-7.85
 20
37.95
 10
-6.55
 20
37.95
 10
-6.55
 20
35.15
  0
LWPOLYLINE
  5
254
100
AcDbEntity
  8
ASSEMBLY_OUTLINES_TOP
100
AcDbPolyline
 90
        4
 70
         1
 43
0.1
 10
-10.9
 20
40.15
 10
-10.9
 20
43.15
 10
-9.5
 20
43.15
 10
-9.5
 20
40.15
  0
LWPOLYLINE
  5
255
100
AcDbEntity
  8
ASSEMBLY_OUTLINES_TOP
100
AcDbPolyline
 90
        2
 70
         0
 43
0.1
 10
-10.9
 20
43.05
 10
-10.8
 20
43.15
  0
LWPOLYLINE
  5
256
100
AcDbEntity
  8
ASSEMBLY_OUTLINES_TOP
100
AcDbPolyline
 90
        2
 70
         0
 43
0.1
 10
-10.9
 20
42.95
 10
-10.7
 20
43.15
  0
LWPOLYLINE
  5
257
100
AcDbEntity
  8
ASSEMBLY_OUTLINES_TOP
100
AcDbPolyline
 90
        2
 70
         0
 43
0.1
 10
-10.9
 20
42.85
 10
-10.6
 20
43.15
  0
LWPOLYLINE
  5
258
100
AcDbEntity
  8
ASSEMBLY_OUTLINES_TOP
100
AcDbPolyline
 90
        2
 70
         0
 43
0.1
 10
-10.9
 20
42.75
 10
-10.5
 20
43.15
  0
LWPOLYLINE
  5
259
100
AcDbEntity
  8
ASSEMBLY_OUTLINES_TOP
100
AcDbPolyline
 90
        2
 70
         0
 43
0.1
 10
-10.9
 20
42.65
 10
-10.4
 20
43.15
  0
LWPOLYLINE
  5
25A
100
AcDbEntity
  8
ASSEMBLY_OUTLINES_TOP
100
AcDbPolyline
 90
        2
 70
         0
 43
0.1
 10
-10.9
 20
42.55
 10
-10.3
 20
43.15
  0
LWPOLYLINE
  5
25B
100
AcDbEntity
  8
ASSEMBLY_OUTLINES_TOP
100
AcDbPolyline
 90
        4
 70
         1
 43
0.1
 10
-15.55
 20
44.3
 10
-15.55
 20
47.2
 10
-14.25
 20
47.2
 10
-14.25
 20
44.3
  0
LWPOLYLINE
  5
25C
100
AcDbEntity
  8
ASSEMBLY_OUTLINES_TOP
100
AcDbPolyline
 90
        4
 70
         1
 43
0.1
 10
-3.4
 20
42.45
 10
-3.4
 20
45.45
 10
-2.0
 20
45.45
 10
-2.0
 20
42.45
  0
LWPOLYLINE
  5
25D
100
AcDbEntity
  8
ASSEMBLY_OUTLINES_TOP
100
AcDbPolyline
 90
        2
 70
         0
 43
0.1
 10
-3.4
 20
45.35
 10
-3.3
 20
45.45
  0
LWPOLYLINE
  5
25E
100
AcDbEntity
  8
ASSEMBLY_OUTLINES_TOP
100
AcDbPolyline
 90
        2
 70
         0
 43
0.1
 10
-3.4
 20
45.25
 10
-3.2
 20
45.45
  0
LWPOLYLINE
  5
25F
100
AcDbEntity
  8
ASSEMBLY_OUTLINES_TOP
100
AcDbPolyline
 90
        2
 70
         0
 43
0.1
 10
-3.4
 20
45.15
 10
-3.1
 20
45.45
  0
LWPOLYLINE
  5
260
100
AcDbEntity
  8
ASSEMBLY_OUTLINES_TOP
100
AcDbPolyline
 90
        2
 70
         0
 43
0.1
 10
-3.4
 20
45.05
 10
-3.0
 20
45.45
  0
LWPOLYLINE
  5
261
100
AcDbEntity
  8
ASSEMBLY_OUTLINES_TOP
100
AcDbPolyline
 90
        2
 70
         0
 43
0.1
 10
-3.4
 20
44.95
 10
-2.9
 20
45.45
  0
LWPOLYLINE
  5
262
100
AcDbEntity
  8
ASSEMBLY_OUTLINES_TOP
100
AcDbPolyline
 90
        2
 70
         0
 43
0.1
 10
-3.4
 20
44.85
 10
-2.8
 20
45.45
  0
LWPOLYLINE
  5
263
100
AcDbEntity
  8
ASSEMBLY_OUTLINES_TOP
100
AcDbPolyline
 90
        4
 70
         1
 43
0.1
 10
-13.15
 20
25.4
 10
-13.15
 20
28.3
 10
-11.85
 20
28.3
 10
-11.85
 20
25.4
  0
TEXT
  5
265
100
AcDbEntity
  8
ASSEMBLY_REF_DES_TOP
100
AcDbText
 10
-12.79545
 20
30.5525
 30
0.0
 40
0.7
  1
R56
 50
270.0
  7
GOST_TYPE_B
 72
         1
 11
-12.45
 21
29.8
 31
0.0
100
AcDbText
 73
         2
  0
TEXT
  5
266
100
AcDbEntity
  8
ASSEMBLY_REF_DES_TOP
100
AcDbText
 10
-12.99545
 20
42.5525
 30
0.0
 40
0.7
  1
R57
 50
270.0
  7
GOST_TYPE_B
 72
         1
 11
-12.65
 21
41.8
 31
0.0
100
AcDbText
 73
         2
  0
TEXT
  5
267
100
AcDbEntity
  8
ASSEMBLY_REF_DES_TOP
100
AcDbText
 10
-7.59545
 20
40.7525
 30
0.0
 40
0.7
  1
R60
 50
270.0
  7
GOST_TYPE_B
 72
         1
 11
-7.25
 21
40.0
 31
0.0
100
AcDbText
 73
         2
  0
TEXT
  5
268
100
AcDbEntity
  8
ASSEMBLY_REF_DES_TOP
100
AcDbText
 10
-13.2361
 20
61.25455
 30
0.0
 40
0.7
  1
R58
  7
GOST_TYPE_B
 72
         1
 11
-12.45
 21
61.6
 31
0.0
100
AcDbText
 73
         2
  0
TEXT
  5
269
100
AcDbEntity
  8
ASSEMBLY_REF_DES_TOP
100
AcDbText
 10
-6.73355
 20
43.65455
 30
0.0
 40
0.7
  1
R61
  7
GOST_TYPE_B
 72
         1
 11
-6.05
 21
44.0
 31
0.0
100
AcDbText
 73
         2
  0
TEXT
  5
26A
100
AcDbEntity
  8
ASSEMBLY_REF_DES_TOP
100
AcDbText
 10
-10.20215
 20
61.25455
 30
0.0
 40
0.7
  1
R59
  7
GOST_TYPE_B
 72
         1
 11
-9.45
 21
61.6
 31
0.0
100
AcDbText
 73
         2
  0
TEXT
  5
26B
100
AcDbEntity
  8
ASSEMBLY_REF_DES_TOP
100
AcDbText
 10
-6.30215
 20
59.30455
 30
0.0
 40
0.7
  1
R62
  7
GOST_TYPE_B
 72
         1
 11
-5.55
 21
59.65
 31
0.0
100
AcDbText
 73
         2
  0
TEXT
  5
26C
100
AcDbEntity
  8
ASSEMBLY_REF_DES_TOP
100
AcDbText
 10
-4.70215
 20
34.85455
 30
0.0
 40
0.7
  1
R63
  7
GOST_TYPE_B
 72
         1
 11
-3.95
 21
35.2
 31
0.0
100
AcDbText
 73
         2
  0
TEXT
  5
26D
100
AcDbEntity
  8
ASSEMBLY_REF_DES_TOP
100
AcDbText
 10
-3.2361
 20
59.30455
 30
0.0
 40
0.7
  1
R64
  7
GOST_TYPE_B
 72
         1
 11
-2.45
 21
59.65
 31
0.0
100
AcDbText
 73
         2
  0
TEXT
  5
26E
100
AcDbEntity
  8
ASSEMBLY_REF_DES_TOP
100
AcDbText
 10
-37.4922
 20
65.6394
 30
0.0
 40
1.2
  1
DA1
 50
270.0
  7
GOST_TYPE_B
 72
         1
 11
-36.9
 21
64.35
 31
0.0
100
AcDbText
 73
         2
  0
TEXT
  5
26F
100
AcDbEntity
  8
ASSEMBLY_REF_DES_TOP
100
AcDbText
 10
-25.44675
 20
20.63625
 30
0.0
 40
0.5
  1
DA2
 50
270.0
  7
GOST_TYPE_B
 72
         1
 11
-25.2
 21
20.05
 31
0.0
100
AcDbText
 73
         2
  0
TEXT
  5
270
100
AcDbEntity
  8
ASSEMBLY_REF_DES_TOP
100
AcDbText
 10
-24.0922
 20
66.957
 30
0.0
 40
1.2
  1
DA3
 50
270.0
  7
GOST_TYPE_B
 72
         1
 11
-23.5
 21
65.55
 31
0.0
100
AcDbText
 73
         2
  0
TEXT
  5
271
100
AcDbEntity
  8
ASSEMBLY_REF_DES_TOP
100
AcDbText
 10
-18.218966
 20
37.738784
 30
0.0
 40
0.85
  1
DA4
 50
270.0
  7
GOST_TYPE_B
 72
         1
 11
-17.799491
 21
36.700509
 31
0.0
100
AcDbText
 73
         2
  0
TEXT
  5
272
100
AcDbEntity
  8
ASSEMBLY_REF_DES_TOP
100
AcDbText
 10
-7.24675
 20
32.03625
 30
0.0
 40
0.5
  1
DA5
 50
270.0
  7
GOST_TYPE_B
 72
         1
 11
-7.0
 21
31.45
 31
0.0
100
AcDbText
 73
         2
  0
TEXT
  5
273
100
AcDbEntity
  8
ASSEMBLY_REF_DES_TOP
100
AcDbText
 10
-36.976226
 20
56.508724
 30
0.0
 40
1.0
  1
DD1
 50
270.0
  7
GOST_TYPE_B
 72
         1
 11
-36.482726
 21
55.482724
 31
0.0
100
AcDbText
 73
         2
  0
TEXT
  5
274
100
AcDbEntity
  8
ASSEMBLY_REF_DES_TOP
100
AcDbText
 10
-32.69025
 20
40.336
 30
0.0
 40
1.5
  1
DD2
 50
270.0
  7
GOST_TYPE_B
 72
         1
 11
-31.95
 21
38.65
 31
0.0
100
AcDbText
 73
         2
  0
TEXT
  5
275
100
AcDbEntity
  8
ASSEMBLY_REF_DES_TOP
100
AcDbText
 10
-27.649375
 20
26.249325
 30
0.0
 40
1.0
  1
DD3
  7
GOST_TYPE_B
 72
         1
 11
-26.526375
 21
26.742825
 31
0.0
100
AcDbText
 73
         2
  0
TEXT
  5
276
100
AcDbEntity
  8
ASSEMBLY_REF_DES_TOP
100
AcDbText
 10
-23.3015
 20
53.5265
 30
0.0
 40
1.0
  1
DD4
  7
GOST_TYPE_B
 72
         1
 11
-22.13
 21
54.02
 31
0.0
100
AcDbText
 73
         2
  0
TEXT
  5
277
100
AcDbEntity
  8
ASSEMBLY_REF_DES_TOP
100
AcDbText
 10
-43.269475
 20
43.813325
 30
0.0
 40
0.85
  1
VD1
 50
270.0
  7
GOST_TYPE_B
 72
         1
 11
-42.85
 21
42.9
 31
0.0
100
AcDbText
 73
         2
  0
TEXT
  5
278
100
AcDbEntity
  8
ASSEMBLY_REF_DES_TOP
100
AcDbText
 10
-15.6204
 20
26.70455
 30
0.0
 40
0.7
  1
VD2
  7
GOST_TYPE_B
 72
         1
 11
-14.8
 21
27.05
 31
0.0
100
AcDbText
 73
         2
  0
TEXT
  5
27A
100
AcDbEntity
  8
ASSEMBLY_REF_DES_TOP
100
AcDbText
 10
-10.45
 20
31.27625
 30
0.0
 40
1.5
  1
VD3
 50
270.0
  7
VERIBEST_GERBER_0
 72
         1
 11
-9.7
 21
29.15
 31
0.0
100
AcDbText
 73
         2
  0
TEXT
  5
27B
100
AcDbEntity
  8
ASSEMBLY_REF_DES_TOP
100
AcDbText
 10
-7.14675
 20
28.66075
 30
0.0
 40
0.5
  1
VD4
 50
270.0
  7
GOST_TYPE_B
 72
         1
 11
-6.9
 21
28.05
 31
0.0
100
AcDbText
 73
         2
  0
TEXT
  5
27C
100
AcDbEntity
  8
ASSEMBLY_REF_DES_TOP
100
AcDbText
 10
-44.019475
 20
30.4481
 30
0.0
 40
0.85
  1
C1
 50
270.0
  7
GOST_TYPE_B
 72
         1
 11
-43.6
 21
29.95
 31
0.0
100
AcDbText
 73
         2
  0
TEXT
  5
27D
100
AcDbEntity
  8
ASSEMBLY_REF_DES_TOP
100
AcDbText
 10
-44.0435
 20
26.337
 30
0.0
 40
1.0
  1
J1
 50
270.0
  7
GOST_TYPE_B
 72
         1
 11
-43.55
 21
25.8
 31
0.0
100
AcDbText
 73
         2
  0
TEXT
  5
27E
100
AcDbEntity
  8
ASSEMBLY_REF_DES_TOP
100
AcDbText
 10
-34.486
 20
66.5565
 30
0.0
 40
1.0
  1
L1
  7
GOST_TYPE_B
 72
         1
 11
-33.9
 21
67.05
 31
0.0
100
AcDbText
 73
         2
  0
TEXT
  5
27F
100
AcDbEntity
  8
ASSEMBLY_REF_DES_TOP
100
AcDbText
 10
-44.319475
 20
40.28975
 30
0.0
 40
0.85
  1
R1
 50
270.0
  7
GOST_TYPE_B
 72
         1
 11
-43.9
 21
39.75
 31
0.0
100
AcDbText
 73
         2
  0
TEXT
  5
280
100
AcDbEntity
  8
ASSEMBLY_REF_DES_TOP
100
AcDbText
 10
-13.6935
 20
17.485
 30
0.0
 40
1.0
  1
T1
 50
270.0
  7
GOST_TYPE_B
 72
         1
 11
-13.2
 21
16.85
 31
0.0
100
AcDbText
 73
         2
  0
TEXT
  5
281
100
AcDbEntity
  8
ASSEMBLY_REF_DES_TOP
100
AcDbText
 10
-37.9435
 20
16.3335
 30
0.0
 40
1.0
  1
X1
 50
270.0
  7
GOST_TYPE_B
 72
         1
 11
-37.45
 21
15.65
 31
0.0
100
AcDbText
 73
         2
  0
TEXT
  5
282
100
AcDbEntity
  8
ASSEMBLY_REF_DES_TOP
100
AcDbText
 10
-44.34545
 20
52.5288
 30
0.0
 40
0.7
  1
C2
 50
270.0
  7
GOST_TYPE_B
 72
         1
 11
-44.0
 21
52.05
 31
0.0
100
AcDbText
 73
         2
  0
TEXT
  5
283
100
AcDbEntity
  8
ASSEMBLY_REF_DES_TOP
100
AcDbText
 10
-27.784
 20
65.2565
 30
0.0
 40
1.0
  1
L2
  7
GOST_TYPE_B
 72
         1
 11
-27.1
 21
65.75
 31
0.0
100
AcDbText
 73
         2
  0
TEXT
  5
284
100
AcDbEntity
  8
ASSEMBLY_REF_DES_TOP
100
AcDbText
 10
-44.319475
 20
46.57305
 30
0.0
 40
0.85
  1
R2
 50
270.0
  7
GOST_TYPE_B
 72
         1
 11
-43.9
 21
45.95
 31
0.0
100
AcDbText
 73
         2
  0
TEXT
  5
285
100
AcDbEntity
  8
ASSEMBLY_REF_DES_TOP
100
AcDbText
 10
-23.8315
 20
3.5065
 30
0.0
 40
1.0
  1
X2
  7
GOST_TYPE_B
 72
         1
 11
-23.05
 21
4.0
 31
0.0
100
AcDbText
 73
         2
  0
TEXT
  5
286
100
AcDbEntity
  8
ASSEMBLY_REF_DES_TOP
100
AcDbText
 10
-44.419475
 20
55.5314
 30
0.0
 40
0.85
  1
C3
 50
270.0
  7
GOST_TYPE_B
 72
         1
 11
-44.0
 21
54.95
 31
0.0
100
AcDbText
 73
         2
  0
TEXT
  5
287
100
AcDbEntity
  8
ASSEMBLY_REF_DES_TOP
100
AcDbText
 10
-17.131909
 20
39.681034
 30
0.0
 40
0.85
  1
L3
  7
GOST_TYPE_B
 72
         1
 11
-16.550509
 21
40.100509
 31
0.0
100
AcDbText
 73
         2
  0
TEXT
  5
288
100
AcDbEntity
  8
ASSEMBLY_REF_DES_TOP
100
AcDbText
 10
-44.319475
 20
49.47305
 30
0.0
 40
0.85
  1
R3
 50
270.0
  7
GOST_TYPE_B
 72
         1
 11
-43.9
 21
48.85
 31
0.0
100
AcDbText
 73
         2
  0
TEXT
  5
289
100
AcDbEntity
  8
ASSEMBLY_REF_DES_TOP
100
AcDbText
 10
-27.7315
 20
71.6065
 30
0.0
 40
1.0
  1
X3
  7
GOST_TYPE_B
 72
         1
 11
-26.95
 21
72.1
 31
0.0
100
AcDbText
 73
         2
  0
TEXT
  5
28A
100
AcDbEntity
  8
ASSEMBLY_REF_DES_TOP
100
AcDbText
 10
-44.34545
 20
58.3631
 30
0.0
 40
0.7
  1
C4
 50
270.0
  7
GOST_TYPE_B
 72
         1
 11
-44.0
 21
57.85
 31
0.0
100
AcDbText
 73
         2
  0
TEXT
  5
28B
100
AcDbEntity
  8
ASSEMBLY_REF_DES_TOP
100
AcDbText
 10
-41.89545
 20
25.6974
 30
0.0
 40
0.7
  1
R4
 50
270.0
  7
GOST_TYPE_B
 72
         1
 11
-41.55
 21
25.15
 31
0.0
100
AcDbText
 73
         2
  0
TEXT
  5
28C
100
AcDbEntity
  8
ASSEMBLY_REF_DES_TOP
100
AcDbText
 10
-11.1
 20
52.295
 30
0.0
 40
1.0
  1
X4
 50
270.0
  7
VERIBEST_GERBER_0
 72
         1
 11
-10.6
 21
51.35
 31
0.0
100
AcDbText
 73
         2
  0
TEXT
  5
28D
100
AcDbEntity
  8
ASSEMBLY_REF_DES_TOP
100
AcDbText
 10
-43.0814
 20
31.680525
 30
0.0
 40
0.85
  1
C5
  7
GOST_TYPE_B
 72
         1
 11
-42.5
 21
32.1
 31
0.0
100
AcDbText
 73
         2
  0
TEXT
  5
28E
100
AcDbEntity
  8
ASSEMBLY_REF_DES_TOP
100
AcDbText
 10
-42.96625
 20
33.20325
 30
0.0
 40
0.5
  1
R5
  7
GOST_TYPE_B
 72
         1
 11
-42.6
 21
33.45
 31
0.0
100
AcDbText
 73
         2
  0
TEXT
  5
28F
100
AcDbEntity
  8
ASSEMBLY_REF_DES_TOP
100
AcDbText
 10
-8.1
 20
64.513
 30
0.0
 40
1.0
  1
X5
  7
GOST_TYPE_B
 11
-8.1
 21
65.5
 31
0.0
100
AcDbText
 73
         3
  0
TEXT
  5
290
100
AcDbEntity
  8
ASSEMBLY_REF_DES_TOP
100
AcDbText
 10
-43.3814
 20
34.330525
 30
0.0
 40
0.85
  1
C6
  7
GOST_TYPE_B
 72
         1
 11
-42.8
 21
34.75
 31
0.0
100
AcDbText
 73
         2
  0
TEXT
  5
291
100
AcDbEntity
  8
ASSEMBLY_REF_DES_TOP
100
AcDbText
 10
-42.76275
 20
62.35455
 30
0.0
 40
0.7
  1
R6
  7
GOST_TYPE_B
 72
         1
 11
-42.25
 21
62.7
 31
0.0
100
AcDbText
 73
         2
  0
TEXT
  5
293
100
AcDbEntity
  8
ASSEMBLY_REF_DES_TOP
100
AcDbText
 10
-3.085473
 20
32.440221
 30
0.0
 40
0.7
  1
X6
 50
270.0
  7
GOST_D
 72
         1
 11
-2.743523
 21
31.893521
 31
0.0
100
AcDbText
 73
         2
  0
TEXT
  5
294
100
AcDbEntity
  8
ASSEMBLY_REF_DES_TOP
100
AcDbText
 10
-42.94545
 20
49.4996
 30
0.0
 40
0.7
  1
C10
 50
270.0
  7
GOST_TYPE_B
 72
         1
 11
-42.6
 21
48.85
 31
0.0
100
AcDbText
 73
         2
  0
TEXT
  5
295
100
AcDbEntity
  8
ASSEMBLY_REF_DES_TOP
100
AcDbText
 10
-43.3814
 20
35.630525
 30
0.0
 40
0.85
  1
C7
  7
GOST_TYPE_B
 72
         1
 11
-42.8
 21
36.05
 31
0.0
100
AcDbText
 73
         2
  0
TEXT
  5
296
100
AcDbEntity
  8
ASSEMBLY_REF_DES_TOP
100
AcDbText
 10
-41.581
 20
59.50455
 30
0.0
 40
0.7
  1
C11
  7
GOST_TYPE_B
 72
         1
 11
-41.0
 21
59.85
 31
0.0
100
AcDbText
 73
         2
  0
TEXT
  5
297
100
AcDbEntity
  8
ASSEMBLY_REF_DES_TOP
100
AcDbText
 10
-41.6496
 20
60.90455
 30
0.0
 40
0.7
  1
C12
  7
GOST_TYPE_B
 72
         1
 11
-41.0
 21
61.25
 31
0.0
100
AcDbText
 73
         2
  0
TEXT
  5
298
100
AcDbEntity
  8
ASSEMBLY_REF_DES_TOP
100
AcDbText
 10
-40.64545
 20
34.0996
 30
0.0
 40
0.7
  1
C13
 50
270.0
  7
GOST_TYPE_B
 72
         1
 11
-40.3
 21
33.45
 31
0.0
100
AcDbText
 73
         2
  0
TEXT
  5
299
100
AcDbEntity
  8
ASSEMBLY_REF_DES_TOP
100
AcDbText
 10
-38.13355
 20
60.85455
 30
0.0
 40
0.7
  1
R10
  7
GOST_TYPE_B
 72
         1
 11
-37.45
 21
61.2
 31
0.0
100
AcDbText
 73
         2
  0
TEXT
  5
29A
100
AcDbEntity
  8
ASSEMBLY_REF_DES_TOP
100
AcDbText
 10
-40.19545
 20
25.8131
 30
0.0
 40
0.7
  1
R7
 50
270.0
  7
GOST_TYPE_B
 72
         1
 11
-39.85
 21
25.3
 31
0.0
100
AcDbText
 73
         2
  0
TEXT
  5
29B
100
AcDbEntity
  8
ASSEMBLY_REF_DES_TOP
100
AcDbText
 10
-40.44545
 20
37.1339
 30
0.0
 40
0.7
  1
C14
 50
270.0
  7
GOST_TYPE_B
 72
         1
 11
-40.1
 21
36.45
 31
0.0
100
AcDbText
 73
         2
  0
TEXT
  5
29C
100
AcDbEntity
  8
ASSEMBLY_REF_DES_TOP
100
AcDbText
 10
-38.16495
 20
66.85455
 30
0.0
 40
0.7
  1
R11
  7
GOST_TYPE_B
 72
         1
 11
-37.55
 21
67.2
 31
0.0
100
AcDbText
 73
         2
  0
TEXT
  5
29D
100
AcDbEntity
  8
ASSEMBLY_REF_DES_TOP
100
AcDbText
 10
-39.64545
 20
40.4996
 30
0.0
 40
0.7
  1
C15
 50
270.0
  7
GOST_TYPE_B
 72
         1
 11
-39.3
 21
39.85
 31
0.0
100
AcDbText
 73
         2
  0
TEXT
  5
29E
100
AcDbEntity
  8
ASSEMBLY_REF_DES_TOP
100
AcDbText
 10
-7.2935
 20
39.9315
 30
0.0
 40
1.0
  1
X7
 50
270.0
  7
GOST_TYPE_B
 72
         1
 11
-6.8
 21
39.15
 31
0.0
100
AcDbText
 73
         2
  0
TEXT
  5
29F
100
AcDbEntity
  8
ASSEMBLY_REF_DES_TOP
100
AcDbText
 10
-37.19545
 20
25.3839
 30
0.0
 40
0.7
  1
R12
 50
270.0
  7
GOST_TYPE_B
 72
         1
 11
-36.85
 21
24.7
 31
0.0
100
AcDbText
 73
         2
  0
TEXT
  5
2A0
100
AcDbEntity
  8
ASSEMBLY_REF_DES_TOP
100
AcDbText
 10
-41.24545
 20
40.6996
 30
0.0
 40
0.7
  1
C16
 50
270.0
  7
GOST_TYPE_B
 72
         1
 11
-40.9
 21
40.05
 31
0.0
100
AcDbText
 73
         2
  0
TEXT
  5
2A1
100
AcDbEntity
  8
ASSEMBLY_REF_DES_TOP
100
AcDbText
 10
-35.49545
 20
25.4839
 30
0.0
 40
0.7
  1
R13
 50
270.0
  7
GOST_TYPE_B
 72
         1
 11
-35.15
 21
24.8
 31
0.0
100
AcDbText
 73
         2
  0
TEXT
  5
2A2
100
AcDbEntity
  8
ASSEMBLY_REF_DES_TOP
100
AcDbText
 10
-40.1496
 20
50.20455
 30
0.0
 40
0.7
  1
C17
  7
GOST_TYPE_B
 72
         1
 11
-39.5
 21
50.55
 31
0.0
100
AcDbText
 73
         2
  0
TEXT
  5
2A3
100
AcDbEntity
  8
ASSEMBLY_REF_DES_TOP
100
AcDbText
 10
-34.29545
 20
48.8182
 30
0.0
 40
0.7
  1
R14
 50
270.0
  7
GOST_TYPE_B
 72
         1
 11
-33.95
 21
48.1
 31
0.0
100
AcDbText
 73
         2
  0
TEXT
  5
2A4
100
AcDbEntity
  8
ASSEMBLY_REF_DES_TOP
100
AcDbText
 10
-39.94545
 20
65.0339
 30
0.0
 40
0.7
  1
C18
 50
270.0
  7
GOST_TYPE_B
 72
         1
 11
-39.6
 21
64.35
 31
0.0
100
AcDbText
 73
         2
  0
TEXT
  5
2A5
100
AcDbEntity
  8
ASSEMBLY_REF_DES_TOP
100
AcDbText
 10
-39.14545
 20
34.1682
 30
0.0
 40
0.7
  1
C20
 50
270.0
  7
GOST_TYPE_B
 72
         1
 11
-38.8
 21
33.45
 31
0.0
100
AcDbText
 73
         2
  0
TEXT
  5
2A6
100
AcDbEntity
  8
ASSEMBLY_REF_DES_TOP
100
AcDbText
 10
-42.84545
 20
40.2631
 30
0.0
 40
0.7
  1
C8
 50
270.0
  7
GOST_TYPE_B
 72
         1
 11
-42.5
 21
39.75
 31
0.0
100
AcDbText
 73
         2
  0
TEXT
  5
2A7
100
AcDbEntity
  8
ASSEMBLY_REF_DES_TOP
100
AcDbText
 10
-35.13355
 20
60.95455
 30
0.0
 40
0.7
  1
R15
  7
GOST_TYPE_B
 72
         1
 11
-34.45
 21
61.3
 31
0.0
100
AcDbText
 73
         2
  0
TEXT
  5
2A8
100
AcDbEntity
  8
ASSEMBLY_REF_DES_TOP
100
AcDbText
 10
-38.769475
 20
26.0388
 30
0.0
 40
0.85
  1
C19
 50
270.0
  7
GOST_TYPE_B
 72
         1
 11
-38.35
 21
25.25
 31
0.0
100
AcDbText
 73
         2
  0
TEXT
  5
2A9
100
AcDbEntity
  8
ASSEMBLY_REF_DES_TOP
100
AcDbText
 10
-39.04545
 20
37.2996
 30
0.0
 40
0.7
  1
C21
 50
270.0
  7
GOST_TYPE_B
 72
         1
 11
-38.7
 21
36.65
 31
0.0
100
AcDbText
 73
         2
  0
TEXT
  5
2AA
100
AcDbEntity
  8
ASSEMBLY_REF_DES_TOP
100
AcDbText
 10
-33.53355
 20
23.15455
 30
0.0
 40
0.7
  1
R16
  7
GOST_TYPE_B
 72
         1
 11
-32.85
 21
23.5
 31
0.0
100
AcDbText
 73
         2
  0
TEXT
  5
2AB
100
AcDbEntity
  8
ASSEMBLY_REF_DES_TOP
100
AcDbText
 10
-38.4182
 20
59.50455
 30
0.0
 40
0.7
  1
C22
  7
GOST_TYPE_B
 72
         1
 11
-37.7
 21
59.85
 31
0.0
100
AcDbText
 73
         2
  0
TEXT
  5
2AC
100
AcDbEntity
  8
ASSEMBLY_REF_DES_TOP
100
AcDbText
 10
-31.93355
 20
26.75455
 30
0.0
 40
0.7
  1
R17
  7
GOST_TYPE_B
 72
         1
 11
-31.25
 21
27.1
 31
0.0
100
AcDbText
 73
         2
  0
TEXT
  5
2AD
100
AcDbEntity
  8
ASSEMBLY_REF_DES_TOP
100
AcDbText
 10
-36.8182
 20
28.70455
 30
0.0
 40
0.7
  1
C23
  7
GOST_TYPE_B
 72
         1
 11
-36.1
 21
29.05
 31
0.0
100
AcDbText
 73
         2
  0
TEXT
  5
2AE
100
AcDbEntity
  8
ASSEMBLY_REF_DES_TOP
100
AcDbText
 10
-30.10215
 20
14.35455
 30
0.0
 40
0.7
  1
R20
  7
GOST_TYPE_B
 72
         1
 11
-29.35
 21
14.7
 31
0.0
100
AcDbText
 73
         2
  0
TEXT
  5
2AF
100
AcDbEntity
  8
ASSEMBLY_REF_DES_TOP
100
AcDbText
 10
-30.49545
 20
11.6182
 30
0.0
 40
0.7
  1
R18
 50
270.0
  7
GOST_TYPE_B
 72
         1
 11
-30.15
 21
10.9
 31
0.0
100
AcDbText
 73
         2
  0
TEXT
  5
2B0
100
AcDbEntity
  8
ASSEMBLY_REF_DES_TOP
100
AcDbText
 10
-40.2967
 20
27.20455
 30
0.0
 40
0.7
  1
R8
  7
GOST_TYPE_B
 72
         1
 11
-39.75
 21
27.55
 31
0.0
100
AcDbText
 73
         2
  0
TEXT
  5
2B1
100
AcDbEntity
  8
ASSEMBLY_REF_DES_TOP
100
AcDbText
 10
-36.85215
 20
30.10455
 30
0.0
 40
0.7
  1
C24
  7
GOST_TYPE_B
 72
         1
 11
-36.1
 21
30.45
 31
0.0
100
AcDbText
 73
         2
  0
TEXT
  5
2B2
100
AcDbEntity
  8
ASSEMBLY_REF_DES_TOP
100
AcDbText
 10
-43.5984
 20
37.0552
 30
0.0
 40
0.8
  1
ZQ1
  7
GOST_TYPE_B
 72
         1
 11
-42.7
 21
37.45
 31
0.0
100
AcDbText
 73
         2
  0
TEXT
  5
2B3
100
AcDbEntity
  8
ASSEMBLY_REF_DES_TOP
100
AcDbText
 10
-30.03355
 20
19.35455
 30
0.0
 40
0.7
  1
R21
  7
GOST_TYPE_B
 72
         1
 11
-29.35
 21
19.7
 31
0.0
100
AcDbText
 73
         2
  0
TEXT
  5
2B4
100
AcDbEntity
  8
ASSEMBLY_REF_DES_TOP
100
AcDbText
 10
-30.03355
 20
12.95455
 30
0.0
 40
0.7
  1
R19
  7
GOST_TYPE_B
 72
         1
 11
-29.35
 21
13.3
 31
0.0
100
AcDbText
 73
         2
  0
TEXT
  5
2B5
100
AcDbEntity
  8
ASSEMBLY_REF_DES_TOP
100
AcDbText
 10
-36.969475
 20
50.6721
 30
0.0
 40
0.85
  1
C25
 50
270.0
  7
GOST_TYPE_B
 72
         1
 11
-36.55
 21
49.8
 31
0.0
100
AcDbText
 73
         2
  0
TEXT
  5
2B6
100
AcDbEntity
  8
ASSEMBLY_REF_DES_TOP
100
AcDbText
 10
-41.367862
 20
31.081188
 30
0.0
 40
1.0
  1
ZQ2
 50
270.0
  7
GOST_TYPE_B
 72
         1
 11
-40.874362
 21
29.860188
 31
0.0
100
AcDbText
 73
         2
  0
TEXT
  5
2B7
100
AcDbEntity
  8
ASSEMBLY_REF_DES_TOP
100
AcDbText
 10
-30.10215
 20
20.75455
 30
0.0
 40
0.7
  1
R22
  7
GOST_TYPE_B
 72
         1
 11
-29.35
 21
21.1
 31
0.0
100
AcDbText
 73
         2
  0
TEXT
  5
2B8
100
AcDbEntity
  8
ASSEMBLY_REF_DES_TOP
100
AcDbText
 10
-34.419475
 20
30.5221
 30
0.0
 40
0.85
  1
C26
 50
270.0
  7
GOST_TYPE_B
 72
         1
 11
-34.0
 21
29.65
 31
0.0
100
AcDbText
 73
         2
  0
TEXT
  5
2B9
100
AcDbEntity
  8
ASSEMBLY_REF_DES_TOP
100
AcDbText
 10
-30.40215
 20
23.25455
 30
0.0
 40
0.7
  1
R23
  7
GOST_TYPE_B
 72
         1
 11
-29.65
 21
23.6
 31
0.0
100
AcDbText
 73
         2
  0
TEXT
  5
2BA
100
AcDbEntity
  8
ASSEMBLY_REF_DES_TOP
100
AcDbText
 10
-34.6182
 20
50.30455
 30
0.0
 40
0.7
  1
C27
  7
GOST_TYPE_B
 72
         1
 11
-33.9
 21
50.65
 31
0.0
100
AcDbText
 73
         2
  0
TEXT
  5
2BB
100
AcDbEntity
  8
ASSEMBLY_REF_DES_TOP
100
AcDbText
 10
-29.79545
 20
62.2868
 30
0.0
 40
0.7
  1
R24
 50
270.0
  7
GOST_TYPE_B
 72
         1
 11
-29.45
 21
61.5
 31
0.0
100
AcDbText
 73
         2
  0
TEXT
  5
2BC
100
AcDbEntity
  8
ASSEMBLY_REF_DES_TOP
100
AcDbText
 10
-35.25215
 20
59.50455
 30
0.0
 40
0.7
  1
C28
  7
GOST_TYPE_B
 72
         1
 11
-34.5
 21
59.85
 31
0.0
100
AcDbText
 73
         2
  0
TEXT
  5
2BD
100
AcDbEntity
  8
ASSEMBLY_REF_DES_TOP
100
AcDbText
 10
-43.019475
 20
46.5314
 30
0.0
 40
0.85
  1
C9
 50
270.0
  7
GOST_TYPE_B
 72
         1
 11
-42.6
 21
45.95
 31
0.0
100
AcDbText
 73
         2
  0
TEXT
  5
2BE
100
AcDbEntity
  8
ASSEMBLY_REF_DES_TOP
100
AcDbText
 10
-33.713
 20
64.80325
 30
0.0
 40
0.5
  1
C30
  7
GOST_TYPE_B
 72
         1
 11
-33.2
 21
65.05
 31
0.0
100
AcDbText
 73
         2
  0
TEXT
  5
2BF
100
AcDbEntity
  8
ASSEMBLY_REF_DES_TOP
100
AcDbText
 10
-31.09545
 20
65.1525
 30
0.0
 40
0.7
  1
R25
 50
270.0
  7
GOST_TYPE_B
 72
         1
 11
-30.75
 21
64.4
 31
0.0
100
AcDbText
 73
         2
  0
TEXT
  5
2C0
100
AcDbEntity
  8
ASSEMBLY_REF_DES_TOP
100
AcDbText
 10
-33.713
 20
62.90325
 30
0.0
 40
0.5
  1
C29
  7
GOST_TYPE_B
 72
         1
 11
-33.2
 21
63.15
 31
0.0
100
AcDbText
 73
         2
  0
TEXT
  5
2C1
100
AcDbEntity
  8
ASSEMBLY_REF_DES_TOP
100
AcDbText
 10
-33.04545
 20
29.7996
 30
0.0
 40
0.7
  1
C31
 50
270.0
  7
GOST_TYPE_B
 72
         1
 11
-32.7
 21
29.15
 31
0.0
100
AcDbText
 73
         2
  0
TEXT
  5
2C2
100
AcDbEntity
  8
ASSEMBLY_REF_DES_TOP
100
AcDbText
 10
-29.69545
 20
65.1525
 30
0.0
 40
0.7
  1
R26
 50
270.0
  7
GOST_TYPE_B
 72
         1
 11
-29.35
 21
64.4
 31
0.0
100
AcDbText
 73
         2
  0
TEXT
  5
2C3
100
AcDbEntity
  8
ASSEMBLY_REF_DES_TOP
100
AcDbText
 10
-31.64545
 20
30.0682
 30
0.0
 40
0.7
  1
C32
 50
270.0
  7
GOST_TYPE_B
 72
         1
 11
-31.3
 21
29.35
 31
0.0
100
AcDbText
 73
         2
  0
TEXT
  5
2C4
100
AcDbEntity
  8
ASSEMBLY_REF_DES_TOP
100
AcDbText
 10
-31.20215
 20
66.95455
 30
0.0
 40
0.7
  1
R27
  7
GOST_TYPE_B
 72
         1
 11
-30.45
 21
67.3
 31
0.0
100
AcDbText
 73
         2
  0
TEXT
  5
2C5
100
AcDbEntity
  8
ASSEMBLY_REF_DES_TOP
100
AcDbText
 10
-32.3182
 20
59.50455
 30
0.0
 40
0.7
  1
C33
  7
GOST_TYPE_B
 72
         1
 11
-31.6
 21
59.85
 31
0.0
100
AcDbText
 73
         2
  0
TEXT
  5
2C6
100
AcDbEntity
  8
ASSEMBLY_REF_DES_TOP
100
AcDbText
 10
-25.60215
 20
13.25455
 30
0.0
 40
0.7
  1
R30
  7
GOST_TYPE_B
 72
         1
 11
-24.85
 21
13.6
 31
0.0
100
AcDbText
 73
         2
  0
TEXT
  5
2C7
100
AcDbEntity
  8
ASSEMBLY_REF_DES_TOP
100
AcDbText
 10
-28.49545
 20
17.6868
 30
0.0
 40
0.7
  1
R28
 50
270.0
  7
GOST_TYPE_B
 72
         1
 11
-28.15
 21
16.9
 31
0.0
100
AcDbText
 73
         2
  0
TEXT
  5
2C8
100
AcDbEntity
  8
ASSEMBLY_REF_DES_TOP
100
AcDbText
 10
-38.669475
 20
30.77305
 30
0.0
 40
0.85
  1
R9
 50
270.0
  7
GOST_TYPE_B
 72
         1
 11
-38.25
 21
30.15
 31
0.0
100
AcDbText
 73
         2
  0
TEXT
  5
2C9
100
AcDbEntity
  8
ASSEMBLY_REF_DES_TOP
100
AcDbText
 10
-32.45215
 20
60.90455
 30
0.0
 40
0.7
  1
C34
  7
GOST_TYPE_B
 72
         1
 11
-31.7
 21
61.25
 31
0.0
100
AcDbText
 73
         2
  0
TEXT
  5
2CA
100
AcDbEntity
  8
ASSEMBLY_REF_DES_TOP
100
AcDbText
 10
-25.53355
 20
14.65455
 30
0.0
 40
0.7
  1
R31
  7
GOST_TYPE_B
 72
         1
 11
-24.85
 21
15.0
 31
0.0
100
AcDbText
 73
         2
  0
TEXT
  5
2CB
100
AcDbEntity
  8
ASSEMBLY_REF_DES_TOP
100
AcDbText
 10
-27.70215
 20
67.25455
 30
0.0
 40
0.7
  1
R29
  7
GOST_TYPE_B
 72
         1
 11
-26.95
 21
67.6
 31
0.0
100
AcDbText
 73
         2
  0
TEXT
  5
2CC
100
AcDbEntity
  8
ASSEMBLY_REF_DES_TOP
100
AcDbText
 10
-30.04675
 20
17.663
 30
0.0
 40
0.5
  1
C35
 50
270.0
  7
GOST_TYPE_B
 72
         1
 11
-29.8
 21
17.15
 31
0.0
100
AcDbText
 73
         2
  0
TEXT
  5
2CD
100
AcDbEntity
  8
ASSEMBLY_REF_DES_TOP
100
AcDbText
 10
-25.30215
 20
21.95455
 30
0.0
 40
0.7
  1
R32
  7
GOST_TYPE_B
 72
         1
 11
-24.55
 21
22.3
 31
0.0
100
AcDbText
 73
         2
  0
TEXT
  5
2CE
100
AcDbEntity
  8
ASSEMBLY_REF_DES_TOP
100
AcDbText
 10
-31.3182
 20
25.30455
 30
0.0
 40
0.7
  1
C36
  7
GOST_TYPE_B
 72
         1
 11
-30.6
 21
25.65
 31
0.0
100
AcDbText
 73
         2
  0
TEXT
  5
2CF
100
AcDbEntity
  8
ASSEMBLY_REF_DES_TOP
100
AcDbText
 10
-25.30215
 20
23.35455
 30
0.0
 40
0.7
  1
R33
  7
GOST_TYPE_B
 72
         1
 11
-24.55
 21
23.7
 31
0.0
100
AcDbText
 73
         2
  0
TEXT
  5
2D0
100
AcDbEntity
  8
ASSEMBLY_REF_DES_TOP
100
AcDbText
 10
-30.84545
 20
49.3682
 30
0.0
 40
0.7
  1
C37
 50
270.0
  7
GOST_TYPE_B
 72
         1
 11
-30.5
 21
48.65
 31
0.0
100
AcDbText
 73
         2
  0
TEXT
  5
2D1
100
AcDbEntity
  8
ASSEMBLY_REF_DES_TOP
100
AcDbText
 10
-25.5361
 20
46.35455
 30
0.0
 40
0.7
  1
R34
  7
GOST_TYPE_B
 72
         1
 11
-24.75
 21
46.7
 31
0.0
100
AcDbText
 73
         2
  0
TEXT
  5
2D2
100
AcDbEntity
  8
ASSEMBLY_REF_DES_TOP
100
AcDbText
 10
-29.04545
 20
58.1025
 30
0.0
 40
0.7
  1
C38
 50
270.0
  7
GOST_TYPE_B
 72
         1
 11
-28.7
 21
57.35
 31
0.0
100
AcDbText
 73
         2
  0
TEXT
  5
2D3
100
AcDbEntity
  8
ASSEMBLY_REF_DES_TOP
100
AcDbText
 10
-27.63725
 20
63.50325
 30
0.0
 40
0.5
  1
C40
  7
GOST_TYPE_B
 72
         1
 11
-27.1
 21
63.75
 31
0.0
100
AcDbText
 73
         2
  0
TEXT
  5
2D4
100
AcDbEntity
  8
ASSEMBLY_REF_DES_TOP
100
AcDbText
 10
-23.45215
 20
24.80455
 30
0.0
 40
0.7
  1
R35
  7
GOST_TYPE_B
 72
         1
 11
-22.7
 21
25.15
 31
0.0
100
AcDbText
 73
         2
  0
TEXT
  5
2D5
100
AcDbEntity
  8
ASSEMBLY_REF_DES_TOP
100
AcDbText
 10
-24.38355
 20
62.50455
 30
0.0
 40
0.7
  1
C41
  7
GOST_TYPE_B
 72
         1
 11
-23.7
 21
62.85
 31
0.0
100
AcDbText
 73
         2
  0
TEXT
  5
2D6
100
AcDbEntity
  8
ASSEMBLY_REF_DES_TOP
100
AcDbText
 10
-27.613
 20
61.60325
 30
0.0
 40
0.5
  1
C39
  7
GOST_TYPE_B
 72
         1
 11
-27.1
 21
61.85
 31
0.0
100
AcDbText
 73
         2
  0
TEXT
  5
2D7
100
AcDbEntity
  8
ASSEMBLY_REF_DES_TOP
100
AcDbText
 10
-21.79545
 20
28.3025
 30
0.0
 40
0.7
  1
R36
 50
270.0
  7
GOST_TYPE_B
 72
         1
 11
-21.45
 21
27.55
 31
0.0
100
AcDbText
 73
         2
  0
TEXT
  5
2D8
100
AcDbEntity
  8
ASSEMBLY_REF_DES_TOP
100
AcDbText
 10
-23.09675
 20
28.0375
 30
0.0
 40
0.5
  1
C42
 50
270.0
  7
GOST_TYPE_B
 72
         1
 11
-22.85
 21
27.5
 31
0.0
100
AcDbText
 73
         2
  0
TEXT
  5
2D9
100
AcDbEntity
  8
ASSEMBLY_REF_DES_TOP
100
AcDbText
 10
-20.69545
 20
31.2525
 30
0.0
 40
0.7
  1
R37
 50
270.0
  7
GOST_TYPE_B
 72
         1
 11
-20.35
 21
30.5
 31
0.0
100
AcDbText
 73
         2
  0
TEXT
  5
2DA
100
AcDbEntity
  8
ASSEMBLY_REF_DES_TOP
100
AcDbText
 10
-22.98725
 20
29.75325
 30
0.0
 40
0.5
  1
C43
  7
GOST_TYPE_B
 72
         1
 11
-22.45
 21
30.0
 31
0.0
100
AcDbText
 73
         2
  0
TEXT
  5
2DB
100
AcDbEntity
  8
ASSEMBLY_REF_DES_TOP
100
AcDbText
 10
-20.6361
 20
46.55455
 30
0.0
 40
0.7
  1
R40
  7
GOST_TYPE_B
 72
         1
 11
-19.85
 21
46.9
 31
0.0
100
AcDbText
 73
         2
  0
TEXT
  5
2DC
100
AcDbEntity
  8
ASSEMBLY_REF_DES_TOP
100
AcDbText
 10
-20.369475
 20
34.4554
 30
0.0
 40
0.85
  1
R38
 50
270.0
  7
GOST_TYPE_B
 72
         1
 11
-19.95
 21
33.5
 31
0.0
100
AcDbText
 73
         2
  0
TEXT
  5
2DD
100
AcDbEntity
  8
ASSEMBLY_REF_DES_TOP
100
AcDbText
 10
-21.94545
 20
35.5368
 30
0.0
 40
0.7
  1
C44
 50
270.0
  7
GOST_TYPE_B
 72
         1
 11
-21.6
 21
34.75
 31
0.0
100
AcDbText
 73
         2
  0
TEXT
  5
2DE
100
AcDbEntity
  8
ASSEMBLY_REF_DES_TOP
100
AcDbText
 10
-19.7675
 20
62.65455
 30
0.0
 40
0.7
  1
R41
  7
GOST_TYPE_B
 72
         1
 11
-19.05
 21
63.0
 31
0.0
100
AcDbText
 73
         2
  0
TEXT
  5
2DF
100
AcDbEntity
  8
ASSEMBLY_REF_DES_TOP
100
AcDbText
 10
-20.319475
 20
45.51375
 30
0.0
 40
0.85
  1
R39
 50
270.0
  7
GOST_TYPE_B
 72
         1
 11
-19.9
 21
44.6
 31
0.0
100
AcDbText
 73
         2
  0
TEXT
  5
2E0
100
AcDbEntity
  8
ASSEMBLY_REF_DES_TOP
100
AcDbText
 10
-22.35215
 20
36.80455
 30
0.0
 40
0.7
  1
C45
  7
GOST_TYPE_B
 72
         1
 11
-21.6
 21
37.15
 31
0.0
100
AcDbText
 73
         2
  0
TEXT
  5
2E1
100
AcDbEntity
  8
ASSEMBLY_REF_DES_TOP
100
AcDbText
 10
-21.19545
 20
65.8868
 30
0.0
 40
0.7
  1
R42
 50
270.0
  7
GOST_TYPE_B
 72
         1
 11
-20.85
 21
65.1
 31
0.0
100
AcDbText
 73
         2
  0
TEXT
  5
2E2
100
AcDbEntity
  8
ASSEMBLY_REF_DES_TOP
100
AcDbText
 10
-22.05215
 20
38.20455
 30
0.0
 40
0.7
  1
C46
  7
GOST_TYPE_B
 72
         1
 11
-21.3
 21
38.55
 31
0.0
100
AcDbText
 73
         2
  0
TEXT
  5
2E3
100
AcDbEntity
  8
ASSEMBLY_REF_DES_TOP
100
AcDbText
 10
-19.79545
 20
65.9868
 30
0.0
 40
0.7
  1
R43
 50
270.0
  7
GOST_TYPE_B
 72
         1
 11
-19.45
 21
65.2
 31
0.0
100
AcDbText
 73
         2
  0
TEXT
  5
2E4
100
AcDbEntity
  8
ASSEMBLY_REF_DES_TOP
100
AcDbText
 10
-21.24675
 20
41.5875
 30
0.0
 40
0.5
  1
C47
 50
270.0
  7
GOST_TYPE_B
 72
         1
 11
-21.0
 21
41.05
 31
0.0
100
AcDbText
 73
         2
  0
TEXT
  5
2E5
100
AcDbEntity
  8
ASSEMBLY_REF_DES_TOP
100
AcDbText
 10
-21.77005
 20
67.15455
 30
0.0
 40
0.7
  1
R44
  7
GOST_TYPE_B
 72
         1
 11
-20.95
 21
67.5
 31
0.0
100
AcDbText
 73
         2
  0
TEXT
  5
2E6
100
AcDbEntity
  8
ASSEMBLY_REF_DES_TOP
100
AcDbText
 10
-19.5721
 20
42.030525
 30
0.0
 40
0.85
  1
C50
  7
GOST_TYPE_B
 72
         1
 11
-18.7
 21
42.45
 31
0.0
100
AcDbText
 73
         2
  0
TEXT
  5
2E7
100
AcDbEntity
  8
ASSEMBLY_REF_DES_TOP
100
AcDbText
 10
-18.35455
 20
33.530525
 30
0.0
 40
0.85
  1
C48
  7
GOST_TYPE_B
 72
         1
 11
-17.4
 21
33.95
 31
0.0
100
AcDbText
 73
         2
  0
TEXT
  5
2E8
100
AcDbEntity
  8
ASSEMBLY_REF_DES_TOP
100
AcDbText
 10
-17.59545
 20
27.6868
 30
0.0
 40
0.7
  1
R45
 50
270.0
  7
GOST_TYPE_B
 72
         1
 11
-17.25
 21
26.9
 31
0.0
100
AcDbText
 73
         2
  0
TEXT
  5
2E9
100
AcDbEntity
  8
ASSEMBLY_REF_DES_TOP
100
AcDbText
 10
-17.7496
 20
46.50455
 30
0.0
 40
0.7
  1
C51
  7
GOST_TYPE_B
 72
         1
 11
-17.1
 21
46.85
 31
0.0
100
AcDbText
 73
         2
  0
TEXT
  5
2EA
100
AcDbEntity
  8
ASSEMBLY_REF_DES_TOP
100
AcDbText
 10
-18.919475
 20
40.96375
 30
0.0
 40
0.85
  1
C49
 50
270.0
  7
GOST_TYPE_B
 72
         1
 11
-18.5
 21
40.05
 31
0.0
100
AcDbText
 73
         2
  0
TEXT
  5
2EB
100
AcDbEntity
  8
ASSEMBLY_REF_DES_TOP
100
AcDbText
 10
-19.24545
 20
30.8868
 30
0.0
 40
0.7
  1
R46
 50
270.0
  7
GOST_TYPE_B
 72
         1
 11
-18.9
 21
30.1
 31
0.0
100
AcDbText
 73
         2
  0
TEXT
  5
2EC
100
AcDbEntity
  8
ASSEMBLY_REF_DES_TOP
100
AcDbText
 10
-16.8182
 20
62.60455
 30
0.0
 40
0.7
  1
C52
  7
GOST_TYPE_B
 72
         1
 11
-16.1
 21
62.95
 31
0.0
100
AcDbText
 73
         2
  0
TEXT
  5
2ED
100
AcDbEntity
  8
ASSEMBLY_REF_DES_TOP
100
AcDbText
 10
-17.9361
 20
31.95455
 30
0.0
 40
0.7
  1
R47
  7
GOST_TYPE_B
 72
         1
 11
-17.15
 21
32.3
 31
0.0
100
AcDbText
 73
         2
  0
TEXT
  5
2EE
100
AcDbEntity
  8
ASSEMBLY_REF_DES_TOP
100
AcDbText
 10
-16.94545
 20
65.9682
 30
0.0
 40
0.7
  1
C53
 50
270.0
  7
GOST_TYPE_B
 72
         1
 11
-16.6
 21
65.25
 31
0.0
100
AcDbText
 73
         2
  0
TEXT
  5
2EF
100
AcDbEntity
  8
ASSEMBLY_REF_DES_TOP
100
AcDbText
 10
-14.14545
 20
35.50215
 30
0.0
 40
0.7
  1
VT1
 50
270.0
  7
GOST_TYPE_B
 72
         1
 11
-13.8
 21
34.75
 31
0.0
100
AcDbText
 73
         2
  0
TEXT
  5
2F0
100
AcDbEntity
  8
ASSEMBLY_REF_DES_TOP
100
AcDbText
 10
-18.39545
 20
65.9525
 30
0.0
 40
0.7
  1
R50
 50
270.0
  7
GOST_TYPE_B
 72
         1
 11
-18.05
 21
65.2
 31
0.0
100
AcDbText
 73
         2
  0
TEXT
  5
2F1
100
AcDbEntity
  8
ASSEMBLY_REF_DES_TOP
100
AcDbText
 10
-18.195775
 20
43.430525
 30
0.0
 40
0.85
  1
R48
  7
GOST_TYPE_B
 72
         1
 11
-17.2
 21
43.85
 31
0.0
100
AcDbText
 73
         2
  0
TEXT
  5
2F2
100
AcDbEntity
  8
ASSEMBLY_REF_DES_TOP
100
AcDbText
 10
-15.75215
 20
67.20455
 30
0.0
 40
0.7
  1
C54
  7
GOST_TYPE_B
 72
         1
 11
-15.0
 21
67.55
 31
0.0
100
AcDbText
 73
         2
  0
TEXT
  5
2F3
100
AcDbEntity
  8
ASSEMBLY_REF_DES_TOP
100
AcDbText
 10
-13.64545
 20
38.87075
 30
0.0
 40
0.7
  1
VT2
 50
270.0
  7
GOST_TYPE_B
 72
         1
 11
-13.3
 21
38.05
 31
0.0
100
AcDbText
 73
         2
  0
TEXT
  5
2F4
100
AcDbEntity
  8
ASSEMBLY_REF_DES_TOP
100
AcDbText
 10
-18.63355
 20
67.15455
 30
0.0
 40
0.7
  1
R51
  7
GOST_TYPE_B
 72
         1
 11
-17.95
 21
67.5
 31
0.0
100
AcDbText
 73
         2
  0
TEXT
  5
2F5
100
AcDbEntity
  8
ASSEMBLY_REF_DES_TOP
100
AcDbText
 10
-18.15455
 20
44.930525
 30
0.0
 40
0.85
  1
R49
  7
GOST_TYPE_B
 72
         1
 11
-17.2
 21
45.35
 31
0.0
100
AcDbText
 73
         2
  0
TEXT
  5
2F6
100
AcDbEntity
  8
ASSEMBLY_REF_DES_TOP
100
AcDbText
 10
-14.74675
 20
42.863
 30
0.0
 40
0.5
  1
C55
 50
270.0
  7
GOST_TYPE_B
 72
         1
 11
-14.5
 21
42.35
 31
0.0
100
AcDbText
 73
         2
  0
TEXT
  5
2F7
100
AcDbEntity
  8
ASSEMBLY_REF_DES_TOP
100
AcDbText
 10
-10.24545
 20
35.87075
 30
0.0
 40
0.7
  1
VT3
 50
270.0
  7
GOST_TYPE_B
 72
         1
 11
-9.9
 21
35.05
 31
0.0
100
AcDbText
 73
         2
  0
TEXT
  5
2F8
100
AcDbEntity
  8
ASSEMBLY_REF_DES_TOP
100
AcDbText
 10
-16.69545
 20
30.7525
 30
0.0
 40
0.7
  1
R52
 50
270.0
  7
GOST_TYPE_B
 72
         1
 11
-16.35
 21
30.0
 31
0.0
100
AcDbText
 73
         2
  0
TEXT
  5
2F9
100
AcDbEntity
  8
ASSEMBLY_REF_DES_TOP
100
AcDbText
 10
-15.14545
 20
61.4682
 30
0.0
 40
0.7
  1
C56
 50
270.0
  7
GOST_TYPE_B
 72
         1
 11
-14.8
 21
60.75
 31
0.0
100
AcDbText
 73
         2
  0
TEXT
  5
2FA
100
AcDbEntity
  8
ASSEMBLY_REF_DES_TOP
100
AcDbText
 10
-10.24545
 20
39.20505
 30
0.0
 40
0.7
  1
VT4
 50
270.0
  7
GOST_TYPE_B
 72
         1
 11
-9.9
 21
38.35
 31
0.0
100
AcDbText
 73
         2
  0
TEXT
  5
2FB
100
AcDbEntity
  8
ASSEMBLY_REF_DES_TOP
100
AcDbText
 10
-14.20215
 20
31.75455
 30
0.0
 40
0.7
  1
R53
  7
GOST_TYPE_B
 72
         1
 11
-13.45
 21
32.1
 31
0.0
100
AcDbText
 73
         2
  0
TEXT
  5
2FC
100
AcDbEntity
  8
ASSEMBLY_REF_DES_TOP
100
AcDbText
 10
-7.54545
 20
37.2682
 30
0.0
 40
0.7
  1
C57
 50
270.0
  7
GOST_TYPE_B
 72
         1
 11
-7.2
 21
36.55
 31
0.0
100
AcDbText
 73
         2
  0
TEXT
  5
2FD
100
AcDbEntity
  8
ASSEMBLY_REF_DES_TOP
100
AcDbText
 10
-10.54545
 20
42.47075
 30
0.0
 40
0.7
  1
VT5
 50
270.0
  7
GOST_TYPE_B
 72
         1
 11
-10.2
 21
41.65
 31
0.0
100
AcDbText
 73
         2
  0
TEXT
  5
2FE
100
AcDbEntity
  8
ASSEMBLY_REF_DES_TOP
100
AcDbText
 10
-15.19545
 20
46.4868
 30
0.0
 40
0.7
  1
R54
 50
270.0
  7
GOST_TYPE_B
 72
         1
 11
-14.85
 21
45.7
 31
0.0
100
AcDbText
 73
         2
  0
TEXT
  5
2FF
100
AcDbEntity
  8
ASSEMBLY_REF_DES_TOP
100
AcDbText
 10
-3.04545
 20
44.77075
 30
0.0
 40
0.7
  1
VT6
 50
270.0
  7
GOST_TYPE_B
 72
         1
 11
-2.7
 21
43.95
 31
0.0
100
AcDbText
 73
         2
  0
TEXT
  5
300
100
AcDbEntity
  8
ASSEMBLY_REF_DES_TOP
100
AcDbText
 10
-12.79545
 20
27.5525
 30
0.0
 40
0.7
  1
R55
 50
270.0
  7
GOST_TYPE_B
 72
         1
 11
-12.45
 21
26.8
 31
0.0
100
AcDbText
 73
         2
  0
LWPOLYLINE
  5
301
100
AcDbEntity
  8
BOARD_OUTLINE
100
AcDbPolyline
 90
        4
 70
         1
 43
0.1
 10
-45.0
 20
0.0
 10
-45.0
 20
76.0
 10
0.0
 20
76.0
 10
0.0
 20
0.0
  0
CIRCLE
  5
302
100
AcDbEntity
  8
MOUNTING_HOLES_LAYER_TOP
100
AcDbCircle
 10
-2.4
 20
2.4
 30
0.0
 40
1.35
  0
HATCH
  5
303
100
AcDbEntity
  8
MOUNTING_HOLES_LAYER_TOP
100
AcDbHatch
 10
0.0
 20
0.0
 30
0.0
210
0.0
220
0.0
230
1.0
  2
SOLID
 70
         1
 71
         1
 91
        1
 92
        1
 93
        1
 72
         2
 10
-2.3999999999999999
 20
2.3999999999999999
 40
1.3500000000000001
 50
0.0
 51
360.0
 73
         1
 97
        1
330
302
 75
         0
 76
         1
 98
        1
 10
0.0
 20
0.0
  0
CIRCLE
  5
304
100
AcDbEntity
  8
MOUNTING_HOLES_LAYER_TOP
100
AcDbCircle
 10
-2.4
 20
73.6
 30
0.0
 40
1.35
  0
HATCH
  5
305
100
AcDbEntity
  8
MOUNTING_HOLES_LAYER_TOP
100
AcDbHatch
 10
0.0
 20
0.0
 30
0.0
210
0.0
220
0.0
230
1.0
  2
SOLID
 70
         1
 71
         1
 91
        1
 92
        1
 93
        1
 72
         2
 10
-2.3999999999999999
 20
73.599999999999994
 40
1.3500000000000001
 50
0.0
 51
360.0
 73
         1
 97
        1
330
304
 75
         0
 76
         1
 98
        1
 10
0.0
 20
0.0
  0
CIRCLE
  5
306
100
AcDbEntity
  8
MOUNTING_HOLES_LAYER_TOP
100
AcDbCircle
 10
-26.7
 20
10.35
 30
0.0
 40
1.35
  0
HATCH
  5
307
100
AcDbEntity
  8
MOUNTING_HOLES_LAYER_TOP
100
AcDbHatch
 10
0.0
 20
0.0
 30
0.0
210
0.0
220
0.0
230
1.0
  2
SOLID
 70
         1
 71
         1
 91
        1
 92
        1
 93
        1
 72
         2
 10
-26.699999999999999
 20
10.35
 40
1.3500000000000001
 50
0.0
 51
360.0
 73
         1
 97
        1
330
306
 75
         0
 76
         1
 98
        1
 10
0.0
 20
0.0
  0
CIRCLE
  5
308
100
AcDbEntity
  8
MOUNTING_HOLES_LAYER_TOP
100
AcDbCircle
 10
-43.0
 20
66.0
 30
0.0
 40
1.35
  0
HATCH
  5
309
100
AcDbEntity
  8
MOUNTING_HOLES_LAYER_TOP
100
AcDbHatch
 10
0.0
 20
0.0
 30
0.0
210
0.0
220
0.0
230
1.0
  2
SOLID
 70
         1
 71
         1
 91
        1
 92
        1
 93
        1
 72
         2
 10
-43.0
 20
66.0
 40
1.3500000000000001
 50
0.0
 51
360.0
 73
         1
 97
        1
330
308
 75
         0
 76
         1
 98
        1
 10
0.0
 20
0.0
  0
CIRCLE
  5
30A
100
AcDbEntity
  8
MOUNTING_HOLES_LAYER_TOP
100
AcDbCircle
 10
-10.79
 20
22.71
 30
0.0
 40
1.65
  0
HATCH
  5
30B
100
AcDbEntity
  8
MOUNTING_HOLES_LAYER_TOP
100
AcDbHatch
 10
0.0
 20
0.0
 30
0.0
210
0.0
220
0.0
230
1.0
  2
SOLID
 70
         1
 71
         1
 91
        1
 92
        1
 93
        1
 72
         2
 10
-10.789999999999999
 20
22.710000000000001
 40
1.6499999999999999
 50
0.0
 51
360.0
 73
         1
 97
        1
330
30A
 75
         0
 76
         1
 98
        1
 10
0.0
 20
0.0
  0
CIRCLE
  5
30C
100
AcDbEntity
  8
MOUNTING_HOLES_LAYER_TOP
100
AcDbCircle
 10
-10.79
 20
11.28
 30
0.0
 40
1.65
  0
HATCH
  5
30D
100
AcDbEntity
  8
MOUNTING_HOLES_LAYER_TOP
100
AcDbHatch
 10
0.0
 20
0.0
 30
0.0
210
0.0
220
0.0
230
1.0
  2
SOLID
 70
         1
 71
         1
 91
        1
 92
        1
 93
        1
 72
         2
 10
-10.789999999999999
 20
11.279999999999999
 40
1.6499999999999999
 50
0.0
 51
360.0
 73
         1
 97
        1
330
30C
 75
         0
 76
         1
 98
        1
 10
0.0
 20
0.0
  0
CIRCLE
  5
30E
100
AcDbEntity
  8
MOUNTING_HOLES_LAYER_TOP
100
AcDbCircle
 10
-35.2
 20
10.65
 30
0.0
 40
0.75
  0
HATCH
  5
30F
100
AcDbEntity
  8
MOUNTING_HOLES_LAYER_TOP
100
AcDbHatch
 10
0.0
 20
0.0
 30
0.0
210
0.0
220
0.0
230
1.0
  2
SOLID
 70
         1
 71
         1
 91
        1
 92
        1
 93
        1
 72
         2
 10
-35.200000000000003
 20
10.65
 40
0.75
 50
0.0
 51
360.0
 73
         1
 97
        1
330
30E
 75
         0
 76
         1
 98
        1
 10
0.0
 20
0.0
  0
CIRCLE
  5
310
100
AcDbEntity
  8
MOUNTING_HOLES_LAYER_TOP
100
AcDbCircle
 10
-35.2
 20
20.65
 30
0.0
 40
0.75
  0
HATCH
  5
311
100
AcDbEntity
  8
MOUNTING_HOLES_LAYER_TOP
100
AcDbHatch
 10
0.0
 20
0.0
 30
0.0
210
0.0
220
0.0
230
1.0
  2
SOLID
 70
         1
 71
         1
 91
        1
 92
        1
 93
        1
 72
         2
 10
-35.200000000000003
 20
20.649999999999999
 40
0.75
 50
0.0
 51
360.0
 73
         1
 97
        1
330
310
 75
         0
 76
         1
 98
        1
 10
0.0
 20
0.0
  0
CIRCLE
  5
312
100
AcDbEntity
  8
MOUNTING_HOLES_LAYER_TOP
100
AcDbCircle
 10
-43.0
 20
4.0
 30
0.0
 40
0.6
  0
HATCH
  5
313
100
AcDbEntity
  8
MOUNTING_HOLES_LAYER_TOP
100
AcDbHatch
 10
0.0
 20
0.0
 30
0.0
210
0.0
220
0.0
230
1.0
  2
SOLID
 70
         1
 71
         1
 91
        1
 92
        1
 93
        1
 72
         2
 10
-43.0
 20
4.0
 40
0.6
 50
0.0
 51
360.0
 73
         1
 97
        1
330
312
 75
         0
 76
         1
 98
        1
 10
0.0
 20
0.0
  0
CIRCLE
  5
314
100
AcDbEntity
  8
MOUNTING_HOLES_LAYER_TOP
100
AcDbCircle
 10
-7.0
 20
4.0
 30
0.0
 40
0.6
  0
HATCH
  5
315
100
AcDbEntity
  8
MOUNTING_HOLES_LAYER_TOP
100
AcDbHatch
 10
0.0
 20
0.0
 30
0.0
210
0.0
220
0.0
230
1.0
  2
SOLID
 70
         1
 71
         1
 91
        1
 92
        1
 93
        1
 72
         2
 10
-7.0
 20
4.0
 40
0.6
 50
0.0
 51
360.0
 73
         1
 97
        1
330
314
 75
         0
 76
         1
 98
        1
 10
0.0
 20
0.0
  0
CIRCLE
  5
316
100
AcDbEntity
  8
MOUNTING_HOLES_LAYER_TOP
100
AcDbCircle
 10
-7.0
 20
72.1
 30
0.0
 40
0.6
  0
HATCH
  5
317
100
AcDbEntity
  8
MOUNTING_HOLES_LAYER_TOP
100
AcDbHatch
 10
0.0
 20
0.0
 30
0.0
210
0.0
220
0.0
230
1.0
  2
SOLID
 70
         1
 71
         1
 91
        1
 92
        1
 93
        1
 72
         2
 10
-7.0
 20
72.099999999999994
 40
0.6
 50
0.0
 51
360.0
 73
         1
 97
        1
330
316
 75
         0
 76
         1
 98
        1
 10
0.0
 20
0.0
  0
CIRCLE
  5
318
100
AcDbEntity
  8
MOUNTING_HOLES_LAYER_TOP
100
AcDbCircle
 10
-43.0
 20
72.1
 30
0.0
 40
0.6
  0
HATCH
  5
319
100
AcDbEntity
  8
MOUNTING_HOLES_LAYER_TOP
100
AcDbHatch
 10
0.0
 20
0.0
 30
0.0
210
0.0
220
0.0
230
1.0
  2
SOLID
 70
         1
 71
         1
 91
        1
 92
        1
 93
        1
 72
         2
 10
-43.0
 20
72.099999999999994
 40
0.6
 50
0.0
 51
360.0
 73
         1
 97
        1
330
318
 75
         0
 76
         1
 98
        1
 10
0.0
 20
0.0
  0
CIRCLE
  5
31A
100
AcDbEntity
  8
MOUNTING_HOLES_LAYER_TOP
100
AcDbCircle
 10
-9.9
 20
54.45
 30
0.0
 40
0.8
  0
HATCH
  5
31B
100
AcDbEntity
  8
MOUNTING_HOLES_LAYER_TOP
100
AcDbHatch
 10
0.0
 20
0.0
 30
0.0
210
0.0
220
0.0
230
1.0
  2
SOLID
 70
         1
 71
         1
 91
        1
 92
        1
 93
        1
 72
         2
 10
-9.9000000000000004
 20
54.450000000000003
 40
0.8
 50
0.0
 51
360.0
 73
         1
 97
        1
330
31A
 75
         0
 76
         1
 98
        1
 10
0.0
 20
0.0
  0
CIRCLE
  5
31C
100
AcDbEntity
  8
MOUNTING_HOLES_LAYER_TOP
100
AcDbCircle
 10
-9.9
 20
49.45
 30
0.0
 40
0.8
  0
HATCH
  5
31D
100
AcDbEntity
  8
MOUNTING_HOLES_LAYER_TOP
100
AcDbHatch
 10
0.0
 20
0.0
 30
0.0
210
0.0
220
0.0
230
1.0
  2
SOLID
 70
         1
 71
         1
 91
        1
 92
        1
 93
        1
 72
         2
 10
-9.9000000000000004
 20
49.450000000000003
 40
0.8
 50
0.0
 51
360.0
 73
         1
 97
        1
330
31C
 75
         0
 76
         1
 98
        1
 10
0.0
 20
0.0
  0
CIRCLE
  5
31E
100
AcDbEntity
  8
MOUNTING_HOLES_LAYER_TOP
100
AcDbCircle
 10
-3.1
 20
65.45
 30
0.0
 40
0.6
  0
HATCH
  5
31F
100
AcDbEntity
  8
MOUNTING_HOLES_LAYER_TOP
100
AcDbHatch
 10
0.0
 20
0.0
 30
0.0
210
0.0
220
0.0
230
1.0
  2
SOLID
 70
         1
 71
         1
 91
        1
 92
        1
 93
        1
 72
         2
 10
-3.1000000000000001
 20
65.450000000000003
 40
0.6
 50
0.0
 51
360.0
 73
         1
 97
        1
330
31E
 75
         0
 76
         1
 98
        1
 10
0.0
 20
0.0
  0
CIRCLE
  5
320
100
AcDbEntity
  8
MOUNTING_HOLES_LAYER_TOP
100
AcDbCircle
 10
-10.1
 20
65.45
 30
0.0
 40
0.6
  0
HATCH
  5
321
100
AcDbEntity
  8
MOUNTING_HOLES_LAYER_TOP
100
AcDbHatch
 10
0.0
 20
0.0
 30
0.0
210
0.0
220
0.0
230
1.0
  2
SOLID
 70
         1
 71
         1
 91
        1
 92
        1
 93
        1
 72
         2
 10
-10.1
 20
65.450000000000003
 40
0.6
 50
0.0
 51
360.0
 73
         1
 97
        1
330
320
 75
         0
 76
         1
 98
        1
 10
0.0
 20
0.0
  0
CIRCLE
  5
322
100
AcDbEntity
  8
MOUNTING_HOLES_LAYER_TOP
100
AcDbCircle
 10
-4.35
 20
32.45
 30
0.0
 40
0.275
  0
HATCH
  5
323
100
AcDbEntity
  8
MOUNTING_HOLES_LAYER_TOP
100
AcDbHatch
 10
0.0
 20
0.0
 30
0.0
210
0.0
220
0.0
230
1.0
  2
SOLID
 70
         1
 71
         1
 91
        1
 92
        1
 93
        1
 72
         2
 10
-4.3499999999999996
 20
32.450000000000003
 40
0.275
 50
0.0
 51
360.0
 73
         1
 97
        1
330
322
 75
         0
 76
         1
 98
        1
 10
0.0
 20
0.0
  0
CIRCLE
  5
324
100
AcDbEntity
  8
MOUNTING_HOLES_LAYER_TOP
100
AcDbCircle
 10
-4.35
 20
28.45
 30
0.0
 40
0.275
  0
HATCH
  5
325
100
AcDbEntity
  8
MOUNTING_HOLES_LAYER_TOP
100
AcDbHatch
 10
0.0
 20
0.0
 30
0.0
210
0.0
220
0.0
230
1.0
  2
SOLID
 70
         1
 71
         1
 91
        1
 92
        1
 93
        1
 72
         2
 10
-4.3499999999999996
 20
28.449999999999999
 40
0.275
 50
0.0
 51
360.0
 73
         1
 97
        1
330
324
 75
         0
 76
         1
 98
        1
 10
0.0
 20
0.0
  0
CIRCLE
  5
326
100
AcDbEntity
  8
PART_HOLES_LAYER_TOP
100
AcDbCircle
 10
-43.5
 20
24.51
 30
0.0
 40
0.45
  0
HATCH
  5
327
100
AcDbEntity
  8
PART_HOLES_LAYER_TOP
100
AcDbHatch
 10
0.0
 20
0.0
 30
0.0
210
0.0
220
0.0
230
1.0
  2
SOLID
 70
         1
 71
         1
 91
        1
 92
        1
 93
        1
 72
         2
 10
-43.5
 20
24.510000000000002
 40
0.45
 50
0.0
 51
360.0
 73
         1
 97
        1
330
326
 75
         0
 76
         1
 98
        1
 10
0.0
 20
0.0
  0
CIRCLE
  5
328
100
AcDbEntity
  8
PART_HOLES_LAYER_TOP
100
AcDbCircle
 10
-43.5
 20
27.05
 30
0.0
 40
0.45
  0
HATCH
  5
329
100
AcDbEntity
  8
PART_HOLES_LAYER_TOP
100
AcDbHatch
 10
0.0
 20
0.0
 30
0.0
210
0.0
220
0.0
230
1.0
  2
SOLID
 70
         1
 71
         1
 91
        1
 92
        1
 93
        1
 72
         2
 10
-43.5
 20
27.050000000000001
 40
0.45
 50
0.0
 51
360.0
 73
         1
 97
        1
330
328
 75
         0
 76
         1
 98
        1
 10
0.0
 20
0.0
  0
ENDSEC
  0
SECTION
  2
OBJECTS
  0
DICTIONARY
  5
19
100
AcDbDictionary
  3
ACAD_GROUP
350
1A
  3
ACAD_MLINESTYLE
350
1B
  0
DICTIONARY
  5
1A
102
{ACAD_REACTORS
330
19
102
}
100
AcDbDictionary
  0
DICTIONARY
  5
1B
102
{ACAD_REACTORS
330
19
102
}
100
AcDbDictionary
  3
STANDARD
350
1C
  0
MLINESTYLE
  5
1C
102
{ACAD_REACTORS
330
1B
102
}
100
AcDbMlineStyle
  2
STANDARD
 70
         0
  3

 62
         0
 51
90.0
 52
90.0
 71
         2
 49
0.5
 62
       256
  6
BYLAYER
 49
-0.5
 62
       256
  6
BYLAYER
  0
DICTIONARY
  5
22
102
{ACAD_REACTORS
330
19
102
}
100
AcDbDictionary
  0
ENDSEC
  0
EOF
