  0
SECTION
  2
HEADER
  9
$ACADVER
  1
AC1014
  9
$ACADMAINTVER
 70
         0
  9
$DWGCODEPAGE
  3
ANSI_1252
  9
$INSBASE
 10
0.0
 20
0.0
 30
0.0
  9
$EXTMIN
 10
-68.3
 20
-41.7
 30
0.0
  9
$EXTMAX
 10
3.581696
 20
70.1
 30
0.0
  9
$LIMMIN
 10
0.0
 20
0.0
  9
$LIMMAX
 10
0.0
 20
0.0
  9
$ORTHOMODE
 70
         0
  9
$REGENMODE
 70
         1
  9
$FILLMODE
 70
         1
  9
$QTEXTMODE
 70
         0
  9
$MIRRTEXT
 70
         1
  9
$DRAGMODE
 70
         2
  9
$LTSCALE
 40
1.0
  9
$OSMODE
 70
         0
  9
$ATTMODE
 70
         1
  9
$TEXTSIZE
 40
0.2
  9
$TRACEWID
 40
0.05
  9
$TEXTSTYLE
  7
STANDARD
  9
$CLAYER
  8
0
  9
$CELTYPE
  6
CONTINUOUS
  9
$CECOLOR
 62
       256
  9
$CELTSCALE
 40
1.0
  9
$DELOBJ
 70
         1
  9
$DISPSILH
 70
         0
  9
$DIMSCALE
 40
1.0
  9
$DIMASZ
 40
0.18
  9
$DIMEXO
 40
0.0625
  9
$DIMDLI
 40
0.38
  9
$DIMRND
 40
0.0
  9
$DIMDLE
 40
0.0
  9
$DIMEXE
 40
0.18
  9
$DIMTP
 40
0.0
  9
$DIMTM
 40
0.0
  9
$DIMTXT
 40
0.18
  9
$DIMCEN
 40
0.09
  9
$DIMTSZ
 40
0.0
  9
$DIMTOL
 70
         0
  9
$DIMLIM
 70
         0
  9
$DIMTIH
 70
         1
  9
$DIMTOH
 70
         1
  9
$DIMSE1
 70
         0
  9
$DIMSE2
 70
         0
  9
$DIMTAD
 70
         0
  9
$DIMZIN
 70
         0
  9
$DIMBLK
  1

  9
$DIMASO
 70
         1
  9
$DIMSHO
 70
         1
  9
$DIMPOST
  1

  9
$DIMAPOST
  1

  9
$DIMALT
 70
         0
  9
$DIMALTD
 70
         2
  9
$DIMALTF
 40
25.4
  9
$DIMLFAC
 40
1.0
  9
$DIMTOFL
 70
         0
  9
$DIMTVP
 40
0.0
  9
$DIMTIX
 70
         0
  9
$DIMSOXD
 70
         0
  9
$DIMSAH
 70
         0
  9
$DIMBLK1
  1

  9
$DIMBLK2
  1

  9
$DIMSTYLE
  2
STANDARD
  9
$DIMCLRD
 70
         0
  9
$DIMCLRE
 70
         0
  9
$DIMCLRT
 70
         0
  9
$DIMTFAC
 40
1.0
  9
$DIMGAP
 40
0.09
  9
$DIMJUST
 70
         0
  9
$DIMSD1
 70
         0
  9
$DIMSD2
 70
         0
  9
$DIMTOLJ
 70
         1
  9
$DIMTZIN
 70
         0
  9
$DIMALTZ
 70
         0
  9
$DIMALTTZ
 70
         0
  9
$DIMFIT
 70
         3
  9
$DIMUPT
 70
         0
  9
$DIMUNIT
 70
         2
  9
$DIMDEC
 70
         4
  9
$DIMTDEC
 70
         4
  9
$DIMALTU
 70
         2
  9
$DIMALTTD
 70
         2
  9
$DIMTXSTY
  7
STANDARD
  9
$DIMAUNIT
 70
         0
  9
$LUNITS
 70
         2
  9
$LUPREC
 70
         4
  9
$SKETCHINC
 40
0.1
  9
$FILLETRAD
 40
0.0
  9
$AUNITS
 70
         0
  9
$AUPREC
 70
         0
  9
$MENU
  1
acad
  9
$ELEVATION
 40
0.0
  9
$PELEVATION
 40
0.0
  9
$THICKNESS
 40
0.0
  9
$LIMCHECK
 70
         0
  9
$BLIPMODE
 70
         1
  9
$CHAMFERA
 40
0.0
  9
$CHAMFERB
 40
0.0
  9
$CHAMFERC
 40
0.0
  9
$CHAMFERD
 40
0.0
  9
$SKPOLY
 70
         0
  9
$TDCREATE
 40
20230306.132433
  9
$TDUPDATE
 40
0.0
  9
$TDINDWG
 40
0.0
  9
$TDUSRTIMER
 40
0.0
  9
$USRTIMER
 70
         1
  9
$ANGBASE
 50
0.0
  9
$ANGDIR
 70
         0
  9
$PDMODE
 70
         0
  9
$PDSIZE
 40
0.0
  9
$PLINEWID
 40
0.0
  9
$COORDS
 70
         0
  9
$SPLFRAME
 70
         0
  9
$SPLINETYPE
 70
         6
  9
$SPLINESEGS
 70
         8
  9
$ATTDIA
 70
         0
  9
$ATTREQ
 70
         1
  9
$HANDLING
 70
         1
  9
$HANDSEED
  5
275
  9
$SURFTAB1
 70
         6
  9
$SURFTAB2
 70
         6
  9
$SURFTYPE
 70
         6
  9
$SURFU
 70
         6
  9
$SURFV
 70
         6
  9
$UCSNAME
  2

  9
$UCSORG
 10
0.0
 20
0.0
 30
0.0
  9
$UCSXDIR
 10
1.0
 20
0.0
 30
0.0
  9
$UCSYDIR
 10
0.0
 20
1.0
 30
0.0
  9
$PUCSNAME
  2

  9
$PUCSORG
 10
0.0
 20
0.0
 30
0.0
  9
$PUCSXDIR
 10
1.0
 20
0.0
 30
0.0
  9
$PUCSYDIR
 10
0.0
 20
1.0
 30
0.0
  9
$USERI1
 70
         -3
  9
$USERI2
 70
         0
  9
$USERI3
 70
         0
  9
$USERI4
 70
         0
  9
$USERI5
 70
         0
  9
$USERR1
 40
0.0
  9
$USERR2
 40
0.0
  9
$USERR3
 40
0.0
  9
$USERR4
 40
0.0
  9
$USERR5
 40
0.0
  9
$WORLDVIEW
 70
         1
  9
$SHADEDGE
 70
         3
  9
$SHADEDIF
 70
        70
  9
$TILEMODE
 70
         1
  9
$MAXACTVP
 70
         16
  9
$PINSBASE
 10
0.0
 20
0.0
 30
0.0
  9
$PLIMCHECK
 70
         0
  9
$PEXTMIN
 10
100000000000000000000.0
 20
100000000000000000000.0
 30
100000000000000000000.0
  9
$PEXTMAX
 10
-100000000000000000000.0
 20
-100000000000000000000.0
 30
-100000000000000000000.0
  9
$PLIMMIN
 10
0.0
 20
0.0
  9
$PLIMMAX
 10
12.0
 20
9.0
  9
$UNITMODE
 70
         0
  9
$VISRETAIN
 70
         0
  9
$PLINEGEN
 70
         1
  9
$PSLTSCALE
 70
         0
  9
$TREEDEPTH
 70
      3020
  9
$PICKSTYLE
 70
         1
  9
$CMLSTYLE
  2
STANDARD
  9
$CMLJUST
 70
         0
  9
$CMLSCALE
 40
1.0
  9
$PROXYGRAPHICS
 70
         0
  9
$MEASUREMENT
 70
         0
  0
ENDSEC
  0
SECTION
  2
CLASSES
  0
CLASS
  1
LWPOLYLINE
  2
AcDbPolyline
  3
"AutoCAD"
 90
        0
280
         0
281
         1
  0
CLASS
  1
IMAGE
  2
AcDbRasterImage
  3
ISM
 90
      127
280
         0
281
         1
  0
CLASS
  1
OLE2FRAME
  2
AcDbOle2Frame
  3
""
 90
        0
280
         0
281
         1
  0
CLASS
  1
HATCH
  2
AcDbHatch
  3
"ACAD_SEDONA"
 90
        0
280
         0
281
         1
  0
CLASS
  1
DICTIONARYVAR
  2
AcDbDictionaryVar
  3
"AutoCAD"
 90
        0
280
         0
281
         0
  0
CLASS
  1
RASTERVARIABLES
  2
AcDbRasterVariables
  3
ISM
 90
        0
280
         0
281
         0
  0
CLASS
  1
IMAGEDEF
  2
AcDbRasterImageDef
  3
ISM
 90
        0
280
         0
281
         0
  0
CLASS
  1
IMAGEDEF_REACTOR
  2
AcDbRasterImageDefReactor
  3
ISM
 90
        1
280
         0
281
         0
  0
CLASS
  1
IDBUFFER
  2
AcDbIdBuffer
  3
"Acad"
 90
        0
280
         0
281
         0
  0
CLASS
  1
SPATIAL_FILTER
  2
AcDbSpatialFilter
  3
"Acad"
 90
        0
280
         0
281
         0
  0
CLASS
  1
XRECORD
  2
AcDbXrecord
  3
"<Built In>"
 90
        0
280
         0
281
         0
  0
CLASS
  1
SORTENTSTABLE
  2
AcDbSortentsTable
  3
"AutoCAD"
 90
        0
280
         0
281
         0
  0
CLASS
  1
LAYER_INDEX
  2
AcDbLayerIndex
  3
"Acad"
 90
        0
280
         0
281
         0
  0
CLASS
  1
SPATIAL_INDEX
  2
AcDbSpatialIndex
  3
"Acad"
 90
        0
280
         0
281
         0
  0
CLASS
  1
OBJECT_PTR
  2
CAseDLPNTableRecord
  3
"ASE-LPNTableRecord"
 90
        1
280
         0
281
         0
  0
CLASS
  1
LAYOUT
  2
AcDbLayout
  3
"AutoCAD 2000"
 90
        0
280
         0
281
         0
  0
CLASS
  1
PLOTSETTINGS
  2
AcDbPlotSettings
  3
"AutoCAD 2000"
 90
        0
280
         0
281
         0
  0
CLASS
  1
ACDBDICTIONARYWDFLT
  2
AcDbDictionaryWithDefault
  3
"AutoCAD 2000"
 90
        0
280
         0
281
         0
  0
CLASS
  1
ACDBPLACEHOLDER
  2
AcDbPlaceHolder
  3
"AutoCAD 2000"
 90
        0
280
         0
281
         0
  0
CLASS
  1
VBA_PROJECT
  2
AcDbVbaProject
  3
"acadvba"
 90
        0
280
         0
281
         0
  0
CLASS
  1
WIPEOUT
  2
AcDbWipeout
  3
WipeOut|AutoCAD Express Tool|expresstools@autodesk.com
 90
      127
280
         0
281
         1
  0
CLASS
  1
WIPEOUTVARIABLES
  2
AcDbWipeoutVariables
  3
WipeOut|AutoCAD Express Tool|expresstools@autodesk.com
 90
        0
280
         0
281
         0
  0
CLASS
  1
RTEXT
  2
RText
  3
RText|AutoCAD Express Tool|expresstools@autodesk.com
 90
        0
280
         0
281
         1
  0
CLASS
  1
ARCALIGNEDTEXT
  2
AcDbArcAlignedText
  3
ATEXT|AutoCAD Express Tool|expresstools@autodesk.com
 90
        0
280
         0
281
         1
  0
ENDSEC
  0
SECTION
  2
TABLES
  0
TABLE
  2
VPORT
  5
7
100
AcDbSymbolTable
70
    1
  0
VPORT
  5
13
100
AcDbSymbolTableRecord
100
AcDbViewportTableRecord
  2
*ACTIVE
 70
         0
 10
0.0
 20
0.0
 11
1.0
 21
1.0
 12
6.591288
 22
4.579184
 13
0.0
 23
0.0
 14
1.0
 24
1.0
 15
0.0
 25
0.0
 16
0.0
 26
0.0
 36
1.0
 17
0.0
 27
0.0
 37
0.0
  40
9.158369
  41
0.688564
  42
50.0
  43
0.0
  44
0.0
  50
0.0
  51
0.0
 71
    0
 72
    100
 73
    1
 74
    1
 75
    0
 76
    0
 77
    0
 78
    0
  0
ENDTAB
  0
TABLE
  2
LTYPE
  5
4
100
AcDbSymbolTable
70
    3
  0
LTYPE
  5
10
100
AcDbSymbolTableRecord
100
AcDbLinetypeTableRecord
  2
BYBLOCK
 70
         64
  3

 72
       65
 73
       0
  40
0.0
  0
LTYPE
  5
11
100
AcDbSymbolTableRecord
100
AcDbLinetypeTableRecord
  2
BYLAYER
 70
         64
  3

 72
       65
 73
       0
  40
0.0
  0
LTYPE
  5
12
100
AcDbSymbolTableRecord
100
AcDbLinetypeTableRecord
  2
CONTINUOUS
 70
         64
  3
Solid Line
 72
       65
 73
       0
  40
0.0
  0
ENDTAB
  0
TABLE
  2
LAYER
  5
2
100
AcDbSymbolTable
 70
         5
  0
LAYER
  5
26E
100
AcDbSymbolTableRecord
100
AcDbLayerTableRecord
  2
0
 70
         0
 62
         7
  6
CONTINUOUS
  0
LAYER
  5
26F
100
AcDbSymbolTableRecord
100
AcDbLayerTableRecord
  2
ASSEMBLY_OUTLINES_TOP
 70
         0
 62
         102
  6
CONTINUOUS
  0
LAYER
  5
270
100
AcDbSymbolTableRecord
100
AcDbLayerTableRecord
  2
BOARD_OUTLINE
 70
         0
 62
         10
  6
CONTINUOUS
  0
LAYER
  5
271
100
AcDbSymbolTableRecord
100
AcDbLayerTableRecord
  2
MOUNTING_HOLES_LAYER_TOP
 70
         0
 62
         42
  6
CONTINUOUS
  0
LAYER
  5
272
100
AcDbSymbolTableRecord
100
AcDbLayerTableRecord
  2
PART_HOLES_LAYER_TOP
 70
         0
 62
         30
  6
CONTINUOUS
  0
ENDTAB
  0
TABLE
  2
STYLE
  5
3
100
AcDbSymbolTable
 70
         2
  0
STYLE
  5
273
100
AcDbSymbolTableRecord
100
AcDbTextStyleTableRecord
  2
STANDARD
 70
         0
 40
0.0
 41
1.0
 50
0.0
 71
         0
 42
0.0
  3
txt
  4

  0
STYLE
  5
274
100
AcDbSymbolTableRecord
100
AcDbTextStyleTableRecord
  2
VERIBEST_GERBER_1
 70
         0
 40
0.0
 41
1.0
 50
0.0
 71
         0
 42
0.0
  3
VBest1.ttf
  4

  0
ENDTAB
  0
TABLE
  2
VIEW
  5
5
100
AcDbSymbolTable
 70
         0
  0
ENDTAB
  0
TABLE
  2
UCS
  5
6
100
AcDbSymbolTable
 70
         0
  0
ENDTAB
  0
TABLE
  2
APPID
  5
8
100
AcDbSymbolTable
 70
         1
  0
APPID
  5
14
100
AcDbSymbolTableRecord
100
AcDbRegAppTableRecord
  2
ACAD
 70
         0
  0
ENDTAB
  0
TABLE
  2
DIMSTYLE
  5
9
100
AcDbSymbolTable
 70
         1
  0
DIMSTYLE
105
15
100
AcDbSymbolTableRecord
100
AcDbDimStyleTableRecord
  2
STANDARD
 70
         0
  3

  4

  5

  6

 7

 40
1.0
 41
0.18
 42
0.0625
 43
0.38
 44
0.18
 45
0.0
 46
0.0
 47
0.0
 48
0.0
 71
         0
 72
         0
 73
         1
 74
         1
 75
         0
 76
         0
 77
         0
 78
         0
140
0.18
141
0.09
142
0.0
143
25.4
144
1.0
145
0.0
146
1.0
147
0.09
170
         0
171
         2
172
         0
173
         0
174
         0
175
         0
176
         0
177
         0
178
         0
270
         2
271
         4
272
         4
273
         2
274
         2
275
         0
280
         0
281
         0
282
         0
283
         1
284
         0
285
         0
286
         0
287
         3
288
         0
340
17
  0
ENDTAB
  0
TABLE
  2
BLOCK_RECORD
  5
1
100
AcDbSymbolTable
 70
         0
  0
BLOCK_RECORD
  5
A
100
AcDbSymbolTableRecord
100
AcDbBlockTableRecord
  2
*MODEL_SPACE
  0
BLOCK_RECORD
  5
B
100
AcDbSymbolTableRecord
100
AcDbBlockTableRecord
  2
*PAPER_SPACE
  0
ENDTAB
  0
ENDSEC
  0
SECTION
  2
BLOCKS
  0
BLOCK
  5
C
100
AcDbEntity
  8
0
100
AcDbBlockBegin
  2
*MODEL_SPACE
 70
         0
 10
0.0
 20
0.0
 30
0.0
  3
*MODEL_SPACE
  1

  0
ENDBLK
  5
D
100
AcDbEntity
  8
0
100
AcDbBlockEnd
  0
BLOCK
  5
E
100
AcDbEntity
 67
        1
  8
0
100
AcDbBlockBegin
  2
*PAPER_SPACE
 70
         0
 10
0.0
 20
0.0
 30
0.0
  3
*PAPER_SPACE
  1

  0
ENDBLK
  5
F
100
AcDbEntity
 67
        1
  8
0
100
AcDbBlockEnd
  0
ENDSEC
  0
SECTION
  2
ENTITIES
  0
LWPOLYLINE
  5
1B
100
AcDbEntity
  8
ASSEMBLY_OUTLINES_TOP
100
AcDbPolyline
 90
        3
 70
         1
 43
0.0
 10
0.0
 20
-1.773404
 10
-1.14
 20
-2.343404
 10
-1.14
 20
-1.203404
  0
HATCH
  5
1C
100
AcDbEntity
  8
ASSEMBLY_OUTLINES_TOP
100
AcDbHatch
 10
0.0
 20
0.0
 30
0.0
 210
0.0
 220
0.0
 230
1.0
  2
SOLID
 70
         1
 71
        1
 91
        1
  92
     2
 72
     0
 73
     1
  93
     3
 10
0.0
 20
-1.773404
 10
-1.14
 20
-2.343404
 10
-1.14
 20
-1.203404
  97
     1
  330
    27
 75
     0
 76
     1
  98
     1
 10
0.0
 20
0.0
  0
LWPOLYLINE
  5
1D
100
AcDbEntity
  8
ASSEMBLY_OUTLINES_TOP
100
AcDbPolyline
 90
        3
 70
         1
 43
0.0
 10
-67.6
 20
-1.773404
 10
-66.46
 20
-1.203404
 10
-66.46
 20
-2.343404
  0
HATCH
  5
1E
100
AcDbEntity
  8
ASSEMBLY_OUTLINES_TOP
100
AcDbHatch
 10
0.0
 20
0.0
 30
0.0
 210
0.0
 220
0.0
 230
1.0
  2
SOLID
 70
         1
 71
        1
 91
        1
  92
     2
 72
     0
 73
     1
  93
     3
 10
-67.6
 20
-1.773404
 10
-66.46
 20
-1.203404
 10
-66.46
 20
-2.343404
  97
     1
  330
    29
 75
     0
 76
     1
  98
     1
 10
0.0
 20
0.0
  0
LWPOLYLINE
  5
1F
100
AcDbEntity
  8
ASSEMBLY_OUTLINES_TOP
100
AcDbPolyline
 90
        2
 70
         0
 43
0.2
 10
-29.944297
 20
-1.773404
 10
-0.57
 20
-1.773404
  0
LWPOLYLINE
  5
20
100
AcDbEntity
  8
ASSEMBLY_OUTLINES_TOP
100
AcDbPolyline
 90
        2
 70
         0
 43
0.2
 10
-67.03
 20
-1.773404
 10
-37.655703
 20
-1.773404
  0
LWPOLYLINE
  5
21
100
AcDbEntity
  8
ASSEMBLY_OUTLINES_TOP
100
AcDbPolyline
 90
        2
 70
         0
 43
0.2
 10
0.0
 20
-0.51
 10
0.0
 20
-2.283404
  0
LWPOLYLINE
  5
22
100
AcDbEntity
  8
ASSEMBLY_OUTLINES_TOP
100
AcDbPolyline
 90
        2
 70
         0
 43
0.2
 10
-67.6
 20
-0.51
 10
-67.6
 20
-2.283404
  0
LWPOLYLINE
  5
23
100
AcDbEntity
  8
ASSEMBLY_OUTLINES_TOP
100
AcDbPolyline
 90
        3
 70
         1
 43
0.0
 10
2.971696
 20
0.0
 10
2.401696
 20
1.14
 10
3.541696
 20
1.14
  0
HATCH
  5
24
100
AcDbEntity
  8
ASSEMBLY_OUTLINES_TOP
100
AcDbHatch
 10
0.0
 20
0.0
 30
0.0
 210
0.0
 220
0.0
 230
1.0
  2
SOLID
 70
         1
 71
        1
 91
        1
  92
     2
 72
     0
 73
     1
  93
     3
 10
2.971696
 20
0.0
 10
2.401696
 20
1.14
 10
3.541696
 20
1.14
  97
     1
  330
    35
 75
     0
 76
     1
  98
     1
 10
0.0
 20
0.0
  0
LWPOLYLINE
  5
25
100
AcDbEntity
  8
ASSEMBLY_OUTLINES_TOP
100
AcDbPolyline
 90
        3
 70
         1
 43
0.0
 10
2.971696
 20
70.0
 10
3.541695
 20
68.86
 10
2.401696
 20
68.86
  0
HATCH
  5
26
100
AcDbEntity
  8
ASSEMBLY_OUTLINES_TOP
100
AcDbHatch
 10
0.0
 20
0.0
 30
0.0
 210
0.0
 220
0.0
 230
1.0
  2
SOLID
 70
         1
 71
        1
 91
        1
  92
     2
 72
     0
 73
     1
  93
     3
 10
2.971696
 20
70.0
 10
3.541695
 20
68.86
 10
2.401696
 20
68.86
  97
     1
  330
    37
 75
     0
 76
     1
  98
     1
 10
0.0
 20
0.0
  0
LWPOLYLINE
  5
27
100
AcDbEntity
  8
ASSEMBLY_OUTLINES_TOP
100
AcDbPolyline
 90
        2
 70
         0
 43
0.2
 10
2.971696
 20
32.251102
 10
2.971696
 20
0.57
  0
LWPOLYLINE
  5
28
100
AcDbEntity
  8
ASSEMBLY_OUTLINES_TOP
100
AcDbPolyline
 90
        2
 70
         0
 43
0.2
 10
2.971696
 20
69.43
 10
2.971696
 20
37.748897
  0
LWPOLYLINE
  5
29
100
AcDbEntity
  8
ASSEMBLY_OUTLINES_TOP
100
AcDbPolyline
 90
        2
 70
         0
 43
0.2
 10
0.51
 20
0.0
 10
3.481696
 20
0.0
  0
LWPOLYLINE
  5
2A
100
AcDbEntity
  8
ASSEMBLY_OUTLINES_TOP
100
AcDbPolyline
 90
        2
 70
         0
 43
0.2
 10
0.51
 20
70.0
 10
3.481696
 20
70.0
  0
CIRCLE
  5
2B
100
AcDbEntity
  8
ASSEMBLY_OUTLINES_TOP
100
AcDbCircle
 10
-33.602391
 20
67.29511
 30
0.0
 40
1.25
  0
HATCH
  5
2C
100
AcDbEntity
  8
ASSEMBLY_OUTLINES_TOP
100
AcDbHatch
 10
0.0
 20
0.0
 30
0.0
 210
0.0
 220
0.0
 230
1.0
  2
SOLID
 70
         1
 71
        1
 91
        1
  92
     1
  93
     1
 72
     2
 10
-33.602391
 20
67.29511
  40
1.25
  50
     0.0
  51
     360.0
 73
     0
  97
     1
  330
    43
 75
     0
 76
     1
  98
     1
 10
0.0
 20
0.0
  0
CIRCLE
  5
2D
100
AcDbEntity
  8
ASSEMBLY_OUTLINES_TOP
100
AcDbCircle
 10
-33.602391
 20
67.29511
 30
0.0
 40
2.5
  0
CIRCLE
  5
2E
100
AcDbEntity
  8
ASSEMBLY_OUTLINES_TOP
100
AcDbCircle
 10
-57.002391
 20
2.59511
 30
0.0
 40
2.5
  0
CIRCLE
  5
2F
100
AcDbEntity
  8
ASSEMBLY_OUTLINES_TOP
100
AcDbCircle
 10
-57.002391
 20
2.59511
 30
0.0
 40
1.25
  0
HATCH
  5
30
100
AcDbEntity
  8
ASSEMBLY_OUTLINES_TOP
100
AcDbHatch
 10
0.0
 20
0.0
 30
0.0
 210
0.0
 220
0.0
 230
1.0
  2
SOLID
 70
         1
 71
        1
 91
        1
  92
     1
  93
     1
 72
     2
 10
-57.002391
 20
2.59511
  40
1.25
  50
     0.0
  51
     360.0
 73
     0
  97
     1
  330
    47
 75
     0
 76
     1
  98
     1
 10
0.0
 20
0.0
  0
CIRCLE
  5
31
100
AcDbEntity
  8
ASSEMBLY_OUTLINES_TOP
100
AcDbCircle
 10
-19.802391
 20
14.99511
 30
0.0
 40
1.25
  0
HATCH
  5
32
100
AcDbEntity
  8
ASSEMBLY_OUTLINES_TOP
100
AcDbHatch
 10
0.0
 20
0.0
 30
0.0
 210
0.0
 220
0.0
 230
1.0
  2
SOLID
 70
         1
 71
        1
 91
        1
  92
     1
  93
     1
 72
     2
 10
-19.802391
 20
14.99511
  40
1.25
  50
     0.0
  51
     360.0
 73
     0
  97
     1
  330
    49
 75
     0
 76
     1
  98
     1
 10
0.0
 20
0.0
  0
CIRCLE
  5
33
100
AcDbEntity
  8
ASSEMBLY_OUTLINES_TOP
100
AcDbCircle
 10
-19.802391
 20
14.99511
 30
0.0
 40
2.5
  0
LWPOLYLINE
  5
34
100
AcDbEntity
  8
ASSEMBLY_OUTLINES_TOP
100
AcDbPolyline
 90
        4
 70
         1
 43
0.0
 10
-7.85
 20
-41.7
 10
-7.85
 20
-41.7
 10
-7.85
 20
-41.7
 10
-7.85
 20
-41.7
  0
CIRCLE
  5
35
100
AcDbEntity
  8
ASSEMBLY_OUTLINES_TOP
100
AcDbCircle
 10
-1.8
 20
52.0
 30
0.0
 40
1.25
  0
HATCH
  5
36
100
AcDbEntity
  8
ASSEMBLY_OUTLINES_TOP
100
AcDbHatch
 10
0.0
 20
0.0
 30
0.0
 210
0.0
 220
0.0
 230
1.0
  2
SOLID
 70
         1
 71
        1
 91
        1
  92
     1
  93
     1
 72
     2
 10
-1.8
 20
52.0
  40
1.25
  50
     0.0
  51
     360.0
 73
     0
  97
     1
  330
    53
 75
     0
 76
     1
  98
     1
 10
0.0
 20
0.0
  0
CIRCLE
  5
37
100
AcDbEntity
  8
ASSEMBLY_OUTLINES_TOP
100
AcDbCircle
 10
-1.8
 20
52.0
 30
0.0
 40
2.5
  0
CIRCLE
  5
38
100
AcDbEntity
  8
ASSEMBLY_OUTLINES_TOP
100
AcDbCircle
 10
-65.8
 20
52.0
 30
0.0
 40
1.25
  0
HATCH
  5
39
100
AcDbEntity
  8
ASSEMBLY_OUTLINES_TOP
100
AcDbHatch
 10
0.0
 20
0.0
 30
0.0
 210
0.0
 220
0.0
 230
1.0
  2
SOLID
 70
         1
 71
        1
 91
        1
  92
     1
  93
     1
 72
     2
 10
-65.8
 20
52.0
  40
1.25
  50
     0.0
  51
     360.0
 73
     0
  97
     1
  330
    56
 75
     0
 76
     1
  98
     1
 10
0.0
 20
0.0
  0
CIRCLE
  5
3A
100
AcDbEntity
  8
ASSEMBLY_OUTLINES_TOP
100
AcDbCircle
 10
-65.8
 20
52.0
 30
0.0
 40
2.5
  0
TEXT
  5
3B
100
AcDbEntity
  8
ASSEMBLY_OUTLINES_TOP
100
AcDbText
 10
-37.25186
 20
-2.408404
 30
0.0
 40
1.270000
 41
1.000000
  1
67.6mm
  7
VERIBEST_GERBER_1
 72
 1
 11
-33.8
 21
-1.773404
 31
0.0
100
AcDbText
 73
 2
  0
TEXT
  5
3C
100
AcDbEntity
  8
ASSEMBLY_OUTLINES_TOP
100
AcDbText
 10
3.606696
 20
32.602241
 30
0.0
 40
1.270000
 41
1.000000
  1
70mm
  50
90.0
  7
VERIBEST_GERBER_1
 72
 1
 11
2.971696
 21
35.000001
 31
0.0
100
AcDbText
 73
 2
  0
LWPOLYLINE
  5
3D
100
AcDbEntity
  8
ASSEMBLY_OUTLINES_TOP
100
AcDbPolyline
 90
        4
 70
         1
 43
0.0
 10
-35.85
 20
47.65
 10
-35.85
 20
49.15
 10
-35.05
 20
49.15
 10
-35.05
 20
47.65
  0
LWPOLYLINE
  5
3E
100
AcDbEntity
  8
ASSEMBLY_OUTLINES_TOP
100
AcDbPolyline
 90
        4
 70
         1
 43
0.0
 10
-35.7
 20
47.9
 10
-35.7
 20
48.9
 10
-35.2
 20
48.9
 10
-35.2
 20
47.9
  0
LWPOLYLINE
  5
3F
100
AcDbEntity
  8
ASSEMBLY_OUTLINES_TOP
100
AcDbPolyline
 90
        4
 70
         1
 43
0.0
 10
-34.95
 20
47.65
 10
-34.95
 20
49.15
 10
-34.15
 20
49.15
 10
-34.15
 20
47.65
  0
LWPOLYLINE
  5
40
100
AcDbEntity
  8
ASSEMBLY_OUTLINES_TOP
100
AcDbPolyline
 90
        4
 70
         1
 43
0.0
 10
-34.8
 20
47.9
 10
-34.8
 20
48.9
 10
-34.3
 20
48.9
 10
-34.3
 20
47.9
  0
LWPOLYLINE
  5
41
100
AcDbEntity
  8
ASSEMBLY_OUTLINES_TOP
100
AcDbPolyline
 90
        4
 70
         1
 43
0.0
 10
-34.05
 20
47.65
 10
-34.05
 20
49.15
 10
-33.25
 20
49.15
 10
-33.25
 20
47.65
  0
LWPOLYLINE
  5
42
100
AcDbEntity
  8
ASSEMBLY_OUTLINES_TOP
100
AcDbPolyline
 90
        4
 70
         1
 43
0.0
 10
-33.9
 20
47.9
 10
-33.9
 20
48.9
 10
-33.4
 20
48.9
 10
-33.4
 20
47.9
  0
LWPOLYLINE
  5
43
100
AcDbEntity
  8
ASSEMBLY_OUTLINES_TOP
100
AcDbPolyline
 90
        4
 70
         1
 43
0.0
 10
-34.85
 20
49.5
 10
-34.85
 20
50.3
 10
-33.35
 20
50.3
 10
-33.35
 20
49.5
  0
LWPOLYLINE
  5
44
100
AcDbEntity
  8
ASSEMBLY_OUTLINES_TOP
100
AcDbPolyline
 90
        4
 70
         1
 43
0.0
 10
-34.6
 20
49.65
 10
-34.6
 20
50.15
 10
-33.6
 20
50.15
 10
-33.6
 20
49.65
  0
LWPOLYLINE
  5
45
100
AcDbEntity
  8
ASSEMBLY_OUTLINES_TOP
100
AcDbPolyline
 90
        4
 70
         1
 43
0.0
 10
-33.7
 20
18.1
 10
-33.7
 20
19.6
 10
-32.9
 20
19.6
 10
-32.9
 20
18.1
  0
LWPOLYLINE
  5
46
100
AcDbEntity
  8
ASSEMBLY_OUTLINES_TOP
100
AcDbPolyline
 90
        4
 70
         1
 43
0.0
 10
-33.55
 20
18.35
 10
-33.55
 20
19.35
 10
-33.05
 20
19.35
 10
-33.05
 20
18.35
  0
LWPOLYLINE
  5
47
100
AcDbEntity
  8
ASSEMBLY_OUTLINES_TOP
100
AcDbPolyline
 90
        4
 70
         1
 43
0.0
 10
-32.85
 20
18.1
 10
-32.85
 20
19.6
 10
-32.05
 20
19.6
 10
-32.05
 20
18.1
  0
LWPOLYLINE
  5
48
100
AcDbEntity
  8
ASSEMBLY_OUTLINES_TOP
100
AcDbPolyline
 90
        4
 70
         1
 43
0.0
 10
-32.7
 20
18.35
 10
-32.7
 20
19.35
 10
-32.2
 20
19.35
 10
-32.2
 20
18.35
  0
LWPOLYLINE
  5
49
100
AcDbEntity
  8
ASSEMBLY_OUTLINES_TOP
100
AcDbPolyline
 90
        4
 70
         1
 43
0.0
 10
-32.25
 20
47.25
 10
-32.25
 20
48.75
 10
-31.45
 20
48.75
 10
-31.45
 20
47.25
  0
LWPOLYLINE
  5
4A
100
AcDbEntity
  8
ASSEMBLY_OUTLINES_TOP
100
AcDbPolyline
 90
        4
 70
         1
 43
0.0
 10
-32.1
 20
47.5
 10
-32.1
 20
48.5
 10
-31.6
 20
48.5
 10
-31.6
 20
47.5
  0
LWPOLYLINE
  5
4B
100
AcDbEntity
  8
ASSEMBLY_OUTLINES_TOP
100
AcDbPolyline
 90
        4
 70
         1
 43
0.0
 10
-33.05
 20
25.85
 10
-33.05
 20
26.65
 10
-31.55
 20
26.65
 10
-31.55
 20
25.85
  0
LWPOLYLINE
  5
4C
100
AcDbEntity
  8
ASSEMBLY_OUTLINES_TOP
100
AcDbPolyline
 90
        4
 70
         1
 43
0.0
 10
-32.8
 20
26.0
 10
-32.8
 20
26.5
 10
-31.8
 20
26.5
 10
-31.8
 20
26.0
  0
LWPOLYLINE
  5
4D
100
AcDbEntity
  8
ASSEMBLY_OUTLINES_TOP
100
AcDbPolyline
 90
        4
 70
         1
 43
0.0
 10
-5.85
 20
26.2
 10
-5.85
 20
27.0
 10
-4.35
 20
27.0
 10
-4.35
 20
26.2
  0
LWPOLYLINE
  5
4E
100
AcDbEntity
  8
ASSEMBLY_OUTLINES_TOP
100
AcDbPolyline
 90
        4
 70
         1
 43
0.0
 10
-5.6
 20
26.35
 10
-5.6
 20
26.85
 10
-4.6
 20
26.85
 10
-4.6
 20
26.35
  0
LWPOLYLINE
  5
4F
100
AcDbEntity
  8
ASSEMBLY_OUTLINES_TOP
100
AcDbPolyline
 90
        4
 70
         1
 43
0.0
 10
-32.45
 20
44.75
 10
-32.45
 20
46.25
 10
-31.65
 20
46.25
 10
-31.65
 20
44.75
  0
LWPOLYLINE
  5
50
100
AcDbEntity
  8
ASSEMBLY_OUTLINES_TOP
100
AcDbPolyline
 90
        4
 70
         1
 43
0.0
 10
-32.3
 20
45.0
 10
-32.3
 20
46.0
 10
-31.8
 20
46.0
 10
-31.8
 20
45.0
  0
LWPOLYLINE
  5
51
100
AcDbEntity
  8
ASSEMBLY_OUTLINES_TOP
100
AcDbPolyline
 90
        4
 70
         1
 43
0.0
 10
-33.15
 20
47.65
 10
-33.15
 20
49.15
 10
-32.35
 20
49.15
 10
-32.35
 20
47.65
  0
LWPOLYLINE
  5
52
100
AcDbEntity
  8
ASSEMBLY_OUTLINES_TOP
100
AcDbPolyline
 90
        4
 70
         1
 43
0.0
 10
-33.0
 20
47.9
 10
-33.0
 20
48.9
 10
-32.5
 20
48.9
 10
-32.5
 20
47.9
  0
LWPOLYLINE
  5
53
100
AcDbEntity
  8
ASSEMBLY_OUTLINES_TOP
100
AcDbPolyline
 90
        4
 70
         1
 43
0.0
 10
-31.75
 20
18.8
 10
-31.75
 20
19.6
 10
-30.25
 20
19.6
 10
-30.25
 20
18.8
  0
LWPOLYLINE
  5
54
100
AcDbEntity
  8
ASSEMBLY_OUTLINES_TOP
100
AcDbPolyline
 90
        4
 70
         1
 43
0.0
 10
-31.5
 20
18.95
 10
-31.5
 20
19.45
 10
-30.5
 20
19.45
 10
-30.5
 20
18.95
  0
LWPOLYLINE
  5
55
100
AcDbEntity
  8
ASSEMBLY_OUTLINES_TOP
100
AcDbPolyline
 90
        4
 70
         1
 43
0.0
 10
-31.35
 20
47.1
 10
-31.35
 20
48.6
 10
-30.55
 20
48.6
 10
-30.55
 20
47.1
  0
LWPOLYLINE
  5
56
100
AcDbEntity
  8
ASSEMBLY_OUTLINES_TOP
100
AcDbPolyline
 90
        4
 70
         1
 43
0.0
 10
-31.2
 20
47.35
 10
-31.2
 20
48.35
 10
-30.7
 20
48.35
 10
-30.7
 20
47.35
  0
LWPOLYLINE
  5
57
100
AcDbEntity
  8
ASSEMBLY_OUTLINES_TOP
100
AcDbPolyline
 90
        4
 70
         1
 43
0.0
 10
-28.8
 20
18.9
 10
-28.8
 20
20.4
 10
-28.0
 20
20.4
 10
-28.0
 20
18.9
  0
LWPOLYLINE
  5
58
100
AcDbEntity
  8
ASSEMBLY_OUTLINES_TOP
100
AcDbPolyline
 90
        4
 70
         1
 43
0.0
 10
-28.65
 20
19.15
 10
-28.65
 20
20.15
 10
-28.15
 20
20.15
 10
-28.15
 20
19.15
  0
LWPOLYLINE
  5
59
100
AcDbEntity
  8
ASSEMBLY_OUTLINES_TOP
100
AcDbPolyline
 90
        4
 70
         1
 43
0.0
 10
-28.1
 20
25.85
 10
-28.1
 20
27.35
 10
-27.3
 20
27.35
 10
-27.3
 20
25.85
  0
LWPOLYLINE
  5
5A
100
AcDbEntity
  8
ASSEMBLY_OUTLINES_TOP
100
AcDbPolyline
 90
        4
 70
         1
 43
0.0
 10
-27.95
 20
26.1
 10
-27.95
 20
27.1
 10
-27.45
 20
27.1
 10
-27.45
 20
26.1
  0
LWPOLYLINE
  5
5B
100
AcDbEntity
  8
ASSEMBLY_OUTLINES_TOP
100
AcDbPolyline
 90
        4
 70
         1
 43
0.0
 10
-29.7
 20
44.8
 10
-29.7
 20
46.3
 10
-28.9
 20
46.3
 10
-28.9
 20
44.8
  0
LWPOLYLINE
  5
5C
100
AcDbEntity
  8
ASSEMBLY_OUTLINES_TOP
100
AcDbPolyline
 90
        4
 70
         1
 43
0.0
 10
-29.55
 20
45.05
 10
-29.55
 20
46.05
 10
-29.05
 20
46.05
 10
-29.05
 20
45.05
  0
LWPOLYLINE
  5
5D
100
AcDbEntity
  8
ASSEMBLY_OUTLINES_TOP
100
AcDbPolyline
 90
        4
 70
         1
 43
0.0
 10
-28.8
 20
44.8
 10
-28.8
 20
46.3
 10
-28.0
 20
46.3
 10
-28.0
 20
44.8
  0
LWPOLYLINE
  5
5E
100
AcDbEntity
  8
ASSEMBLY_OUTLINES_TOP
100
AcDbPolyline
 90
        4
 70
         1
 43
0.0
 10
-28.65
 20
45.05
 10
-28.65
 20
46.05
 10
-28.15
 20
46.05
 10
-28.15
 20
45.05
  0
LWPOLYLINE
  5
5F
100
AcDbEntity
  8
ASSEMBLY_OUTLINES_TOP
100
AcDbPolyline
 90
        4
 70
         1
 43
0.0
 10
-29.1
 20
49.65
 10
-29.1
 20
51.15
 10
-28.3
 20
51.15
 10
-28.3
 20
49.65
  0
LWPOLYLINE
  5
60
100
AcDbEntity
  8
ASSEMBLY_OUTLINES_TOP
100
AcDbPolyline
 90
        4
 70
         1
 43
0.0
 10
-28.95
 20
49.9
 10
-28.95
 20
50.9
 10
-28.45
 20
50.9
 10
-28.45
 20
49.9
  0
LWPOLYLINE
  5
61
100
AcDbEntity
  8
ASSEMBLY_OUTLINES_TOP
100
AcDbPolyline
 90
        4
 70
         1
 43
0.0
 10
-26.3
 20
25.85
 10
-26.3
 20
27.35
 10
-25.5
 20
27.35
 10
-25.5
 20
25.85
  0
LWPOLYLINE
  5
62
100
AcDbEntity
  8
ASSEMBLY_OUTLINES_TOP
100
AcDbPolyline
 90
        4
 70
         1
 43
0.0
 10
-26.15
 20
26.1
 10
-26.15
 20
27.1
 10
-25.65
 20
27.1
 10
-25.65
 20
26.1
  0
LWPOLYLINE
  5
63
100
AcDbEntity
  8
ASSEMBLY_OUTLINES_TOP
100
AcDbPolyline
 90
        4
 70
         1
 43
0.0
 10
-26.147487
 20
48.236827
 10
-25.086827
 20
49.297487
 10
-25.652513
 20
49.863173
 10
-26.713173
 20
48.802513
  0
LWPOLYLINE
  5
64
100
AcDbEntity
  8
ASSEMBLY_OUTLINES_TOP
100
AcDbPolyline
 90
        4
 70
         1
 43
0.0
 10
-26.076777
 20
48.51967
 10
-25.36967
 20
49.226777
 10
-25.723223
 20
49.58033
 10
-26.43033
 20
48.873223
  0
LWPOLYLINE
  5
65
100
AcDbEntity
  8
ASSEMBLY_OUTLINES_TOP
100
AcDbPolyline
 90
        4
 70
         1
 43
0.0
 10
-27.2
 20
25.85
 10
-27.2
 20
27.35
 10
-26.4
 20
27.35
 10
-26.4
 20
25.85
  0
LWPOLYLINE
  5
66
100
AcDbEntity
  8
ASSEMBLY_OUTLINES_TOP
100
AcDbPolyline
 90
        4
 70
         1
 43
0.0
 10
-27.05
 20
26.1
 10
-27.05
 20
27.1
 10
-26.55
 20
27.1
 10
-26.55
 20
26.1
  0
LWPOLYLINE
  5
67
100
AcDbEntity
  8
ASSEMBLY_OUTLINES_TOP
100
AcDbPolyline
 90
        4
 70
         1
 43
0.0
 10
-28.15
 20
50.4
 10
-28.15
 20
51.2
 10
-26.65
 20
51.2
 10
-26.65
 20
50.4
  0
LWPOLYLINE
  5
68
100
AcDbEntity
  8
ASSEMBLY_OUTLINES_TOP
100
AcDbPolyline
 90
        4
 70
         1
 43
0.0
 10
-27.9
 20
50.55
 10
-27.9
 20
51.05
 10
-26.9
 20
51.05
 10
-26.9
 20
50.55
  0
LWPOLYLINE
  5
69
100
AcDbEntity
  8
ASSEMBLY_OUTLINES_TOP
100
AcDbPolyline
 90
        4
 70
         1
 43
0.1
 10
-64.25
 20
19.05
 10
-64.25
 20
22.75
 10
-58.25
 20
22.75
 10
-58.25
 20
19.05
  0
LWPOLYLINE
  5
6A
100
AcDbEntity
  8
ASSEMBLY_OUTLINES_TOP
100
AcDbPolyline
 90
        4
 70
         1
 43
0.0
 10
-24.697487
 20
49.686827
 10
-23.636827
 20
50.747487
 10
-24.202512
 20
51.313172
 10
-25.263172
 20
50.252512
  0
LWPOLYLINE
  5
6B
100
AcDbEntity
  8
ASSEMBLY_OUTLINES_TOP
100
AcDbPolyline
 90
        4
 70
         1
 43
0.0
 10
-24.626776
 20
49.96967
 10
-23.91967
 20
50.676776
 10
-24.273223
 20
51.03033
 10
-24.98033
 20
50.323223
  0
LWPOLYLINE
  5
6C
100
AcDbEntity
  8
ASSEMBLY_OUTLINES_TOP
100
AcDbPolyline
 90
        4
 70
         1
 43
0.1
 10
-45.5
 20
17.35
 10
-45.5
 20
21.05
 10
-39.5
 20
21.05
 10
-39.5
 20
17.35
  0
LWPOLYLINE
  5
6D
100
AcDbEntity
  8
ASSEMBLY_OUTLINES_TOP
100
AcDbPolyline
 90
        4
 70
         1
 43
0.0
 10
-23.85
 20
20.05
 10
-23.85
 20
21.55
 10
-23.05
 20
21.55
 10
-23.05
 20
20.05
  0
LWPOLYLINE
  5
6E
100
AcDbEntity
  8
ASSEMBLY_OUTLINES_TOP
100
AcDbPolyline
 90
        4
 70
         1
 43
0.0
 10
-23.7
 20
20.3
 10
-23.7
 20
21.3
 10
-23.2
 20
21.3
 10
-23.2
 20
20.3
  0
LWPOLYLINE
  5
6F
100
AcDbEntity
  8
ASSEMBLY_OUTLINES_TOP
100
AcDbPolyline
 90
        4
 70
         1
 43
0.0
 10
-22.75
 20
50.1
 10
-22.75
 20
50.9
 10
-21.25
 20
50.9
 10
-21.25
 20
50.1
  0
LWPOLYLINE
  5
70
100
AcDbEntity
  8
ASSEMBLY_OUTLINES_TOP
100
AcDbPolyline
 90
        4
 70
         1
 43
0.0
 10
-22.5
 20
50.25
 10
-22.5
 20
50.75
 10
-21.5
 20
50.75
 10
-21.5
 20
50.25
  0
LWPOLYLINE
  5
71
100
AcDbEntity
  8
ASSEMBLY_OUTLINES_TOP
100
AcDbPolyline
 90
        4
 70
         1
 43
0.0
 10
-22.1
 20
24.95
 10
-22.1
 20
25.75
 10
-20.6
 20
25.75
 10
-20.6
 20
24.95
  0
LWPOLYLINE
  5
72
100
AcDbEntity
  8
ASSEMBLY_OUTLINES_TOP
100
AcDbPolyline
 90
        4
 70
         1
 43
0.0
 10
-21.85
 20
25.1
 10
-21.85
 20
25.6
 10
-20.85
 20
25.6
 10
-20.85
 20
25.1
  0
LWPOLYLINE
  5
73
100
AcDbEntity
  8
ASSEMBLY_OUTLINES_TOP
100
AcDbPolyline
 90
        4
 70
         1
 43
0.0
 10
-20.45
 20
24.95
 10
-20.45
 20
25.75
 10
-18.95
 20
25.75
 10
-18.95
 20
24.95
  0
LWPOLYLINE
  5
74
100
AcDbEntity
  8
ASSEMBLY_OUTLINES_TOP
100
AcDbPolyline
 90
        4
 70
         1
 43
0.0
 10
-20.2
 20
25.1
 10
-20.2
 20
25.6
 10
-19.2
 20
25.6
 10
-19.2
 20
25.1
  0
LWPOLYLINE
  5
75
100
AcDbEntity
  8
ASSEMBLY_OUTLINES_TOP
100
AcDbPolyline
 90
        4
 70
         1
 43
0.0
 10
-19.15
 20
27.7
 10
-19.15
 20
29.2
 10
-18.35
 20
29.2
 10
-18.35
 20
27.7
  0
LWPOLYLINE
  5
76
100
AcDbEntity
  8
ASSEMBLY_OUTLINES_TOP
100
AcDbPolyline
 90
        4
 70
         1
 43
0.0
 10
-19.0
 20
27.95
 10
-19.0
 20
28.95
 10
-18.5
 20
28.95
 10
-18.5
 20
27.95
  0
LWPOLYLINE
  5
77
100
AcDbEntity
  8
ASSEMBLY_OUTLINES_TOP
100
AcDbPolyline
 90
        4
 70
         1
 43
0.0
 10
-20.05
 20
29.1
 10
-20.05
 20
30.6
 10
-19.25
 20
30.6
 10
-19.25
 20
29.1
  0
LWPOLYLINE
  5
78
100
AcDbEntity
  8
ASSEMBLY_OUTLINES_TOP
100
AcDbPolyline
 90
        4
 70
         1
 43
0.0
 10
-19.9
 20
29.35
 10
-19.9
 20
30.35
 10
-19.4
 20
30.35
 10
-19.4
 20
29.35
  0
LWPOLYLINE
  5
79
100
AcDbEntity
  8
ASSEMBLY_OUTLINES_TOP
100
AcDbPolyline
 90
        4
 70
         1
 43
0.0
 10
-17.586827
 20
39.752512
 10
-18.647487
 20
40.813173
 10
-19.213173
 20
40.247487
 10
-18.152513
 20
39.186827
  0
LWPOLYLINE
  5
7A
100
AcDbEntity
  8
ASSEMBLY_OUTLINES_TOP
100
AcDbPolyline
 90
        4
 70
         1
 43
0.0
 10
-17.86967
 20
39.823223
 10
-18.576777
 20
40.53033
 10
-18.93033
 20
40.176776
 10
-18.223223
 20
39.46967
  0
LWPOLYLINE
  5
7B
100
AcDbEntity
  8
ASSEMBLY_OUTLINES_TOP
100
AcDbPolyline
 90
        4
 70
         1
 43
0.0
 10
-21.713171
 20
30.997488
 10
-20.652511
 20
29.936827
 10
-20.086826
 20
30.502513
 10
-21.147486
 20
31.563173
  0
LWPOLYLINE
  5
7C
100
AcDbEntity
  8
ASSEMBLY_OUTLINES_TOP
100
AcDbPolyline
 90
        4
 70
         1
 43
0.0
 10
-21.430329
 20
30.926777
 10
-20.723222
 20
30.21967
 10
-20.369668
 20
30.573223
 10
-21.076775
 20
31.28033
  0
LWPOLYLINE
  5
7D
100
AcDbEntity
  8
ASSEMBLY_OUTLINES_TOP
100
AcDbPolyline
 90
        4
 70
         1
 43
0.0
 10
-19.05
 20
50.9
 10
-19.05
 20
52.4
 10
-18.25
 20
52.4
 10
-18.25
 20
50.9
  0
LWPOLYLINE
  5
7E
100
AcDbEntity
  8
ASSEMBLY_OUTLINES_TOP
100
AcDbPolyline
 90
        4
 70
         1
 43
0.0
 10
-18.9
 20
51.15
 10
-18.9
 20
52.15
 10
-18.4
 20
52.15
 10
-18.4
 20
51.15
  0
LWPOLYLINE
  5
7F
100
AcDbEntity
  8
ASSEMBLY_OUTLINES_TOP
100
AcDbPolyline
 90
        4
 70
         1
 43
0.0
 10
-17.15
 20
26.1
 10
-17.15
 20
26.9
 10
-15.65
 20
26.9
 10
-15.65
 20
26.1
  0
LWPOLYLINE
  5
80
100
AcDbEntity
  8
ASSEMBLY_OUTLINES_TOP
100
AcDbPolyline
 90
        4
 70
         1
 43
0.0
 10
-16.9
 20
26.25
 10
-16.9
 20
26.75
 10
-15.9
 20
26.75
 10
-15.9
 20
26.25
  0
LWPOLYLINE
  5
81
100
AcDbEntity
  8
ASSEMBLY_OUTLINES_TOP
100
AcDbPolyline
 90
        4
 70
         1
 43
0.0
 10
-16.2
 20
52.7
 10
-16.2
 20
53.5
 10
-14.7
 20
53.5
 10
-14.7
 20
52.7
  0
LWPOLYLINE
  5
82
100
AcDbEntity
  8
ASSEMBLY_OUTLINES_TOP
100
AcDbPolyline
 90
        4
 70
         1
 43
0.0
 10
-15.95
 20
52.85
 10
-15.95
 20
53.35
 10
-14.95
 20
53.35
 10
-14.95
 20
52.85
  0
LWPOLYLINE
  5
83
100
AcDbEntity
  8
ASSEMBLY_OUTLINES_TOP
100
AcDbPolyline
 90
        4
 70
         1
 43
0.0
 10
-13.8
 20
26.2
 10
-13.8
 20
27.0
 10
-12.3
 20
27.0
 10
-12.3
 20
26.2
  0
LWPOLYLINE
  5
84
100
AcDbEntity
  8
ASSEMBLY_OUTLINES_TOP
100
AcDbPolyline
 90
        4
 70
         1
 43
0.0
 10
-13.55
 20
26.35
 10
-13.55
 20
26.85
 10
-12.55
 20
26.85
 10
-12.55
 20
26.35
  0
LWPOLYLINE
  5
85
100
AcDbEntity
  8
ASSEMBLY_OUTLINES_TOP
100
AcDbPolyline
 90
        4
 70
         1
 43
0.0
 10
-13.8
 20
52.7
 10
-13.8
 20
53.5
 10
-12.3
 20
53.5
 10
-12.3
 20
52.7
  0
LWPOLYLINE
  5
86
100
AcDbEntity
  8
ASSEMBLY_OUTLINES_TOP
100
AcDbPolyline
 90
        4
 70
         1
 43
0.0
 10
-13.55
 20
52.85
 10
-13.55
 20
53.35
 10
-12.55
 20
53.35
 10
-12.55
 20
52.85
  0
LWPOLYLINE
  5
87
100
AcDbEntity
  8
ASSEMBLY_OUTLINES_TOP
100
AcDbPolyline
 90
        4
 70
         1
 43
0.0
 10
-11.8
 20
26.15
 10
-11.8
 20
26.95
 10
-10.3
 20
26.95
 10
-10.3
 20
26.15
  0
LWPOLYLINE
  5
88
100
AcDbEntity
  8
ASSEMBLY_OUTLINES_TOP
100
AcDbPolyline
 90
        4
 70
         1
 43
0.0
 10
-11.55
 20
26.3
 10
-11.55
 20
26.8
 10
-10.55
 20
26.8
 10
-10.55
 20
26.3
  0
LWPOLYLINE
  5
89
100
AcDbEntity
  8
ASSEMBLY_OUTLINES_TOP
100
AcDbPolyline
 90
        4
 70
         1
 43
0.0
 10
-9.55
 20
23.95
 10
-9.55
 20
24.75
 10
-8.05
 20
24.75
 10
-8.05
 20
23.95
  0
LWPOLYLINE
  5
8A
100
AcDbEntity
  8
ASSEMBLY_OUTLINES_TOP
100
AcDbPolyline
 90
        4
 70
         1
 43
0.0
 10
-9.3
 20
24.1
 10
-9.3
 20
24.6
 10
-8.3
 20
24.6
 10
-8.3
 20
24.1
  0
LWPOLYLINE
  5
8B
100
AcDbEntity
  8
ASSEMBLY_OUTLINES_TOP
100
AcDbPolyline
 90
        4
 70
         1
 43
0.0
 10
-8.25
 20
26.2
 10
-8.25
 20
27.0
 10
-6.75
 20
27.0
 10
-6.75
 20
26.2
  0
LWPOLYLINE
  5
8C
100
AcDbEntity
  8
ASSEMBLY_OUTLINES_TOP
100
AcDbPolyline
 90
        4
 70
         1
 43
0.0
 10
-8.0
 20
26.35
 10
-8.0
 20
26.85
 10
-7.0
 20
26.85
 10
-7.0
 20
26.35
  0
LWPOLYLINE
  5
8D
100
AcDbEntity
  8
ASSEMBLY_OUTLINES_TOP
100
AcDbPolyline
 90
        4
 70
         1
 43
0.0
 10
-6.25
 20
52.7
 10
-6.25
 20
53.5
 10
-4.75
 20
53.5
 10
-4.75
 20
52.7
  0
LWPOLYLINE
  5
8E
100
AcDbEntity
  8
ASSEMBLY_OUTLINES_TOP
100
AcDbPolyline
 90
        4
 70
         1
 43
0.0
 10
-6.0
 20
52.85
 10
-6.0
 20
53.35
 10
-5.0
 20
53.35
 10
-5.0
 20
52.85
  0
LWPOLYLINE
  5
8F
100
AcDbEntity
  8
ASSEMBLY_OUTLINES_TOP
100
AcDbPolyline
 90
        4
 70
         1
 43
0.0
 10
-3.4
 20
25.95
 10
-3.4
 20
26.75
 10
-1.9
 20
26.75
 10
-1.9
 20
25.95
  0
LWPOLYLINE
  5
90
100
AcDbEntity
  8
ASSEMBLY_OUTLINES_TOP
100
AcDbPolyline
 90
        4
 70
         1
 43
0.0
 10
-3.15
 20
26.1
 10
-3.15
 20
26.6
 10
-2.15
 20
26.6
 10
-2.15
 20
26.1
  0
LWPOLYLINE
  5
91
100
AcDbEntity
  8
ASSEMBLY_OUTLINES_TOP
100
AcDbPolyline
 90
        4
 70
         1
 43
0.1
 10
-64.15
 20
7.2
 10
-64.15
 20
8.2
 10
-61.65
 20
8.2
 10
-61.65
 20
7.2
  0
LWPOLYLINE
  5
92
100
AcDbEntity
  8
ASSEMBLY_OUTLINES_TOP
100
AcDbPolyline
 90
        2
 70
         0
 43
0.1
 10
-64.15
 20
7.3
 10
-64.05
 20
7.2
  0
LWPOLYLINE
  5
93
100
AcDbEntity
  8
ASSEMBLY_OUTLINES_TOP
100
AcDbPolyline
 90
        2
 70
         0
 43
0.1
 10
-64.15
 20
7.4
 10
-63.95
 20
7.2
  0
LWPOLYLINE
  5
94
100
AcDbEntity
  8
ASSEMBLY_OUTLINES_TOP
100
AcDbPolyline
 90
        2
 70
         0
 43
0.1
 10
-64.15
 20
7.5
 10
-63.85
 20
7.2
  0
LWPOLYLINE
  5
95
100
AcDbEntity
  8
ASSEMBLY_OUTLINES_TOP
100
AcDbPolyline
 90
        2
 70
         0
 43
0.1
 10
-64.15
 20
7.6
 10
-63.75
 20
7.2
  0
LWPOLYLINE
  5
96
100
AcDbEntity
  8
ASSEMBLY_OUTLINES_TOP
100
AcDbPolyline
 90
        2
 70
         0
 43
0.1
 10
-64.15
 20
7.7
 10
-63.65
 20
7.2
  0
LWPOLYLINE
  5
97
100
AcDbEntity
  8
ASSEMBLY_OUTLINES_TOP
100
AcDbPolyline
 90
        2
 70
         0
 43
0.1
 10
-64.15
 20
7.8
 10
-63.55
 20
7.2
  0
LWPOLYLINE
  5
98
100
AcDbEntity
  8
ASSEMBLY_OUTLINES_TOP
100
AcDbPolyline
 90
        2
 70
         0
 43
0.1
 10
-64.15
 20
7.9
 10
-63.45
 20
7.2
  0
LWPOLYLINE
  5
99
100
AcDbEntity
  8
ASSEMBLY_OUTLINES_TOP
100
AcDbPolyline
 90
        2
 70
         0
 43
0.1
 10
-64.15
 20
8.0
 10
-63.35
 20
7.2
  0
LWPOLYLINE
  5
9A
100
AcDbEntity
  8
ASSEMBLY_OUTLINES_TOP
100
AcDbPolyline
 90
        2
 70
         0
 43
0.1
 10
-64.15
 20
8.1
 10
-63.25
 20
7.2
  0
LWPOLYLINE
  5
9B
100
AcDbEntity
  8
ASSEMBLY_OUTLINES_TOP
100
AcDbPolyline
 90
        2
 70
         0
 43
0.1
 10
-64.15
 20
8.2
 10
-63.15
 20
7.2
  0
LWPOLYLINE
  5
9C
100
AcDbEntity
  8
ASSEMBLY_OUTLINES_TOP
100
AcDbPolyline
 90
        4
 70
         1
 43
0.1
 10
-31.25
 20
13.1
 10
-31.25
 20
14.1
 10
-28.75
 20
14.1
 10
-28.75
 20
13.1
  0
LWPOLYLINE
  5
9D
100
AcDbEntity
  8
ASSEMBLY_OUTLINES_TOP
100
AcDbPolyline
 90
        2
 70
         0
 43
0.1
 10
-31.25
 20
13.2
 10
-31.15
 20
13.1
  0
LWPOLYLINE
  5
9E
100
AcDbEntity
  8
ASSEMBLY_OUTLINES_TOP
100
AcDbPolyline
 90
        2
 70
         0
 43
0.1
 10
-31.25
 20
13.3
 10
-31.05
 20
13.1
  0
LWPOLYLINE
  5
9F
100
AcDbEntity
  8
ASSEMBLY_OUTLINES_TOP
100
AcDbPolyline
 90
        2
 70
         0
 43
0.1
 10
-31.25
 20
13.4
 10
-30.95
 20
13.1
  0
LWPOLYLINE
  5
A0
100
AcDbEntity
  8
ASSEMBLY_OUTLINES_TOP
100
AcDbPolyline
 90
        2
 70
         0
 43
0.1
 10
-31.25
 20
13.5
 10
-30.85
 20
13.1
  0
LWPOLYLINE
  5
A1
100
AcDbEntity
  8
ASSEMBLY_OUTLINES_TOP
100
AcDbPolyline
 90
        2
 70
         0
 43
0.1
 10
-31.25
 20
13.6
 10
-30.75
 20
13.1
  0
LWPOLYLINE
  5
A2
100
AcDbEntity
  8
ASSEMBLY_OUTLINES_TOP
100
AcDbPolyline
 90
        2
 70
         0
 43
0.1
 10
-31.25
 20
13.7
 10
-30.65
 20
13.1
  0
LWPOLYLINE
  5
A3
100
AcDbEntity
  8
ASSEMBLY_OUTLINES_TOP
100
AcDbPolyline
 90
        2
 70
         0
 43
0.1
 10
-31.25
 20
13.8
 10
-30.55
 20
13.1
  0
LWPOLYLINE
  5
A4
100
AcDbEntity
  8
ASSEMBLY_OUTLINES_TOP
100
AcDbPolyline
 90
        2
 70
         0
 43
0.1
 10
-31.25
 20
13.9
 10
-30.45
 20
13.1
  0
LWPOLYLINE
  5
A5
100
AcDbEntity
  8
ASSEMBLY_OUTLINES_TOP
100
AcDbPolyline
 90
        2
 70
         0
 43
0.1
 10
-31.25
 20
14.0
 10
-30.35
 20
13.1
  0
LWPOLYLINE
  5
A6
100
AcDbEntity
  8
ASSEMBLY_OUTLINES_TOP
100
AcDbPolyline
 90
        2
 70
         0
 43
0.1
 10
-31.25
 20
14.1
 10
-30.25
 20
13.1
  0
LWPOLYLINE
  5
A7
100
AcDbEntity
  8
ASSEMBLY_OUTLINES_TOP
100
AcDbPolyline
 90
        4
 70
         1
 43
0.1
 10
-28.05
 20
13.3
 10
-28.05
 20
14.3
 10
-25.55
 20
14.3
 10
-25.55
 20
13.3
  0
LWPOLYLINE
  5
A8
100
AcDbEntity
  8
ASSEMBLY_OUTLINES_TOP
100
AcDbPolyline
 90
        2
 70
         0
 43
0.1
 10
-25.55
 20
14.2
 10
-25.65
 20
14.3
  0
LWPOLYLINE
  5
A9
100
AcDbEntity
  8
ASSEMBLY_OUTLINES_TOP
100
AcDbPolyline
 90
        2
 70
         0
 43
0.1
 10
-25.55
 20
14.1
 10
-25.75
 20
14.3
  0
LWPOLYLINE
  5
AA
100
AcDbEntity
  8
ASSEMBLY_OUTLINES_TOP
100
AcDbPolyline
 90
        2
 70
         0
 43
0.1
 10
-25.55
 20
14.0
 10
-25.85
 20
14.3
  0
LWPOLYLINE
  5
AB
100
AcDbEntity
  8
ASSEMBLY_OUTLINES_TOP
100
AcDbPolyline
 90
        2
 70
         0
 43
0.1
 10
-25.55
 20
13.9
 10
-25.95
 20
14.3
  0
LWPOLYLINE
  5
AC
100
AcDbEntity
  8
ASSEMBLY_OUTLINES_TOP
100
AcDbPolyline
 90
        2
 70
         0
 43
0.1
 10
-25.55
 20
13.8
 10
-26.05
 20
14.3
  0
LWPOLYLINE
  5
AD
100
AcDbEntity
  8
ASSEMBLY_OUTLINES_TOP
100
AcDbPolyline
 90
        2
 70
         0
 43
0.1
 10
-25.55
 20
13.7
 10
-26.15
 20
14.3
  0
LWPOLYLINE
  5
AE
100
AcDbEntity
  8
ASSEMBLY_OUTLINES_TOP
100
AcDbPolyline
 90
        2
 70
         0
 43
0.1
 10
-25.55
 20
13.6
 10
-26.25
 20
14.3
  0
LWPOLYLINE
  5
AF
100
AcDbEntity
  8
ASSEMBLY_OUTLINES_TOP
100
AcDbPolyline
 90
        2
 70
         0
 43
0.1
 10
-25.55
 20
13.5
 10
-26.35
 20
14.3
  0
LWPOLYLINE
  5
B0
100
AcDbEntity
  8
ASSEMBLY_OUTLINES_TOP
100
AcDbPolyline
 90
        2
 70
         0
 43
0.1
 10
-25.55
 20
13.4
 10
-26.45
 20
14.3
  0
LWPOLYLINE
  5
B1
100
AcDbEntity
  8
ASSEMBLY_OUTLINES_TOP
100
AcDbPolyline
 90
        2
 70
         0
 43
0.1
 10
-25.55
 20
13.3
 10
-26.55
 20
14.3
  0
LWPOLYLINE
  5
B2
100
AcDbEntity
  8
ASSEMBLY_OUTLINES_TOP
100
AcDbPolyline
 90
        4
 70
         1
 43
0.1
 10
-25.15
 20
13.3
 10
-25.15
 20
14.3
 10
-22.65
 20
14.3
 10
-22.65
 20
13.3
  0
LWPOLYLINE
  5
B3
100
AcDbEntity
  8
ASSEMBLY_OUTLINES_TOP
100
AcDbPolyline
 90
        2
 70
         0
 43
0.1
 10
-22.65
 20
14.2
 10
-22.75
 20
14.3
  0
LWPOLYLINE
  5
B4
100
AcDbEntity
  8
ASSEMBLY_OUTLINES_TOP
100
AcDbPolyline
 90
        2
 70
         0
 43
0.1
 10
-22.65
 20
14.1
 10
-22.85
 20
14.3
  0
LWPOLYLINE
  5
B5
100
AcDbEntity
  8
ASSEMBLY_OUTLINES_TOP
100
AcDbPolyline
 90
        2
 70
         0
 43
0.1
 10
-22.65
 20
14.0
 10
-22.95
 20
14.3
  0
LWPOLYLINE
  5
B6
100
AcDbEntity
  8
ASSEMBLY_OUTLINES_TOP
100
AcDbPolyline
 90
        2
 70
         0
 43
0.1
 10
-22.65
 20
13.9
 10
-23.05
 20
14.3
  0
LWPOLYLINE
  5
B7
100
AcDbEntity
  8
ASSEMBLY_OUTLINES_TOP
100
AcDbPolyline
 90
        2
 70
         0
 43
0.1
 10
-22.65
 20
13.8
 10
-23.15
 20
14.3
  0
LWPOLYLINE
  5
B8
100
AcDbEntity
  8
ASSEMBLY_OUTLINES_TOP
100
AcDbPolyline
 90
        2
 70
         0
 43
0.1
 10
-22.65
 20
13.7
 10
-23.25
 20
14.3
  0
LWPOLYLINE
  5
B9
100
AcDbEntity
  8
ASSEMBLY_OUTLINES_TOP
100
AcDbPolyline
 90
        2
 70
         0
 43
0.1
 10
-22.65
 20
13.6
 10
-23.35
 20
14.3
  0
LWPOLYLINE
  5
BA
100
AcDbEntity
  8
ASSEMBLY_OUTLINES_TOP
100
AcDbPolyline
 90
        2
 70
         0
 43
0.1
 10
-22.65
 20
13.5
 10
-23.45
 20
14.3
  0
LWPOLYLINE
  5
BB
100
AcDbEntity
  8
ASSEMBLY_OUTLINES_TOP
100
AcDbPolyline
 90
        2
 70
         0
 43
0.1
 10
-22.65
 20
13.4
 10
-23.55
 20
14.3
  0
LWPOLYLINE
  5
BC
100
AcDbEntity
  8
ASSEMBLY_OUTLINES_TOP
100
AcDbPolyline
 90
        2
 70
         0
 43
0.1
 10
-22.65
 20
13.3
 10
-23.65
 20
14.3
  0
LWPOLYLINE
  5
BD
100
AcDbEntity
  8
ASSEMBLY_OUTLINES_TOP
100
AcDbPolyline
 90
        4
 70
         1
 43
0.1
 10
-16.0
 20
22.85
 10
-16.0
 20
25.35
 10
-15.0
 20
25.35
 10
-15.0
 20
22.85
  0
LWPOLYLINE
  5
BE
100
AcDbEntity
  8
ASSEMBLY_OUTLINES_TOP
100
AcDbPolyline
 90
        2
 70
         0
 43
0.1
 10
-15.1
 20
22.85
 10
-15.0
 20
22.95
  0
LWPOLYLINE
  5
BF
100
AcDbEntity
  8
ASSEMBLY_OUTLINES_TOP
100
AcDbPolyline
 90
        2
 70
         0
 43
0.1
 10
-15.2
 20
22.85
 10
-15.0
 20
23.05
  0
LWPOLYLINE
  5
C0
100
AcDbEntity
  8
ASSEMBLY_OUTLINES_TOP
100
AcDbPolyline
 90
        2
 70
         0
 43
0.1
 10
-15.3
 20
22.85
 10
-15.0
 20
23.15
  0
LWPOLYLINE
  5
C1
100
AcDbEntity
  8
ASSEMBLY_OUTLINES_TOP
100
AcDbPolyline
 90
        2
 70
         0
 43
0.1
 10
-15.4
 20
22.85
 10
-15.0
 20
23.25
  0
LWPOLYLINE
  5
C2
100
AcDbEntity
  8
ASSEMBLY_OUTLINES_TOP
100
AcDbPolyline
 90
        2
 70
         0
 43
0.1
 10
-15.5
 20
22.85
 10
-15.0
 20
23.35
  0
LWPOLYLINE
  5
C3
100
AcDbEntity
  8
ASSEMBLY_OUTLINES_TOP
100
AcDbPolyline
 90
        2
 70
         0
 43
0.1
 10
-15.6
 20
22.85
 10
-15.0
 20
23.45
  0
LWPOLYLINE
  5
C4
100
AcDbEntity
  8
ASSEMBLY_OUTLINES_TOP
100
AcDbPolyline
 90
        2
 70
         0
 43
0.1
 10
-15.7
 20
22.85
 10
-15.0
 20
23.55
  0
LWPOLYLINE
  5
C5
100
AcDbEntity
  8
ASSEMBLY_OUTLINES_TOP
100
AcDbPolyline
 90
        2
 70
         0
 43
0.1
 10
-15.8
 20
22.85
 10
-15.0
 20
23.65
  0
LWPOLYLINE
  5
C6
100
AcDbEntity
  8
ASSEMBLY_OUTLINES_TOP
100
AcDbPolyline
 90
        2
 70
         0
 43
0.1
 10
-15.9
 20
22.85
 10
-15.0
 20
23.75
  0
LWPOLYLINE
  5
C7
100
AcDbEntity
  8
ASSEMBLY_OUTLINES_TOP
100
AcDbPolyline
 90
        2
 70
         0
 43
0.1
 10
-16.0
 20
22.85
 10
-15.0
 20
23.85
  0
LWPOLYLINE
  5
C8
100
AcDbEntity
  8
ASSEMBLY_OUTLINES_TOP
100
AcDbPolyline
 90
        4
 70
         1
 43
0.0
 10
-3.85
 20
35.65
 10
-3.85
 20
36.45
 10
-2.35
 20
36.45
 10
-2.35
 20
35.65
  0
LWPOLYLINE
  5
C9
100
AcDbEntity
  8
ASSEMBLY_OUTLINES_TOP
100
AcDbPolyline
 90
        4
 70
         1
 43
0.0
 10
-3.6
 20
35.8
 10
-3.6
 20
36.3
 10
-2.6
 20
36.3
 10
-2.6
 20
35.8
  0
LWPOLYLINE
  5
CA
100
AcDbEntity
  8
ASSEMBLY_OUTLINES_TOP
100
AcDbPolyline
 90
        4
 70
         1
 43
0.1
 10
-61.65
 20
29.05
 10
-61.65
 20
37.05
 10
-53.65
 20
37.05
 10
-53.65
 20
29.05
  0
LWPOLYLINE
  5
CB
100
AcDbEntity
  8
ASSEMBLY_OUTLINES_TOP
100
AcDbPolyline
 90
        2
 70
         1
 43
0.1
 10
-55.15
 20
30.05
 42
-1.000000
 10
-54.15
 20
30.05
 42
-1.000000
  0
LWPOLYLINE
  5
CC
100
AcDbEntity
  8
ASSEMBLY_OUTLINES_TOP
100
AcDbPolyline
 90
        4
 70
         1
 43
0.1
 10
-60.4
 20
41.55
 10
-60.4
 20
53.05
 10
-47.4
 20
53.05
 10
-47.4
 20
41.55
  0
LWPOLYLINE
  5
CD
100
AcDbEntity
  8
ASSEMBLY_OUTLINES_TOP
100
AcDbPolyline
 90
        2
 70
         0
 43
0.1
 10
-47.4
 20
52.95
 10
-47.5
 20
53.05
  0
LWPOLYLINE
  5
CE
100
AcDbEntity
  8
ASSEMBLY_OUTLINES_TOP
100
AcDbPolyline
 90
        2
 70
         0
 43
0.1
 10
-47.4
 20
52.85
 10
-47.6
 20
53.05
  0
LWPOLYLINE
  5
CF
100
AcDbEntity
  8
ASSEMBLY_OUTLINES_TOP
100
AcDbPolyline
 90
        2
 70
         0
 43
0.1
 10
-47.4
 20
52.75
 10
-47.7
 20
53.05
  0
LWPOLYLINE
  5
D0
100
AcDbEntity
  8
ASSEMBLY_OUTLINES_TOP
100
AcDbPolyline
 90
        2
 70
         0
 43
0.1
 10
-47.4
 20
52.65
 10
-47.8
 20
53.05
  0
LWPOLYLINE
  5
D1
100
AcDbEntity
  8
ASSEMBLY_OUTLINES_TOP
100
AcDbPolyline
 90
        2
 70
         0
 43
0.1
 10
-47.4
 20
52.55
 10
-47.9
 20
53.05
  0
LWPOLYLINE
  5
D2
100
AcDbEntity
  8
ASSEMBLY_OUTLINES_TOP
100
AcDbPolyline
 90
        2
 70
         0
 43
0.1
 10
-47.4
 20
52.45
 10
-48.0
 20
53.05
  0
LWPOLYLINE
  5
D3
100
AcDbEntity
  8
ASSEMBLY_OUTLINES_TOP
100
AcDbPolyline
 90
        2
 70
         0
 43
0.1
 10
-47.4
 20
52.35
 10
-48.1
 20
53.05
  0
LWPOLYLINE
  5
D4
100
AcDbEntity
  8
ASSEMBLY_OUTLINES_TOP
100
AcDbPolyline
 90
        2
 70
         0
 43
0.1
 10
-47.4
 20
52.25
 10
-48.2
 20
53.05
  0
LWPOLYLINE
  5
D5
100
AcDbEntity
  8
ASSEMBLY_OUTLINES_TOP
100
AcDbPolyline
 90
        2
 70
         0
 43
0.1
 10
-47.4
 20
52.15
 10
-48.3
 20
53.05
  0
LWPOLYLINE
  5
D6
100
AcDbEntity
  8
ASSEMBLY_OUTLINES_TOP
100
AcDbPolyline
 90
        2
 70
         0
 43
0.1
 10
-47.4
 20
52.05
 10
-48.4
 20
53.05
  0
LWPOLYLINE
  5
D7
100
AcDbEntity
  8
ASSEMBLY_OUTLINES_TOP
100
AcDbPolyline
 90
        4
 70
         1
 43
0.1
 10
-58.9
 20
41.8
 10
-58.9
 20
52.8
 10
-48.9
 20
52.8
 10
-48.9
 20
41.8
  0
LWPOLYLINE
  5
D8
100
AcDbEntity
  8
ASSEMBLY_OUTLINES_TOP
100
AcDbPolyline
 90
        4
 70
         1
 43
0.1
 10
-34.85
 20
20.6
 10
-34.85
 20
24.6
 10
-30.85
 20
24.6
 10
-30.85
 20
20.6
  0
LWPOLYLINE
  5
D9
100
AcDbEntity
  8
ASSEMBLY_OUTLINES_TOP
100
AcDbPolyline
 90
        2
 70
         0
 43
0.1
 10
-30.95
 20
20.6
 10
-30.85
 20
20.7
  0
LWPOLYLINE
  5
DA
100
AcDbEntity
  8
ASSEMBLY_OUTLINES_TOP
100
AcDbPolyline
 90
        2
 70
         0
 43
0.1
 10
-31.05
 20
20.6
 10
-30.85
 20
20.8
  0
LWPOLYLINE
  5
DB
100
AcDbEntity
  8
ASSEMBLY_OUTLINES_TOP
100
AcDbPolyline
 90
        2
 70
         0
 43
0.1
 10
-31.15
 20
20.6
 10
-30.85
 20
20.9
  0
LWPOLYLINE
  5
DC
100
AcDbEntity
  8
ASSEMBLY_OUTLINES_TOP
100
AcDbPolyline
 90
        2
 70
         0
 43
0.1
 10
-31.25
 20
20.6
 10
-30.85
 20
21.0
  0
LWPOLYLINE
  5
DD
100
AcDbEntity
  8
ASSEMBLY_OUTLINES_TOP
100
AcDbPolyline
 90
        2
 70
         0
 43
0.1
 10
-31.35
 20
20.6
 10
-30.85
 20
21.1
  0
LWPOLYLINE
  5
DE
100
AcDbEntity
  8
ASSEMBLY_OUTLINES_TOP
100
AcDbPolyline
 90
        2
 70
         0
 43
0.1
 10
-31.45
 20
20.6
 10
-30.85
 20
21.2
  0
LWPOLYLINE
  5
DF
100
AcDbEntity
  8
ASSEMBLY_OUTLINES_TOP
100
AcDbPolyline
 90
        2
 70
         0
 43
0.1
 10
-31.55
 20
20.6
 10
-30.85
 20
21.3
  0
LWPOLYLINE
  5
E0
100
AcDbEntity
  8
ASSEMBLY_OUTLINES_TOP
100
AcDbPolyline
 90
        2
 70
         0
 43
0.1
 10
-31.65
 20
20.6
 10
-30.85
 20
21.4
  0
LWPOLYLINE
  5
E1
100
AcDbEntity
  8
ASSEMBLY_OUTLINES_TOP
100
AcDbPolyline
 90
        2
 70
         0
 43
0.1
 10
-31.75
 20
20.6
 10
-30.85
 20
21.5
  0
LWPOLYLINE
  5
E2
100
AcDbEntity
  8
ASSEMBLY_OUTLINES_TOP
100
AcDbPolyline
 90
        2
 70
         0
 43
0.1
 10
-31.85
 20
20.6
 10
-30.85
 20
21.6
  0
LWPOLYLINE
  5
E3
100
AcDbEntity
  8
ASSEMBLY_OUTLINES_TOP
100
AcDbPolyline
 90
        4
 70
         1
 43
0.0
 10
-38.449378
 20
28.057776
 10
-38.449378
 20
44.057744
 10
-22.44941
 20
44.057744
 10
-22.44941
 20
28.057776
  0
LWPOLYLINE
  5
E4
100
AcDbEntity
  8
ASSEMBLY_OUTLINES_TOP
100
AcDbPolyline
 90
        4
 70
         1
 43
0.1
 10
-17.735716
 20
27.176786
 10
-17.735716
 20
37.176786
 10
-4.435716
 20
37.176786
 10
-4.435716
 20
27.176786
  0
LWPOLYLINE
  5
E5
100
AcDbEntity
  8
ASSEMBLY_OUTLINES_TOP
100
AcDbPolyline
 90
        2
 70
         0
 43
0.1
 10
-17.735716
 20
27.276786
 10
-17.635716
 20
27.176786
  0
LWPOLYLINE
  5
E6
100
AcDbEntity
  8
ASSEMBLY_OUTLINES_TOP
100
AcDbPolyline
 90
        2
 70
         0
 43
0.1
 10
-17.735716
 20
27.376786
 10
-17.535716
 20
27.176786
  0
LWPOLYLINE
  5
E7
100
AcDbEntity
  8
ASSEMBLY_OUTLINES_TOP
100
AcDbPolyline
 90
        2
 70
         0
 43
0.1
 10
-17.735716
 20
27.476786
 10
-17.435716
 20
27.176786
  0
LWPOLYLINE
  5
E8
100
AcDbEntity
  8
ASSEMBLY_OUTLINES_TOP
100
AcDbPolyline
 90
        2
 70
         0
 43
0.1
 10
-17.735716
 20
27.576786
 10
-17.335716
 20
27.176786
  0
LWPOLYLINE
  5
E9
100
AcDbEntity
  8
ASSEMBLY_OUTLINES_TOP
100
AcDbPolyline
 90
        2
 70
         0
 43
0.1
 10
-17.735716
 20
27.676786
 10
-17.235716
 20
27.176786
  0
LWPOLYLINE
  5
EA
100
AcDbEntity
  8
ASSEMBLY_OUTLINES_TOP
100
AcDbPolyline
 90
        2
 70
         0
 43
0.1
 10
-17.735716
 20
27.776786
 10
-17.135716
 20
27.176786
  0
LWPOLYLINE
  5
EB
100
AcDbEntity
  8
ASSEMBLY_OUTLINES_TOP
100
AcDbPolyline
 90
        2
 70
         0
 43
0.1
 10
-17.735716
 20
27.876786
 10
-17.035716
 20
27.176786
  0
LWPOLYLINE
  5
EC
100
AcDbEntity
  8
ASSEMBLY_OUTLINES_TOP
100
AcDbPolyline
 90
        2
 70
         0
 43
0.1
 10
-17.735716
 20
27.976786
 10
-16.935716
 20
27.176786
  0
LWPOLYLINE
  5
ED
100
AcDbEntity
  8
ASSEMBLY_OUTLINES_TOP
100
AcDbPolyline
 90
        2
 70
         0
 43
0.1
 10
-17.735716
 20
28.076786
 10
-16.835716
 20
27.176786
  0
LWPOLYLINE
  5
EE
100
AcDbEntity
  8
ASSEMBLY_OUTLINES_TOP
100
AcDbPolyline
 90
        2
 70
         0
 43
0.1
 10
-17.735716
 20
28.176786
 10
-16.735716
 20
27.176786
  0
LWPOLYLINE
  5
EF
100
AcDbEntity
  8
ASSEMBLY_OUTLINES_TOP
100
AcDbPolyline
 90
        4
 70
         1
 43
0.1
 10
-17.735716
 20
28.426786
 10
-17.735716
 20
35.926786
 10
-4.435716
 20
35.926786
 10
-4.435716
 20
28.426786
  0
LWPOLYLINE
  5
F0
100
AcDbEntity
  8
ASSEMBLY_OUTLINES_TOP
100
AcDbPolyline
 90
        4
 70
         1
 43
0.1
 10
-18.085716
 20
27.676786
 10
-18.085716
 20
36.676786
 10
-4.085716
 20
36.676786
 10
-4.085716
 20
27.676786
  0
LWPOLYLINE
  5
F1
100
AcDbEntity
  8
ASSEMBLY_OUTLINES_TOP
100
AcDbPolyline
 90
        4
 70
         1
 43
0.1
 10
-66.65
 20
7.25
 10
-66.65
 20
8.05
 10
-65.45
 20
8.05
 10
-65.45
 20
7.25
  0
LWPOLYLINE
  5
F2
100
AcDbEntity
  8
ASSEMBLY_OUTLINES_TOP
100
AcDbPolyline
 90
        2
 70
         0
 43
0.1
 10
-65.45
 20
8.05
 10
-65.45
 20
7.25
  0
LWPOLYLINE
  5
F3
100
AcDbEntity
  8
ASSEMBLY_OUTLINES_TOP
100
AcDbPolyline
 90
        2
 70
         0
 43
0.1
 10
-65.55
 20
8.05
 10
-65.55
 20
7.25
  0
LWPOLYLINE
  5
F4
100
AcDbEntity
  8
ASSEMBLY_OUTLINES_TOP
100
AcDbPolyline
 90
        2
 70
         0
 43
0.1
 10
-65.65
 20
8.05
 10
-65.65
 20
7.25
  0
LWPOLYLINE
  5
F5
100
AcDbEntity
  8
ASSEMBLY_OUTLINES_TOP
100
AcDbPolyline
 90
        2
 70
         0
 43
0.1
 10
-65.75
 20
8.05
 10
-65.75
 20
7.25
  0
LWPOLYLINE
  5
F6
100
AcDbEntity
  8
ASSEMBLY_OUTLINES_TOP
100
AcDbPolyline
 90
        2
 70
         0
 43
0.1
 10
-65.85
 20
8.05
 10
-65.85
 20
7.25
  0
LWPOLYLINE
  5
F7
100
AcDbEntity
  8
ASSEMBLY_OUTLINES_TOP
100
AcDbPolyline
 90
        2
 70
         0
 43
0.1
 10
-65.95
 20
8.05
 10
-65.95
 20
7.25
  0
LWPOLYLINE
  5
F8
100
AcDbEntity
  8
ASSEMBLY_OUTLINES_TOP
100
AcDbPolyline
 90
        4
 70
         1
 43
0.1
 10
-17.735716
 20
42.54384
 10
-17.735716
 20
52.54384
 10
-4.435716
 20
52.54384
 10
-4.435716
 20
42.54384
  0
LWPOLYLINE
  5
F9
100
AcDbEntity
  8
ASSEMBLY_OUTLINES_TOP
100
AcDbPolyline
 90
        2
 70
         0
 43
0.1
 10
-17.735716
 20
42.64384
 10
-17.635716
 20
42.54384
  0
LWPOLYLINE
  5
FA
100
AcDbEntity
  8
ASSEMBLY_OUTLINES_TOP
100
AcDbPolyline
 90
        2
 70
         0
 43
0.1
 10
-17.735716
 20
42.74384
 10
-17.535716
 20
42.54384
  0
LWPOLYLINE
  5
FB
100
AcDbEntity
  8
ASSEMBLY_OUTLINES_TOP
100
AcDbPolyline
 90
        2
 70
         0
 43
0.1
 10
-17.735716
 20
42.84384
 10
-17.435716
 20
42.54384
  0
LWPOLYLINE
  5
FC
100
AcDbEntity
  8
ASSEMBLY_OUTLINES_TOP
100
AcDbPolyline
 90
        2
 70
         0
 43
0.1
 10
-17.735716
 20
42.94384
 10
-17.335716
 20
42.54384
  0
LWPOLYLINE
  5
FD
100
AcDbEntity
  8
ASSEMBLY_OUTLINES_TOP
100
AcDbPolyline
 90
        2
 70
         0
 43
0.1
 10
-17.735716
 20
43.04384
 10
-17.235716
 20
42.54384
  0
LWPOLYLINE
  5
FE
100
AcDbEntity
  8
ASSEMBLY_OUTLINES_TOP
100
AcDbPolyline
 90
        2
 70
         0
 43
0.1
 10
-17.735716
 20
43.14384
 10
-17.135716
 20
42.54384
  0
LWPOLYLINE
  5
FF
100
AcDbEntity
  8
ASSEMBLY_OUTLINES_TOP
100
AcDbPolyline
 90
        2
 70
         0
 43
0.1
 10
-17.735716
 20
43.24384
 10
-17.035716
 20
42.54384
  0
LWPOLYLINE
  5
100
100
AcDbEntity
  8
ASSEMBLY_OUTLINES_TOP
100
AcDbPolyline
 90
        2
 70
         0
 43
0.1
 10
-17.735716
 20
43.34384
 10
-16.935716
 20
42.54384
  0
LWPOLYLINE
  5
101
100
AcDbEntity
  8
ASSEMBLY_OUTLINES_TOP
100
AcDbPolyline
 90
        2
 70
         0
 43
0.1
 10
-17.735716
 20
43.44384
 10
-16.835716
 20
42.54384
  0
LWPOLYLINE
  5
102
100
AcDbEntity
  8
ASSEMBLY_OUTLINES_TOP
100
AcDbPolyline
 90
        2
 70
         0
 43
0.1
 10
-17.735716
 20
43.54384
 10
-16.735716
 20
42.54384
  0
LWPOLYLINE
  5
103
100
AcDbEntity
  8
ASSEMBLY_OUTLINES_TOP
100
AcDbPolyline
 90
        4
 70
         1
 43
0.1
 10
-17.735716
 20
43.79384
 10
-17.735716
 20
51.29384
 10
-4.435716
 20
51.29384
 10
-4.435716
 20
43.79384
  0
LWPOLYLINE
  5
104
100
AcDbEntity
  8
ASSEMBLY_OUTLINES_TOP
100
AcDbPolyline
 90
        4
 70
         1
 43
0.1
 10
-18.085716
 20
43.04384
 10
-18.085716
 20
52.04384
 10
-4.085716
 20
52.04384
 10
-4.085716
 20
43.04384
  0
LWPOLYLINE
  5
105
100
AcDbEntity
  8
ASSEMBLY_OUTLINES_TOP
100
AcDbPolyline
 90
        4
 70
         1
 43
0.0
 10
-2.2
 20
35.65
 10
-2.2
 20
37.15
 10
-1.4
 20
37.15
 10
-1.4
 20
35.65
  0
LWPOLYLINE
  5
106
100
AcDbEntity
  8
ASSEMBLY_OUTLINES_TOP
100
AcDbPolyline
 90
        4
 70
         1
 43
0.0
 10
-2.05
 20
35.9
 10
-2.05
 20
36.9
 10
-1.55
 20
36.9
 10
-1.55
 20
35.9
  0
LWPOLYLINE
  5
107
100
AcDbEntity
  8
ASSEMBLY_OUTLINES_TOP
100
AcDbPolyline
 90
        4
 70
         1
 43
0.0
 10
-64.6
 20
27.0
 10
-64.6
 20
27.8
 10
-63.1
 20
27.8
 10
-63.1
 20
27.0
  0
LWPOLYLINE
  5
108
100
AcDbEntity
  8
ASSEMBLY_OUTLINES_TOP
100
AcDbPolyline
 90
        4
 70
         1
 43
0.0
 10
-64.35
 20
27.15
 10
-64.35
 20
27.65
 10
-63.35
 20
27.65
 10
-63.35
 20
27.15
  0
LWPOLYLINE
  5
109
100
AcDbEntity
  8
ASSEMBLY_OUTLINES_TOP
100
AcDbPolyline
 90
        4
 70
         1
 43
0.1
 10
-65.35
 20
32.25
 10
-65.35
 20
33.85
 10
-63.35
 20
33.85
 10
-63.35
 20
32.25
  0
LWPOLYLINE
  5
10A
100
AcDbEntity
  8
ASSEMBLY_OUTLINES_TOP
100
AcDbPolyline
 90
        4
 70
         1
 43
0.0
 10
-3.75
 20
43.05
 10
-3.75
 20
43.85
 10
-2.25
 20
43.85
 10
-2.25
 20
43.05
  0
LWPOLYLINE
  5
10B
100
AcDbEntity
  8
ASSEMBLY_OUTLINES_TOP
100
AcDbPolyline
 90
        4
 70
         1
 43
0.0
 10
-3.5
 20
43.2
 10
-3.5
 20
43.7
 10
-2.5
 20
43.7
 10
-2.5
 20
43.2
  0
LWPOLYLINE
  5
10C
100
AcDbEntity
  8
ASSEMBLY_OUTLINES_TOP
100
AcDbPolyline
 90
        4
 70
         1
 43
0.0
 10
-66.45
 20
23.35
 10
-66.45
 20
24.35
 10
-65.95
 20
24.35
 10
-65.95
 20
23.35
  0
LWPOLYLINE
  5
10D
100
AcDbEntity
  8
ASSEMBLY_OUTLINES_TOP
100
AcDbPolyline
 90
        4
 70
         1
 43
0.0
 10
-66.6
 20
23.1
 10
-66.6
 20
24.6
 10
-65.8
 20
24.6
 10
-65.8
 20
23.1
  0
LWPOLYLINE
  5
10E
100
AcDbEntity
  8
ASSEMBLY_OUTLINES_TOP
100
AcDbPolyline
 90
        4
 70
         1
 43
0.1
 10
-17.09
 20
0.1
 10
-17.09
 20
21.1
 10
-0.83
 20
21.1
 10
-0.83
 20
0.1
  0
CIRCLE
  5
10F
100
AcDbEntity
  8
ASSEMBLY_OUTLINES_TOP
100
AcDbCircle
 10
-63.3
 20
3.0
 30
0.0
 40
0.25
  0
HATCH
  5
110
100
AcDbEntity
  8
ASSEMBLY_OUTLINES_TOP
100
AcDbHatch
 10
0.0
 20
0.0
 30
0.0
 210
0.0
 220
0.0
 230
1.0
  2
SOLID
 70
         1
 71
        1
 91
        1
  92
     1
  93
     1
 72
     2
 10
-63.3
 20
3.0
  40
0.25
  50
     0.0
  51
     360.0
 73
     0
  97
     1
  330
    271
 75
     0
 76
     1
  98
     1
 10
0.0
 20
0.0
  0
LWPOLYLINE
  5
111
100
AcDbEntity
  8
ASSEMBLY_OUTLINES_TOP
100
AcDbPolyline
 90
        4
 70
         1
 43
0.1
 10
-67.0
 20
0.0
 10
-67.0
 20
5.5
 10
-59.6
 20
5.5
 10
-59.6
 20
0.0
  0
LWPOLYLINE
  5
112
100
AcDbEntity
  8
ASSEMBLY_OUTLINES_TOP
100
AcDbPolyline
 90
        2
 70
         0
 43
0.1
 10
-64.6
 20
5.5
 10
-64.6
 20
5.8
  0
LWPOLYLINE
  5
113
100
AcDbEntity
  8
ASSEMBLY_OUTLINES_TOP
100
AcDbPolyline
 90
        2
 70
         0
 43
0.1
 10
-63.3
 20
5.5
 10
-63.3
 20
5.8
  0
LWPOLYLINE
  5
114
100
AcDbEntity
  8
ASSEMBLY_OUTLINES_TOP
100
AcDbPolyline
 90
        2
 70
         0
 43
0.1
 10
-62.0
 20
5.5
 10
-62.0
 20
5.8
  0
LWPOLYLINE
  5
115
100
AcDbEntity
  8
ASSEMBLY_OUTLINES_TOP
100
AcDbPolyline
 90
        2
 70
         0
 43
0.1
 10
-63.95
 20
5.5
 10
-63.95
 20
5.8
  0
LWPOLYLINE
  5
116
100
AcDbEntity
  8
ASSEMBLY_OUTLINES_TOP
100
AcDbPolyline
 90
        2
 70
         0
 43
0.1
 10
-62.65
 20
5.5
 10
-62.65
 20
5.8
  0
LWPOLYLINE
  5
117
100
AcDbEntity
  8
ASSEMBLY_OUTLINES_TOP
100
AcDbPolyline
 90
        2
 70
         0
 43
0.02
 10
-67.0
 20
0.5
 10
-59.6
 20
0.5
  0
LWPOLYLINE
  5
118
100
AcDbEntity
  8
ASSEMBLY_OUTLINES_TOP
100
AcDbPolyline
 90
        4
 70
         1
 43
0.0
 10
-64.65
 20
27.95
 10
-64.65
 20
29.45
 10
-63.85
 20
29.45
 10
-63.85
 20
27.95
  0
LWPOLYLINE
  5
119
100
AcDbEntity
  8
ASSEMBLY_OUTLINES_TOP
100
AcDbPolyline
 90
        4
 70
         1
 43
0.0
 10
-64.5
 20
28.2
 10
-64.5
 20
29.2
 10
-64.0
 20
29.2
 10
-64.0
 20
28.2
  0
LWPOLYLINE
  5
11A
100
AcDbEntity
  8
ASSEMBLY_OUTLINES_TOP
100
AcDbPolyline
 90
        4
 70
         1
 43
0.1
 10
-59.3
 20
38.75
 10
-59.3
 20
40.75
 10
-57.7
 20
40.75
 10
-57.7
 20
38.75
  0
LWPOLYLINE
  5
11B
100
AcDbEntity
  8
ASSEMBLY_OUTLINES_TOP
100
AcDbPolyline
 90
        4
 70
         1
 43
0.0
 10
-66.45
 20
25.2
 10
-66.45
 20
26.2
 10
-65.95
 20
26.2
 10
-65.95
 20
25.2
  0
LWPOLYLINE
  5
11C
100
AcDbEntity
  8
ASSEMBLY_OUTLINES_TOP
100
AcDbPolyline
 90
        4
 70
         1
 43
0.0
 10
-66.6
 20
24.95
 10
-66.6
 20
26.45
 10
-65.8
 20
26.45
 10
-65.8
 20
24.95
  0
LWPOLYLINE
  5
11D
100
AcDbEntity
  8
ASSEMBLY_OUTLINES_TOP
100
AcDbPolyline
 90
        2
 70
         1
 43
0.1
 10
-64.865131
 20
11.208392
 42
-1.000000
 10
-61.329597
 20
11.208392
 42
-1.000000
  0
LWPOLYLINE
  5
11E
100
AcDbEntity
  8
ASSEMBLY_OUTLINES_TOP
100
AcDbPolyline
 90
        2
 70
         1
 43
0.1
 10
-64.865131
 20
16.208392
 42
-1.000000
 10
-61.329597
 20
16.208392
 42
-1.000000
  0
LWPOLYLINE
  5
11F
100
AcDbEntity
  8
ASSEMBLY_OUTLINES_TOP
100
AcDbPolyline
 90
        2
 70
         0
 43
0.1
 10
-61.847364
 20
9.958392
 10
-64.347364
 20
12.458392
  0
LWPOLYLINE
  5
120
100
AcDbEntity
  8
ASSEMBLY_OUTLINES_TOP
100
AcDbPolyline
 90
        2
 70
         0
 43
0.1
 10
-61.847364
 20
14.958392
 10
-64.347364
 20
17.458392
  0
LWPOLYLINE
  5
121
100
AcDbEntity
  8
ASSEMBLY_OUTLINES_TOP
100
AcDbPolyline
 90
        4
 70
         0
 43
0.1
 10
-67.597364
 20
9.208392
 10
-66.597364
 20
9.958392
 10
-66.597364
 20
12.458392
 10
-67.597364
 20
13.208392
  0
LWPOLYLINE
  5
122
100
AcDbEntity
  8
ASSEMBLY_OUTLINES_TOP
100
AcDbPolyline
 90
        4
 70
         0
 43
0.1
 10
-67.597364
 20
14.208392
 10
-66.597364
 20
14.958392
 10
-66.597364
 20
17.458392
 10
-67.597364
 20
18.208392
  0
LWPOLYLINE
  5
123
100
AcDbEntity
  8
ASSEMBLY_OUTLINES_TOP
100
AcDbPolyline
 90
        4
 70
         1
 43
0.1
 10
-67.597364
 20
8.708392
 10
-67.597364
 20
18.708392
 10
-58.597364
 20
18.708392
 10
-58.597364
 20
8.708392
  0
LWPOLYLINE
  5
124
100
AcDbEntity
  8
ASSEMBLY_OUTLINES_TOP
100
AcDbPolyline
 90
        4
 70
         1
 43
0.0
 10
-64.55
 20
29.5
 10
-64.55
 20
30.3
 10
-63.05
 20
30.3
 10
-63.05
 20
29.5
  0
LWPOLYLINE
  5
125
100
AcDbEntity
  8
ASSEMBLY_OUTLINES_TOP
100
AcDbPolyline
 90
        4
 70
         1
 43
0.0
 10
-64.3
 20
29.65
 10
-64.3
 20
30.15
 10
-63.3
 20
30.15
 10
-63.3
 20
29.65
  0
LWPOLYLINE
  5
126
100
AcDbEntity
  8
ASSEMBLY_OUTLINES_TOP
100
AcDbPolyline
 90
        4
 70
         1
 43
0.1
 10
-57.35
 20
25.4
 10
-57.35
 20
27.4
 10
-55.75
 20
27.4
 10
-55.75
 20
25.4
  0
LWPOLYLINE
  5
127
100
AcDbEntity
  8
ASSEMBLY_OUTLINES_TOP
100
AcDbPolyline
 90
        4
 70
         1
 43
0.0
 10
-66.65
 20
38.05
 10
-66.65
 20
39.05
 10
-66.15
 20
39.05
 10
-66.15
 20
38.05
  0
LWPOLYLINE
  5
128
100
AcDbEntity
  8
ASSEMBLY_OUTLINES_TOP
100
AcDbPolyline
 90
        4
 70
         1
 43
0.0
 10
-66.8
 20
37.8
 10
-66.8
 20
39.3
 10
-66.0
 20
39.3
 10
-66.0
 20
37.8
  0
LWPOLYLINE
  5
129
100
AcDbEntity
  8
ASSEMBLY_OUTLINES_TOP
100
AcDbPolyline
 90
        4
 70
         1
 43
0.0
 10
-67.7
 20
55.75
 10
-67.7
 20
59.85
 10
-37.7
 20
59.85
 10
-37.7
 20
55.75
  0
LWPOLYLINE
  5
12A
100
AcDbEntity
  8
ASSEMBLY_OUTLINES_TOP
100
AcDbPolyline
 90
        4
 70
         1
 43
0.0
 10
-64.55
 20
30.35
 10
-64.55
 20
31.15
 10
-63.05
 20
31.15
 10
-63.05
 20
30.35
  0
LWPOLYLINE
  5
12B
100
AcDbEntity
  8
ASSEMBLY_OUTLINES_TOP
100
AcDbPolyline
 90
        4
 70
         1
 43
0.0
 10
-64.3
 20
30.5
 10
-64.3
 20
31.0
 10
-63.3
 20
31.0
 10
-63.3
 20
30.5
  0
LWPOLYLINE
  5
12C
100
AcDbEntity
  8
ASSEMBLY_OUTLINES_TOP
100
AcDbPolyline
 90
        4
 70
         1
 43
0.1
 10
-51.2
 20
31.9
 10
-51.2
 20
33.9
 10
-49.6
 20
33.9
 10
-49.6
 20
31.9
  0
LWPOLYLINE
  5
12D
100
AcDbEntity
  8
ASSEMBLY_OUTLINES_TOP
100
AcDbPolyline
 90
        4
 70
         1
 43
0.0
 10
-66.65
 20
39.95
 10
-66.65
 20
40.95
 10
-66.15
 20
40.95
 10
-66.15
 20
39.95
  0
LWPOLYLINE
  5
12E
100
AcDbEntity
  8
ASSEMBLY_OUTLINES_TOP
100
AcDbPolyline
 90
        4
 70
         1
 43
0.0
 10
-66.8
 20
39.7
 10
-66.8
 20
41.2
 10
-66.0
 20
41.2
 10
-66.0
 20
39.7
  0
LWPOLYLINE
  5
12F
100
AcDbEntity
  8
ASSEMBLY_OUTLINES_TOP
100
AcDbPolyline
 90
        4
 70
         1
 43
0.0
 10
-67.7
 20
63.85
 10
-67.7
 20
67.95
 10
-37.7
 20
67.95
 10
-37.7
 20
63.85
  0
LWPOLYLINE
  5
130
100
AcDbEntity
  8
ASSEMBLY_OUTLINES_TOP
100
AcDbPolyline
 90
        4
 70
         1
 43
0.0
 10
-64.55
 20
31.2
 10
-64.55
 20
32.0
 10
-63.05
 20
32.0
 10
-63.05
 20
31.2
  0
LWPOLYLINE
  5
131
100
AcDbEntity
  8
ASSEMBLY_OUTLINES_TOP
100
AcDbPolyline
 90
        4
 70
         1
 43
0.0
 10
-64.3
 20
31.35
 10
-64.3
 20
31.85
 10
-63.3
 20
31.85
 10
-63.3
 20
31.35
  0
LWPOLYLINE
  5
132
100
AcDbEntity
  8
ASSEMBLY_OUTLINES_TOP
100
AcDbPolyline
 90
        4
 70
         1
 43
0.1
 10
-51.95
 20
36.0
 10
-51.95
 20
38.0
 10
-50.35
 20
38.0
 10
-50.35
 20
36.0
  0
LWPOLYLINE
  5
133
100
AcDbEntity
  8
ASSEMBLY_OUTLINES_TOP
100
AcDbPolyline
 90
        4
 70
         1
 43
0.0
 10
-3.25
 20
46.75
 10
-3.25
 20
47.55
 10
-1.75
 20
47.55
 10
-1.75
 20
46.75
  0
LWPOLYLINE
  5
134
100
AcDbEntity
  8
ASSEMBLY_OUTLINES_TOP
100
AcDbPolyline
 90
        4
 70
         1
 43
0.0
 10
-3.0
 20
46.9
 10
-3.0
 20
47.4
 10
-2.0
 20
47.4
 10
-2.0
 20
46.9
  0
LWPOLYLINE
  5
135
100
AcDbEntity
  8
ASSEMBLY_OUTLINES_TOP
100
AcDbPolyline
 90
        4
 70
         1
 43
0.0
 10
-66.65
 20
42.6
 10
-66.65
 20
43.6
 10
-66.15
 20
43.6
 10
-66.15
 20
42.6
  0
LWPOLYLINE
  5
136
100
AcDbEntity
  8
ASSEMBLY_OUTLINES_TOP
100
AcDbPolyline
 90
        4
 70
         1
 43
0.0
 10
-66.8
 20
42.35
 10
-66.8
 20
43.85
 10
-66.0
 20
43.85
 10
-66.0
 20
42.35
  0
LWPOLYLINE
  5
137
100
AcDbEntity
  8
ASSEMBLY_OUTLINES_TOP
100
AcDbPolyline
 90
        4
 70
         1
 43
0.1
 10
-54.45
 20
0.1
 10
-54.45
 20
14.1
 10
-41.95
 20
14.1
 10
-41.95
 20
0.1
  0
LWPOLYLINE
  5
138
100
AcDbEntity
  8
ASSEMBLY_OUTLINES_TOP
100
AcDbPolyline
 90
        4
 70
         1
 43
0.0
 10
-64.55
 20
34.15
 10
-64.55
 20
34.95
 10
-63.05
 20
34.95
 10
-63.05
 20
34.15
  0
LWPOLYLINE
  5
139
100
AcDbEntity
  8
ASSEMBLY_OUTLINES_TOP
100
AcDbPolyline
 90
        4
 70
         1
 43
0.0
 10
-64.3
 20
34.3
 10
-64.3
 20
34.8
 10
-63.3
 20
34.8
 10
-63.3
 20
34.3
  0
LWPOLYLINE
  5
13A
100
AcDbEntity
  8
ASSEMBLY_OUTLINES_TOP
100
AcDbPolyline
 90
        4
 70
         1
 43
0.0
 10
-66.65
 20
44.3
 10
-66.65
 20
45.3
 10
-66.15
 20
45.3
 10
-66.15
 20
44.3
  0
LWPOLYLINE
  5
13B
100
AcDbEntity
  8
ASSEMBLY_OUTLINES_TOP
100
AcDbPolyline
 90
        4
 70
         1
 43
0.0
 10
-66.8
 20
44.05
 10
-66.8
 20
45.55
 10
-66.0
 20
45.55
 10
-66.0
 20
44.05
  0
LWPOLYLINE
  5
13C
100
AcDbEntity
  8
ASSEMBLY_OUTLINES_TOP
100
AcDbPolyline
 90
        4
 70
         1
 43
0.1
 10
-36.8
 20
56.95
 10
-36.8
 20
61.2
 10
-30.8
 20
61.2
 10
-30.8
 20
56.95
  0
LWPOLYLINE
  5
13D
100
AcDbEntity
  8
ASSEMBLY_OUTLINES_TOP
100
AcDbPolyline
 90
        4
 70
         1
 43
0.0
 10
-64.55
 20
36.8
 10
-64.55
 20
37.6
 10
-63.05
 20
37.6
 10
-63.05
 20
36.8
  0
LWPOLYLINE
  5
13E
100
AcDbEntity
  8
ASSEMBLY_OUTLINES_TOP
100
AcDbPolyline
 90
        4
 70
         1
 43
0.0
 10
-64.3
 20
36.95
 10
-64.3
 20
37.45
 10
-63.3
 20
37.45
 10
-63.3
 20
36.95
  0
LWPOLYLINE
  5
13F
100
AcDbEntity
  8
ASSEMBLY_OUTLINES_TOP
100
AcDbPolyline
 90
        4
 70
         1
 43
0.0
 10
-65.5
 20
34.15
 10
-65.5
 20
35.65
 10
-64.7
 20
35.65
 10
-64.7
 20
34.15
  0
LWPOLYLINE
  5
140
100
AcDbEntity
  8
ASSEMBLY_OUTLINES_TOP
100
AcDbPolyline
 90
        4
 70
         1
 43
0.0
 10
-65.35
 20
34.4
 10
-65.35
 20
35.4
 10
-64.85
 20
35.4
 10
-64.85
 20
34.4
  0
LWPOLYLINE
  5
141
100
AcDbEntity
  8
ASSEMBLY_OUTLINES_TOP
100
AcDbPolyline
 90
        4
 70
         1
 43
0.0
 10
-65.85
 20
39.7
 10
-65.85
 20
41.2
 10
-65.05
 20
41.2
 10
-65.05
 20
39.7
  0
LWPOLYLINE
  5
142
100
AcDbEntity
  8
ASSEMBLY_OUTLINES_TOP
100
AcDbPolyline
 90
        4
 70
         1
 43
0.0
 10
-65.7
 20
39.95
 10
-65.7
 20
40.95
 10
-65.2
 20
40.95
 10
-65.2
 20
39.95
  0
LWPOLYLINE
  5
143
100
AcDbEntity
  8
ASSEMBLY_OUTLINES_TOP
100
AcDbPolyline
 90
        4
 70
         1
 43
0.0
 10
-65.85
 20
42.35
 10
-65.85
 20
43.85
 10
-65.05
 20
43.85
 10
-65.05
 20
42.35
  0
LWPOLYLINE
  5
144
100
AcDbEntity
  8
ASSEMBLY_OUTLINES_TOP
100
AcDbPolyline
 90
        4
 70
         1
 43
0.0
 10
-65.7
 20
42.6
 10
-65.7
 20
43.6
 10
-65.2
 20
43.6
 10
-65.2
 20
42.6
  0
LWPOLYLINE
  5
145
100
AcDbEntity
  8
ASSEMBLY_OUTLINES_TOP
100
AcDbPolyline
 90
        4
 70
         1
 43
0.0
 10
-63.7
 20
37.65
 10
-63.7
 20
38.45
 10
-62.2
 20
38.45
 10
-62.2
 20
37.65
  0
LWPOLYLINE
  5
146
100
AcDbEntity
  8
ASSEMBLY_OUTLINES_TOP
100
AcDbPolyline
 90
        4
 70
         1
 43
0.0
 10
-63.45
 20
37.8
 10
-63.45
 20
38.3
 10
-62.45
 20
38.3
 10
-62.45
 20
37.8
  0
LWPOLYLINE
  5
147
100
AcDbEntity
  8
ASSEMBLY_OUTLINES_TOP
100
AcDbPolyline
 90
        4
 70
         1
 43
0.0
 10
-65.45
 20
23.35
 10
-65.45
 20
24.35
 10
-64.95
 20
24.35
 10
-64.95
 20
23.35
  0
LWPOLYLINE
  5
148
100
AcDbEntity
  8
ASSEMBLY_OUTLINES_TOP
100
AcDbPolyline
 90
        4
 70
         1
 43
0.0
 10
-65.6
 20
23.1
 10
-65.6
 20
24.6
 10
-64.8
 20
24.6
 10
-64.8
 20
23.1
  0
LWPOLYLINE
  5
149
100
AcDbEntity
  8
ASSEMBLY_OUTLINES_TOP
100
AcDbPolyline
 90
        4
 70
         1
 43
0.0
 10
-63.64
 20
28.19
 10
-63.64
 20
29.19
 10
-63.14
 20
29.19
 10
-63.14
 20
28.19
  0
LWPOLYLINE
  5
14A
100
AcDbEntity
  8
ASSEMBLY_OUTLINES_TOP
100
AcDbPolyline
 90
        4
 70
         1
 43
0.0
 10
-63.79
 20
27.94
 10
-63.79
 20
29.44
 10
-62.99
 20
29.44
 10
-62.99
 20
27.94
  0
LWPOLYLINE
  5
14B
100
AcDbEntity
  8
ASSEMBLY_OUTLINES_TOP
100
AcDbPolyline
 90
        4
 70
         1
 43
0.0
 10
-62.25
 20
38.4
 10
-62.25
 20
39.9
 10
-61.45
 20
39.9
 10
-61.45
 20
38.4
  0
LWPOLYLINE
  5
14C
100
AcDbEntity
  8
ASSEMBLY_OUTLINES_TOP
100
AcDbPolyline
 90
        4
 70
         1
 43
0.0
 10
-62.1
 20
38.65
 10
-62.1
 20
39.65
 10
-61.6
 20
39.65
 10
-61.6
 20
38.65
  0
LWPOLYLINE
  5
14D
100
AcDbEntity
  8
ASSEMBLY_OUTLINES_TOP
100
AcDbPolyline
 90
        4
 70
         1
 43
0.0
 10
-63.25
 20
40.25
 10
-63.25
 20
40.75
 10
-62.25
 20
40.75
 10
-62.25
 20
40.25
  0
LWPOLYLINE
  5
14E
100
AcDbEntity
  8
ASSEMBLY_OUTLINES_TOP
100
AcDbPolyline
 90
        4
 70
         1
 43
0.0
 10
-63.5
 20
40.1
 10
-63.5
 20
40.9
 10
-62.0
 20
40.9
 10
-62.0
 20
40.1
  0
LWPOLYLINE
  5
14F
100
AcDbEntity
  8
ASSEMBLY_OUTLINES_TOP
100
AcDbPolyline
 90
        4
 70
         1
 43
0.0
 10
-61.75
 20
26.15
 10
-61.75
 20
27.65
 10
-60.95
 20
27.65
 10
-60.95
 20
26.15
  0
LWPOLYLINE
  5
150
100
AcDbEntity
  8
ASSEMBLY_OUTLINES_TOP
100
AcDbPolyline
 90
        4
 70
         1
 43
0.0
 10
-61.6
 20
26.4
 10
-61.6
 20
27.4
 10
-61.1
 20
27.4
 10
-61.1
 20
26.4
  0
LWPOLYLINE
  5
151
100
AcDbEntity
  8
ASSEMBLY_OUTLINES_TOP
100
AcDbPolyline
 90
        4
 70
         1
 43
0.0
 10
-34.5
 20
0.15
 10
-34.5
 20
12.3
 10
-19.5
 20
12.3
 10
-19.5
 20
0.15
  0
LWPOLYLINE
  5
152
100
AcDbEntity
  8
ASSEMBLY_OUTLINES_TOP
100
AcDbPolyline
 90
        4
 70
         1
 43
0.0
 10
-61.4
 20
25.05
 10
-61.4
 20
25.55
 10
-60.4
 20
25.55
 10
-60.4
 20
25.05
  0
LWPOLYLINE
  5
153
100
AcDbEntity
  8
ASSEMBLY_OUTLINES_TOP
100
AcDbPolyline
 90
        4
 70
         1
 43
0.0
 10
-61.65
 20
24.9
 10
-61.65
 20
25.7
 10
-60.15
 20
25.7
 10
-60.15
 20
24.9
  0
LWPOLYLINE
  5
154
100
AcDbEntity
  8
ASSEMBLY_OUTLINES_TOP
100
AcDbPolyline
 90
        4
 70
         1
 43
0.0
 10
-60.8
 20
26.15
 10
-60.8
 20
27.65
 10
-60.0
 20
27.65
 10
-60.0
 20
26.15
  0
LWPOLYLINE
  5
155
100
AcDbEntity
  8
ASSEMBLY_OUTLINES_TOP
100
AcDbPolyline
 90
        4
 70
         1
 43
0.0
 10
-60.65
 20
26.4
 10
-60.65
 20
27.4
 10
-60.15
 20
27.4
 10
-60.15
 20
26.4
  0
LWPOLYLINE
  5
156
100
AcDbEntity
  8
ASSEMBLY_OUTLINES_TOP
100
AcDbPolyline
 90
        4
 70
         1
 43
0.0
 10
-62.0
 20
48.1
 10
-62.0
 20
48.6
 10
-61.0
 20
48.6
 10
-61.0
 20
48.1
  0
LWPOLYLINE
  5
157
100
AcDbEntity
  8
ASSEMBLY_OUTLINES_TOP
100
AcDbPolyline
 90
        4
 70
         1
 43
0.0
 10
-62.25
 20
47.95
 10
-62.25
 20
48.75
 10
-60.75
 20
48.75
 10
-60.75
 20
47.95
  0
LWPOLYLINE
  5
158
100
AcDbEntity
  8
ASSEMBLY_OUTLINES_TOP
100
AcDbPolyline
 90
        4
 70
         1
 43
0.0
 10
-61.4
 20
38.4
 10
-61.4
 20
39.9
 10
-60.6
 20
39.9
 10
-60.6
 20
38.4
  0
LWPOLYLINE
  5
159
100
AcDbEntity
  8
ASSEMBLY_OUTLINES_TOP
100
AcDbPolyline
 90
        4
 70
         1
 43
0.0
 10
-61.25
 20
38.65
 10
-61.25
 20
39.65
 10
-60.75
 20
39.65
 10
-60.75
 20
38.65
  0
LWPOLYLINE
  5
15A
100
AcDbEntity
  8
ASSEMBLY_OUTLINES_TOP
100
AcDbPolyline
 90
        4
 70
         1
 43
0.0
 10
-58.25
 20
6.7
 10
-58.25
 20
7.7
 10
-57.75
 20
7.7
 10
-57.75
 20
6.7
  0
LWPOLYLINE
  5
15B
100
AcDbEntity
  8
ASSEMBLY_OUTLINES_TOP
100
AcDbPolyline
 90
        4
 70
         1
 43
0.0
 10
-58.4
 20
6.45
 10
-58.4
 20
7.95
 10
-57.6
 20
7.95
 10
-57.6
 20
6.45
  0
LWPOLYLINE
  5
15C
100
AcDbEntity
  8
ASSEMBLY_OUTLINES_TOP
100
AcDbPolyline
 90
        4
 70
         1
 43
0.0
 10
-60.55
 20
38.4
 10
-60.55
 20
39.9
 10
-59.75
 20
39.9
 10
-59.75
 20
38.4
  0
LWPOLYLINE
  5
15D
100
AcDbEntity
  8
ASSEMBLY_OUTLINES_TOP
100
AcDbPolyline
 90
        4
 70
         1
 43
0.0
 10
-60.4
 20
38.65
 10
-60.4
 20
39.65
 10
-59.9
 20
39.65
 10
-59.9
 20
38.65
  0
LWPOLYLINE
  5
15E
100
AcDbEntity
  8
ASSEMBLY_OUTLINES_TOP
100
AcDbPolyline
 90
        4
 70
         1
 43
0.0
 10
-61.4
 20
45.15
 10
-61.4
 20
46.65
 10
-60.6
 20
46.65
 10
-60.6
 20
45.15
  0
LWPOLYLINE
  5
15F
100
AcDbEntity
  8
ASSEMBLY_OUTLINES_TOP
100
AcDbPolyline
 90
        4
 70
         1
 43
0.0
 10
-61.25
 20
45.4
 10
-61.25
 20
46.4
 10
-60.75
 20
46.4
 10
-60.75
 20
45.4
  0
LWPOLYLINE
  5
160
100
AcDbEntity
  8
ASSEMBLY_OUTLINES_TOP
100
AcDbPolyline
 90
        4
 70
         1
 43
0.0
 10
-64.55
 20
35.1
 10
-64.55
 20
35.9
 10
-63.05
 20
35.9
 10
-63.05
 20
35.1
  0
LWPOLYLINE
  5
161
100
AcDbEntity
  8
ASSEMBLY_OUTLINES_TOP
100
AcDbPolyline
 90
        4
 70
         1
 43
0.0
 10
-64.3
 20
35.25
 10
-64.3
 20
35.75
 10
-63.3
 20
35.75
 10
-63.3
 20
35.25
  0
LWPOLYLINE
  5
162
100
AcDbEntity
  8
ASSEMBLY_OUTLINES_TOP
100
AcDbPolyline
 90
        4
 70
         1
 43
0.0
 10
-59.05
 20
27.0
 10
-59.05
 20
27.5
 10
-58.05
 20
27.5
 10
-58.05
 20
27.0
  0
LWPOLYLINE
  5
163
100
AcDbEntity
  8
ASSEMBLY_OUTLINES_TOP
100
AcDbPolyline
 90
        4
 70
         1
 43
0.0
 10
-59.3
 20
26.85
 10
-59.3
 20
27.65
 10
-57.8
 20
27.65
 10
-57.8
 20
26.85
  0
LWPOLYLINE
  5
164
100
AcDbEntity
  8
ASSEMBLY_OUTLINES_TOP
100
AcDbPolyline
 90
        4
 70
         1
 43
0.0
 10
-61.25
 20
40.1
 10
-61.25
 20
40.9
 10
-59.75
 20
40.9
 10
-59.75
 20
40.1
  0
LWPOLYLINE
  5
165
100
AcDbEntity
  8
ASSEMBLY_OUTLINES_TOP
100
AcDbPolyline
 90
        4
 70
         1
 43
0.0
 10
-61.0
 20
40.25
 10
-61.0
 20
40.75
 10
-60.0
 20
40.75
 10
-60.0
 20
40.25
  0
LWPOLYLINE
  5
166
100
AcDbEntity
  8
ASSEMBLY_OUTLINES_TOP
100
AcDbPolyline
 90
        4
 70
         1
 43
0.0
 10
-62.25
 20
48.85
 10
-62.25
 20
49.65
 10
-60.75
 20
49.65
 10
-60.75
 20
48.85
  0
LWPOLYLINE
  5
167
100
AcDbEntity
  8
ASSEMBLY_OUTLINES_TOP
100
AcDbPolyline
 90
        4
 70
         1
 43
0.0
 10
-62.0
 20
49.0
 10
-62.0
 20
49.5
 10
-61.0
 20
49.5
 10
-61.0
 20
49.0
  0
LWPOLYLINE
  5
168
100
AcDbEntity
  8
ASSEMBLY_OUTLINES_TOP
100
AcDbPolyline
 90
        4
 70
         1
 43
0.0
 10
-55.35
 20
21.3
 10
-55.35
 20
22.3
 10
-54.85
 20
22.3
 10
-54.85
 20
21.3
  0
LWPOLYLINE
  5
169
100
AcDbEntity
  8
ASSEMBLY_OUTLINES_TOP
100
AcDbPolyline
 90
        4
 70
         1
 43
0.0
 10
-55.5
 20
21.05
 10
-55.5
 20
22.55
 10
-54.7
 20
22.55
 10
-54.7
 20
21.05
  0
LWPOLYLINE
  5
16A
100
AcDbEntity
  8
ASSEMBLY_OUTLINES_TOP
100
AcDbPolyline
 90
        4
 70
         1
 43
0.0
 10
-59.3
 20
25.15
 10
-59.3
 20
25.95
 10
-57.8
 20
25.95
 10
-57.8
 20
25.15
  0
LWPOLYLINE
  5
16B
100
AcDbEntity
  8
ASSEMBLY_OUTLINES_TOP
100
AcDbPolyline
 90
        4
 70
         1
 43
0.0
 10
-59.05
 20
25.3
 10
-59.05
 20
25.8
 10
-58.05
 20
25.8
 10
-58.05
 20
25.3
  0
LWPOLYLINE
  5
16C
100
AcDbEntity
  8
ASSEMBLY_OUTLINES_TOP
100
AcDbPolyline
 90
        4
 70
         1
 43
0.0
 10
-53.9
 20
21.15
 10
-53.9
 20
21.65
 10
-52.9
 20
21.65
 10
-52.9
 20
21.15
  0
LWPOLYLINE
  5
16D
100
AcDbEntity
  8
ASSEMBLY_OUTLINES_TOP
100
AcDbPolyline
 90
        4
 70
         1
 43
0.0
 10
-54.15
 20
21.0
 10
-54.15
 20
21.8
 10
-52.65
 20
21.8
 10
-52.65
 20
21.0
  0
LWPOLYLINE
  5
16E
100
AcDbEntity
  8
ASSEMBLY_OUTLINES_TOP
100
AcDbPolyline
 90
        4
 70
         1
 43
0.0
 10
-59.3
 20
26.0
 10
-59.3
 20
26.8
 10
-57.8
 20
26.8
 10
-57.8
 20
26.0
  0
LWPOLYLINE
  5
16F
100
AcDbEntity
  8
ASSEMBLY_OUTLINES_TOP
100
AcDbPolyline
 90
        4
 70
         1
 43
0.0
 10
-59.05
 20
26.15
 10
-59.05
 20
26.65
 10
-58.05
 20
26.65
 10
-58.05
 20
26.15
  0
LWPOLYLINE
  5
170
100
AcDbEntity
  8
ASSEMBLY_OUTLINES_TOP
100
AcDbPolyline
 90
        4
 70
         1
 43
0.0
 10
-65.45
 20
25.2
 10
-65.45
 20
26.2
 10
-64.95
 20
26.2
 10
-64.95
 20
25.2
  0
LWPOLYLINE
  5
171
100
AcDbEntity
  8
ASSEMBLY_OUTLINES_TOP
100
AcDbPolyline
 90
        4
 70
         1
 43
0.0
 10
-65.6
 20
24.95
 10
-65.6
 20
26.45
 10
-64.8
 20
26.45
 10
-64.8
 20
24.95
  0
LWPOLYLINE
  5
172
100
AcDbEntity
  8
ASSEMBLY_OUTLINES_TOP
100
AcDbPolyline
 90
        4
 70
         1
 43
0.0
 10
-41.85
 20
37.3
 10
-41.85
 20
38.3
 10
-41.35
 20
38.3
 10
-41.35
 20
37.3
  0
LWPOLYLINE
  5
173
100
AcDbEntity
  8
ASSEMBLY_OUTLINES_TOP
100
AcDbPolyline
 90
        4
 70
         1
 43
0.0
 10
-42.0
 20
37.05
 10
-42.0
 20
38.55
 10
-41.2
 20
38.55
 10
-41.2
 20
37.05
  0
LWPOLYLINE
  5
174
100
AcDbEntity
  8
ASSEMBLY_OUTLINES_TOP
100
AcDbPolyline
 90
        4
 70
         1
 43
0.0
 10
-46.8
 20
47.15
 10
-46.8
 20
48.15
 10
-46.3
 20
48.15
 10
-46.3
 20
47.15
  0
LWPOLYLINE
  5
175
100
AcDbEntity
  8
ASSEMBLY_OUTLINES_TOP
100
AcDbPolyline
 90
        4
 70
         1
 43
0.0
 10
-46.95
 20
46.9
 10
-46.95
 20
48.4
 10
-46.15
 20
48.4
 10
-46.15
 20
46.9
  0
LWPOLYLINE
  5
176
100
AcDbEntity
  8
ASSEMBLY_OUTLINES_TOP
100
AcDbPolyline
 90
        4
 70
         1
 43
0.0
 10
-57.4
 20
38.4
 10
-57.4
 20
39.9
 10
-56.6
 20
39.9
 10
-56.6
 20
38.4
  0
LWPOLYLINE
  5
177
100
AcDbEntity
  8
ASSEMBLY_OUTLINES_TOP
100
AcDbPolyline
 90
        4
 70
         1
 43
0.0
 10
-57.25
 20
38.65
 10
-57.25
 20
39.65
 10
-56.75
 20
39.65
 10
-56.75
 20
38.65
  0
LWPOLYLINE
  5
178
100
AcDbEntity
  8
ASSEMBLY_OUTLINES_TOP
100
AcDbPolyline
 90
        4
 70
         1
 43
0.1
 10
-45.0
 20
37.05
 10
-45.0
 20
40.25
 10
-42.5
 20
40.25
 10
-42.5
 20
37.05
  0
LWPOLYLINE
  5
179
100
AcDbEntity
  8
ASSEMBLY_OUTLINES_TOP
100
AcDbPolyline
 90
        2
 70
         0
 43
0.1
 10
-44.9
 20
40.25
 10
-45.0
 20
40.15
  0
LWPOLYLINE
  5
17A
100
AcDbEntity
  8
ASSEMBLY_OUTLINES_TOP
100
AcDbPolyline
 90
        2
 70
         0
 43
0.1
 10
-44.8
 20
40.25
 10
-45.0
 20
40.05
  0
LWPOLYLINE
  5
17B
100
AcDbEntity
  8
ASSEMBLY_OUTLINES_TOP
100
AcDbPolyline
 90
        2
 70
         0
 43
0.1
 10
-44.7
 20
40.25
 10
-45.0
 20
39.95
  0
LWPOLYLINE
  5
17C
100
AcDbEntity
  8
ASSEMBLY_OUTLINES_TOP
100
AcDbPolyline
 90
        2
 70
         0
 43
0.1
 10
-44.6
 20
40.25
 10
-45.0
 20
39.85
  0
LWPOLYLINE
  5
17D
100
AcDbEntity
  8
ASSEMBLY_OUTLINES_TOP
100
AcDbPolyline
 90
        2
 70
         0
 43
0.1
 10
-44.5
 20
40.25
 10
-45.0
 20
39.75
  0
LWPOLYLINE
  5
17E
100
AcDbEntity
  8
ASSEMBLY_OUTLINES_TOP
100
AcDbPolyline
 90
        2
 70
         0
 43
0.1
 10
-44.4
 20
40.25
 10
-45.0
 20
39.65
  0
LWPOLYLINE
  5
17F
100
AcDbEntity
  8
ASSEMBLY_OUTLINES_TOP
100
AcDbPolyline
 90
        2
 70
         0
 43
0.1
 10
-44.3
 20
40.25
 10
-45.0
 20
39.55
  0
LWPOLYLINE
  5
180
100
AcDbEntity
  8
ASSEMBLY_OUTLINES_TOP
100
AcDbPolyline
 90
        2
 70
         0
 43
0.1
 10
-44.2
 20
40.25
 10
-45.0
 20
39.45
  0
LWPOLYLINE
  5
181
100
AcDbEntity
  8
ASSEMBLY_OUTLINES_TOP
100
AcDbPolyline
 90
        2
 70
         0
 43
0.1
 10
-44.1
 20
40.25
 10
-45.0
 20
39.35
  0
LWPOLYLINE
  5
182
100
AcDbEntity
  8
ASSEMBLY_OUTLINES_TOP
100
AcDbPolyline
 90
        2
 70
         0
 43
0.1
 10
-44.0
 20
40.25
 10
-45.0
 20
39.25
  0
LWPOLYLINE
  5
183
100
AcDbEntity
  8
ASSEMBLY_OUTLINES_TOP
100
AcDbPolyline
 90
        4
 70
         1
 43
0.0
 10
-41.85
 20
39.1
 10
-41.85
 20
40.1
 10
-41.35
 20
40.1
 10
-41.35
 20
39.1
  0
LWPOLYLINE
  5
184
100
AcDbEntity
  8
ASSEMBLY_OUTLINES_TOP
100
AcDbPolyline
 90
        4
 70
         1
 43
0.0
 10
-42.0
 20
38.85
 10
-42.0
 20
40.35
 10
-41.2
 20
40.35
 10
-41.2
 20
38.85
  0
LWPOLYLINE
  5
185
100
AcDbEntity
  8
ASSEMBLY_OUTLINES_TOP
100
AcDbPolyline
 90
        4
 70
         1
 43
0.0
 10
-46.8
 20
50.4
 10
-46.8
 20
50.9
 10
-45.8
 20
50.9
 10
-45.8
 20
50.4
  0
LWPOLYLINE
  5
186
100
AcDbEntity
  8
ASSEMBLY_OUTLINES_TOP
100
AcDbPolyline
 90
        4
 70
         1
 43
0.0
 10
-47.05
 20
50.25
 10
-47.05
 20
51.05
 10
-45.55
 20
51.05
 10
-45.55
 20
50.25
  0
LWPOLYLINE
  5
187
100
AcDbEntity
  8
ASSEMBLY_OUTLINES_TOP
100
AcDbPolyline
 90
        4
 70
         1
 43
0.0
 10
-56.55
 20
38.45
 10
-56.55
 20
39.95
 10
-55.75
 20
39.95
 10
-55.75
 20
38.45
  0
LWPOLYLINE
  5
188
100
AcDbEntity
  8
ASSEMBLY_OUTLINES_TOP
100
AcDbPolyline
 90
        4
 70
         1
 43
0.0
 10
-56.4
 20
38.7
 10
-56.4
 20
39.7
 10
-55.9
 20
39.7
 10
-55.9
 20
38.7
  0
LWPOLYLINE
  5
189
100
AcDbEntity
  8
ASSEMBLY_OUTLINES_TOP
100
AcDbPolyline
 90
        4
 70
         1
 43
0.0
 10
-29.9
 20
55.75
 10
-29.9
 20
59.85
 10
0.1
 20
59.85
 10
0.1
 20
55.75
  0
LWPOLYLINE
  5
18A
100
AcDbEntity
  8
ASSEMBLY_OUTLINES_TOP
100
AcDbPolyline
 90
        4
 70
         1
 43
0.1
 10
-27.55
 20
19.1
 10
-27.55
 20
21.6
 10
-24.35
 20
21.6
 10
-24.35
 20
19.1
  0
LWPOLYLINE
  5
18B
100
AcDbEntity
  8
ASSEMBLY_OUTLINES_TOP
100
AcDbPolyline
 90
        2
 70
         0
 43
0.1
 10
-27.55
 20
19.2
 10
-27.45
 20
19.1
  0
LWPOLYLINE
  5
18C
100
AcDbEntity
  8
ASSEMBLY_OUTLINES_TOP
100
AcDbPolyline
 90
        2
 70
         0
 43
0.1
 10
-27.55
 20
19.3
 10
-27.35
 20
19.1
  0
LWPOLYLINE
  5
18D
100
AcDbEntity
  8
ASSEMBLY_OUTLINES_TOP
100
AcDbPolyline
 90
        2
 70
         0
 43
0.1
 10
-27.55
 20
19.4
 10
-27.25
 20
19.1
  0
LWPOLYLINE
  5
18E
100
AcDbEntity
  8
ASSEMBLY_OUTLINES_TOP
100
AcDbPolyline
 90
        2
 70
         0
 43
0.1
 10
-27.55
 20
19.5
 10
-27.15
 20
19.1
  0
LWPOLYLINE
  5
18F
100
AcDbEntity
  8
ASSEMBLY_OUTLINES_TOP
100
AcDbPolyline
 90
        2
 70
         0
 43
0.1
 10
-27.55
 20
19.6
 10
-27.05
 20
19.1
  0
LWPOLYLINE
  5
190
100
AcDbEntity
  8
ASSEMBLY_OUTLINES_TOP
100
AcDbPolyline
 90
        2
 70
         0
 43
0.1
 10
-27.55
 20
19.7
 10
-26.95
 20
19.1
  0
LWPOLYLINE
  5
191
100
AcDbEntity
  8
ASSEMBLY_OUTLINES_TOP
100
AcDbPolyline
 90
        2
 70
         0
 43
0.1
 10
-27.55
 20
19.8
 10
-26.85
 20
19.1
  0
LWPOLYLINE
  5
192
100
AcDbEntity
  8
ASSEMBLY_OUTLINES_TOP
100
AcDbPolyline
 90
        2
 70
         0
 43
0.1
 10
-27.55
 20
19.9
 10
-26.75
 20
19.1
  0
LWPOLYLINE
  5
193
100
AcDbEntity
  8
ASSEMBLY_OUTLINES_TOP
100
AcDbPolyline
 90
        2
 70
         0
 43
0.1
 10
-27.55
 20
20.0
 10
-26.65
 20
19.1
  0
LWPOLYLINE
  5
194
100
AcDbEntity
  8
ASSEMBLY_OUTLINES_TOP
100
AcDbPolyline
 90
        2
 70
         0
 43
0.1
 10
-27.55
 20
20.1
 10
-26.55
 20
19.1
  0
LWPOLYLINE
  5
195
100
AcDbEntity
  8
ASSEMBLY_OUTLINES_TOP
100
AcDbPolyline
 90
        4
 70
         1
 43
0.0
 10
-38.05
 20
5.8
 10
-38.05
 20
6.8
 10
-37.55
 20
6.8
 10
-37.55
 20
5.8
  0
LWPOLYLINE
  5
196
100
AcDbEntity
  8
ASSEMBLY_OUTLINES_TOP
100
AcDbPolyline
 90
        4
 70
         1
 43
0.0
 10
-38.2
 20
5.55
 10
-38.2
 20
7.05
 10
-37.4
 20
7.05
 10
-37.4
 20
5.55
  0
LWPOLYLINE
  5
197
100
AcDbEntity
  8
ASSEMBLY_OUTLINES_TOP
100
AcDbPolyline
 90
        4
 70
         1
 43
0.0
 10
-57.35
 20
40.2
 10
-57.35
 20
41.0
 10
-55.85
 20
41.0
 10
-55.85
 20
40.2
  0
LWPOLYLINE
  5
198
100
AcDbEntity
  8
ASSEMBLY_OUTLINES_TOP
100
AcDbPolyline
 90
        4
 70
         1
 43
0.0
 10
-57.1
 20
40.35
 10
-57.1
 20
40.85
 10
-56.1
 20
40.85
 10
-56.1
 20
40.35
  0
LWPOLYLINE
  5
199
100
AcDbEntity
  8
ASSEMBLY_OUTLINES_TOP
100
AcDbPolyline
 90
        4
 70
         1
 43
0.1
 10
-22.075
 20
26.125
 10
-22.075
 20
27.175
 10
-18.925
 20
27.175
 10
-18.925
 20
26.125
  0
LWPOLYLINE
  5
19A
100
AcDbEntity
  8
ASSEMBLY_OUTLINES_TOP
100
AcDbPolyline
 90
        2
 70
         0
 43
0.1
 10
-18.925
 20
27.175
 10
-18.925
 20
26.125
  0
LWPOLYLINE
  5
19B
100
AcDbEntity
  8
ASSEMBLY_OUTLINES_TOP
100
AcDbPolyline
 90
        2
 70
         0
 43
0.1
 10
-19.025
 20
27.175
 10
-19.025
 20
26.125
  0
LWPOLYLINE
  5
19C
100
AcDbEntity
  8
ASSEMBLY_OUTLINES_TOP
100
AcDbPolyline
 90
        2
 70
         0
 43
0.1
 10
-19.125
 20
27.175
 10
-19.125
 20
26.125
  0
LWPOLYLINE
  5
19D
100
AcDbEntity
  8
ASSEMBLY_OUTLINES_TOP
100
AcDbPolyline
 90
        2
 70
         0
 43
0.1
 10
-19.225
 20
27.175
 10
-19.225
 20
26.125
  0
LWPOLYLINE
  5
19E
100
AcDbEntity
  8
ASSEMBLY_OUTLINES_TOP
100
AcDbPolyline
 90
        2
 70
         0
 43
0.1
 10
-19.325
 20
27.175
 10
-19.325
 20
26.125
  0
LWPOLYLINE
  5
19F
100
AcDbEntity
  8
ASSEMBLY_OUTLINES_TOP
100
AcDbPolyline
 90
        2
 70
         0
 43
0.1
 10
-19.425
 20
27.175
 10
-19.425
 20
26.125
  0
LWPOLYLINE
  5
1A0
100
AcDbEntity
  8
ASSEMBLY_OUTLINES_TOP
100
AcDbPolyline
 90
        2
 70
         0
 43
0.1
 10
-19.525
 20
27.175
 10
-19.525
 20
26.125
  0
LWPOLYLINE
  5
1A1
100
AcDbEntity
  8
ASSEMBLY_OUTLINES_TOP
100
AcDbPolyline
 90
        2
 70
         0
 43
0.1
 10
-19.625
 20
27.175
 10
-19.625
 20
26.125
  0
LWPOLYLINE
  5
1A2
100
AcDbEntity
  8
ASSEMBLY_OUTLINES_TOP
100
AcDbPolyline
 90
        4
 70
         1
 43
0.0
 10
-38.55
 20
12.8
 10
-38.55
 20
13.8
 10
-38.05
 20
13.8
 10
-38.05
 20
12.8
  0
LWPOLYLINE
  5
1A3
100
AcDbEntity
  8
ASSEMBLY_OUTLINES_TOP
100
AcDbPolyline
 90
        4
 70
         1
 43
0.0
 10
-38.7
 20
12.55
 10
-38.7
 20
14.05
 10
-37.9
 20
14.05
 10
-37.9
 20
12.55
  0
LWPOLYLINE
  5
1A4
100
AcDbEntity
  8
ASSEMBLY_OUTLINES_TOP
100
AcDbPolyline
 90
        4
 70
         1
 43
0.0
 10
-55.55
 20
26.3
 10
-55.55
 20
27.1
 10
-54.05
 20
27.1
 10
-54.05
 20
26.3
  0
LWPOLYLINE
  5
1A5
100
AcDbEntity
  8
ASSEMBLY_OUTLINES_TOP
100
AcDbPolyline
 90
        4
 70
         1
 43
0.0
 10
-55.3
 20
26.45
 10
-55.3
 20
26.95
 10
-54.3
 20
26.95
 10
-54.3
 20
26.45
  0
LWPOLYLINE
  5
1A6
100
AcDbEntity
  8
ASSEMBLY_OUTLINES_TOP
100
AcDbPolyline
 90
        4
 70
         1
 43
0.0
 10
-37.95
 20
22.65
 10
-37.95
 20
23.65
 10
-37.45
 20
23.65
 10
-37.45
 20
22.65
  0
LWPOLYLINE
  5
1A7
100
AcDbEntity
  8
ASSEMBLY_OUTLINES_TOP
100
AcDbPolyline
 90
        4
 70
         1
 43
0.0
 10
-38.1
 20
22.4
 10
-38.1
 20
23.9
 10
-37.3
 20
23.9
 10
-37.3
 20
22.4
  0
LWPOLYLINE
  5
1A8
100
AcDbEntity
  8
ASSEMBLY_OUTLINES_TOP
100
AcDbPolyline
 90
        4
 70
         1
 43
0.0
 10
-54.7
 20
38.45
 10
-54.7
 20
39.95
 10
-53.9
 20
39.95
 10
-53.9
 20
38.45
  0
LWPOLYLINE
  5
1A9
100
AcDbEntity
  8
ASSEMBLY_OUTLINES_TOP
100
AcDbPolyline
 90
        4
 70
         1
 43
0.0
 10
-54.55
 20
38.7
 10
-54.55
 20
39.7
 10
-54.05
 20
39.7
 10
-54.05
 20
38.7
  0
LWPOLYLINE
  5
1AA
100
AcDbEntity
  8
ASSEMBLY_OUTLINES_TOP
100
AcDbPolyline
 90
        4
 70
         1
 43
0.0
 10
-55.55
 20
27.2
 10
-55.55
 20
28.0
 10
-54.05
 20
28.0
 10
-54.05
 20
27.2
  0
LWPOLYLINE
  5
1AB
100
AcDbEntity
  8
ASSEMBLY_OUTLINES_TOP
100
AcDbPolyline
 90
        4
 70
         1
 43
0.0
 10
-55.3
 20
27.35
 10
-55.3
 20
27.85
 10
-54.3
 20
27.85
 10
-54.3
 20
27.35
  0
LWPOLYLINE
  5
1AC
100
AcDbEntity
  8
ASSEMBLY_OUTLINES_TOP
100
AcDbPolyline
 90
        4
 70
         1
 43
0.0
 10
-64.55
 20
35.95
 10
-64.55
 20
36.75
 10
-63.05
 20
36.75
 10
-63.05
 20
35.95
  0
LWPOLYLINE
  5
1AD
100
AcDbEntity
  8
ASSEMBLY_OUTLINES_TOP
100
AcDbPolyline
 90
        4
 70
         1
 43
0.0
 10
-64.3
 20
36.1
 10
-64.3
 20
36.6
 10
-63.3
 20
36.6
 10
-63.3
 20
36.1
  0
LWPOLYLINE
  5
1AE
100
AcDbEntity
  8
ASSEMBLY_OUTLINES_TOP
100
AcDbPolyline
 90
        4
 70
         1
 43
0.0
 10
-7.95
 20
52.7
 10
-7.95
 20
53.5
 10
-6.45
 20
53.5
 10
-6.45
 20
52.7
  0
LWPOLYLINE
  5
1AF
100
AcDbEntity
  8
ASSEMBLY_OUTLINES_TOP
100
AcDbPolyline
 90
        4
 70
         1
 43
0.0
 10
-7.7
 20
52.85
 10
-7.7
 20
53.35
 10
-6.7
 20
53.35
 10
-6.7
 20
52.85
  0
LWPOLYLINE
  5
1B0
100
AcDbEntity
  8
ASSEMBLY_OUTLINES_TOP
100
AcDbPolyline
 90
        4
 70
         1
 43
0.0
 10
-36.1
 20
19.65
 10
-36.1
 20
20.65
 10
-35.6
 20
20.65
 10
-35.6
 20
19.65
  0
LWPOLYLINE
  5
1B1
100
AcDbEntity
  8
ASSEMBLY_OUTLINES_TOP
100
AcDbPolyline
 90
        4
 70
         1
 43
0.0
 10
-36.25
 20
19.4
 10
-36.25
 20
20.9
 10
-35.45
 20
20.9
 10
-35.45
 20
19.4
  0
LWPOLYLINE
  5
1B2
100
AcDbEntity
  8
ASSEMBLY_OUTLINES_TOP
100
AcDbPolyline
 90
        4
 70
         1
 43
0.0
 10
-55.55
 20
38.45
 10
-55.55
 20
39.95
 10
-54.75
 20
39.95
 10
-54.75
 20
38.45
  0
LWPOLYLINE
  5
1B3
100
AcDbEntity
  8
ASSEMBLY_OUTLINES_TOP
100
AcDbPolyline
 90
        4
 70
         1
 43
0.0
 10
-55.4
 20
38.7
 10
-55.4
 20
39.7
 10
-54.9
 20
39.7
 10
-54.9
 20
38.7
  0
LWPOLYLINE
  5
1B4
100
AcDbEntity
  8
ASSEMBLY_OUTLINES_TOP
100
AcDbPolyline
 90
        4
 70
         1
 43
0.0
 10
-52.9
 20
25.75
 10
-52.9
 20
27.25
 10
-52.1
 20
27.25
 10
-52.1
 20
25.75
  0
LWPOLYLINE
  5
1B5
100
AcDbEntity
  8
ASSEMBLY_OUTLINES_TOP
100
AcDbPolyline
 90
        4
 70
         1
 43
0.0
 10
-52.75
 20
26.0
 10
-52.75
 20
27.0
 10
-52.25
 20
27.0
 10
-52.25
 20
26.0
  0
LWPOLYLINE
  5
1B6
100
AcDbEntity
  8
ASSEMBLY_OUTLINES_TOP
100
AcDbPolyline
 90
        4
 70
         1
 43
0.0
 10
-37.05
 20
20.9
 10
-37.05
 20
21.9
 10
-36.55
 20
21.9
 10
-36.55
 20
20.9
  0
LWPOLYLINE
  5
1B7
100
AcDbEntity
  8
ASSEMBLY_OUTLINES_TOP
100
AcDbPolyline
 90
        4
 70
         1
 43
0.0
 10
-37.2
 20
20.65
 10
-37.2
 20
22.15
 10
-36.4
 20
22.15
 10
-36.4
 20
20.65
  0
LWPOLYLINE
  5
1B8
100
AcDbEntity
  8
ASSEMBLY_OUTLINES_TOP
100
AcDbPolyline
 90
        4
 70
         1
 43
0.0
 10
-53.95
 20
26.65
 10
-53.95
 20
28.15
 10
-53.15
 20
28.15
 10
-53.15
 20
26.65
  0
LWPOLYLINE
  5
1B9
100
AcDbEntity
  8
ASSEMBLY_OUTLINES_TOP
100
AcDbPolyline
 90
        4
 70
         1
 43
0.0
 10
-53.8
 20
26.9
 10
-53.8
 20
27.9
 10
-53.3
 20
27.9
 10
-53.3
 20
26.9
  0
LWPOLYLINE
  5
1BA
100
AcDbEntity
  8
ASSEMBLY_OUTLINES_TOP
100
AcDbPolyline
 90
        4
 70
         1
 43
0.0
 10
-37.05
 20
22.5
 10
-37.05
 20
23.5
 10
-36.55
 20
23.5
 10
-36.55
 20
22.5
  0
LWPOLYLINE
  5
1BB
100
AcDbEntity
  8
ASSEMBLY_OUTLINES_TOP
100
AcDbPolyline
 90
        4
 70
         1
 43
0.0
 10
-37.2
 20
22.25
 10
-37.2
 20
23.75
 10
-36.4
 20
23.75
 10
-36.4
 20
22.25
  0
LWPOLYLINE
  5
1BC
100
AcDbEntity
  8
ASSEMBLY_OUTLINES_TOP
100
AcDbPolyline
 90
        4
 70
         1
 43
0.0
 10
-52.9
 20
27.55
 10
-52.9
 20
29.05
 10
-52.1
 20
29.05
 10
-52.1
 20
27.55
  0
LWPOLYLINE
  5
1BD
100
AcDbEntity
  8
ASSEMBLY_OUTLINES_TOP
100
AcDbPolyline
 90
        4
 70
         1
 43
0.0
 10
-52.75
 20
27.8
 10
-52.75
 20
28.8
 10
-52.25
 20
28.8
 10
-52.25
 20
27.8
  0
LWPOLYLINE
  5
1BE
100
AcDbEntity
  8
ASSEMBLY_OUTLINES_TOP
100
AcDbPolyline
 90
        4
 70
         1
 43
0.0
 10
-3.25
 20
47.75
 10
-3.25
 20
48.55
 10
-1.75
 20
48.55
 10
-1.75
 20
47.75
  0
LWPOLYLINE
  5
1BF
100
AcDbEntity
  8
ASSEMBLY_OUTLINES_TOP
100
AcDbPolyline
 90
        4
 70
         1
 43
0.0
 10
-3.0
 20
47.9
 10
-3.0
 20
48.4
 10
-2.0
 20
48.4
 10
-2.0
 20
47.9
  0
LWPOLYLINE
  5
1C0
100
AcDbEntity
  8
ASSEMBLY_OUTLINES_TOP
100
AcDbPolyline
 90
        4
 70
         1
 43
0.0
 10
-37.25
 20
66.0
 10
-37.25
 20
67.0
 10
-36.75
 20
67.0
 10
-36.75
 20
66.0
  0
LWPOLYLINE
  5
1C1
100
AcDbEntity
  8
ASSEMBLY_OUTLINES_TOP
100
AcDbPolyline
 90
        4
 70
         1
 43
0.0
 10
-37.4
 20
65.75
 10
-37.4
 20
67.25
 10
-36.6
 20
67.25
 10
-36.6
 20
65.75
  0
LWPOLYLINE
  5
1C2
100
AcDbEntity
  8
ASSEMBLY_OUTLINES_TOP
100
AcDbPolyline
 90
        4
 70
         1
 43
0.0
 10
-65.7
 20
44.3
 10
-65.7
 20
45.3
 10
-65.2
 20
45.3
 10
-65.2
 20
44.3
  0
LWPOLYLINE
  5
1C3
100
AcDbEntity
  8
ASSEMBLY_OUTLINES_TOP
100
AcDbPolyline
 90
        4
 70
         1
 43
0.0
 10
-65.85
 20
44.05
 10
-65.85
 20
45.55
 10
-65.05
 20
45.55
 10
-65.05
 20
44.05
  0
LWPOLYLINE
  5
1C4
100
AcDbEntity
  8
ASSEMBLY_OUTLINES_TOP
100
AcDbPolyline
 90
        4
 70
         1
 43
0.0
 10
-37.5
 20
44.9
 10
-37.5
 20
45.9
 10
-37.0
 20
45.9
 10
-37.0
 20
44.9
  0
LWPOLYLINE
  5
1C5
100
AcDbEntity
  8
ASSEMBLY_OUTLINES_TOP
100
AcDbPolyline
 90
        4
 70
         1
 43
0.0
 10
-37.65
 20
44.65
 10
-37.65
 20
46.15
 10
-36.85
 20
46.15
 10
-36.85
 20
44.65
  0
LWPOLYLINE
  5
1C6
100
AcDbEntity
  8
ASSEMBLY_OUTLINES_TOP
100
AcDbPolyline
 90
        4
 70
         1
 43
0.0
 10
-52.25
 20
32.9
 10
-52.25
 20
34.4
 10
-51.45
 20
34.4
 10
-51.45
 20
32.9
  0
LWPOLYLINE
  5
1C7
100
AcDbEntity
  8
ASSEMBLY_OUTLINES_TOP
100
AcDbPolyline
 90
        4
 70
         1
 43
0.0
 10
-52.1
 20
33.15
 10
-52.1
 20
34.15
 10
-51.6
 20
34.15
 10
-51.6
 20
33.15
  0
LWPOLYLINE
  5
1C8
100
AcDbEntity
  8
ASSEMBLY_OUTLINES_TOP
100
AcDbPolyline
 90
        4
 70
         1
 43
0.0
 10
-34.8
 20
18.35
 10
-34.8
 20
19.35
 10
-34.3
 20
19.35
 10
-34.3
 20
18.35
  0
LWPOLYLINE
  5
1C9
100
AcDbEntity
  8
ASSEMBLY_OUTLINES_TOP
100
AcDbPolyline
 90
        4
 70
         1
 43
0.0
 10
-34.95
 20
18.1
 10
-34.95
 20
19.6
 10
-34.15
 20
19.6
 10
-34.15
 20
18.1
  0
LWPOLYLINE
  5
1CA
100
AcDbEntity
  8
ASSEMBLY_OUTLINES_TOP
100
AcDbPolyline
 90
        4
 70
         1
 43
0.0
 10
-37.35
 20
46.55
 10
-37.35
 20
47.05
 10
-36.35
 20
47.05
 10
-36.35
 20
46.55
  0
LWPOLYLINE
  5
1CB
100
AcDbEntity
  8
ASSEMBLY_OUTLINES_TOP
100
AcDbPolyline
 90
        4
 70
         1
 43
0.0
 10
-37.6
 20
46.4
 10
-37.6
 20
47.2
 10
-36.1
 20
47.2
 10
-36.1
 20
46.4
  0
LWPOLYLINE
  5
1CC
100
AcDbEntity
  8
ASSEMBLY_OUTLINES_TOP
100
AcDbPolyline
 90
        4
 70
         1
 43
0.0
 10
-53.85
 20
37.8
 10
-53.85
 20
38.6
 10
-52.35
 20
38.6
 10
-52.35
 20
37.8
  0
LWPOLYLINE
  5
1CD
100
AcDbEntity
  8
ASSEMBLY_OUTLINES_TOP
100
AcDbPolyline
 90
        4
 70
         1
 43
0.0
 10
-53.6
 20
37.95
 10
-53.6
 20
38.45
 10
-52.6
 20
38.45
 10
-52.6
 20
37.95
  0
LWPOLYLINE
  5
1CE
100
AcDbEntity
  8
ASSEMBLY_OUTLINES_TOP
100
AcDbPolyline
 90
        4
 70
         1
 43
0.0
 10
-29.9
 20
63.85
 10
-29.9
 20
67.95
 10
0.1
 20
67.95
 10
0.1
 20
63.85
  0
LWPOLYLINE
  5
1CF
100
AcDbEntity
  8
ASSEMBLY_OUTLINES_TOP
100
AcDbPolyline
 90
        4
 70
         1
 43
0.0
 10
-33.6
 20
12.75
 10
-33.6
 20
13.25
 10
-32.6
 20
13.25
 10
-32.6
 20
12.75
  0
LWPOLYLINE
  5
1D0
100
AcDbEntity
  8
ASSEMBLY_OUTLINES_TOP
100
AcDbPolyline
 90
        4
 70
         1
 43
0.0
 10
-33.85
 20
12.6
 10
-33.85
 20
13.4
 10
-32.35
 20
13.4
 10
-32.35
 20
12.6
  0
LWPOLYLINE
  5
1D1
100
AcDbEntity
  8
ASSEMBLY_OUTLINES_TOP
100
AcDbPolyline
 90
        4
 70
         1
 43
0.0
 10
-50.35
 20
29.0
 10
-50.35
 20
29.8
 10
-48.85
 20
29.8
 10
-48.85
 20
29.0
  0
LWPOLYLINE
  5
1D2
100
AcDbEntity
  8
ASSEMBLY_OUTLINES_TOP
100
AcDbPolyline
 90
        4
 70
         1
 43
0.0
 10
-50.1
 20
29.15
 10
-50.1
 20
29.65
 10
-49.1
 20
29.65
 10
-49.1
 20
29.15
  0
LWPOLYLINE
  5
1D3
100
AcDbEntity
  8
ASSEMBLY_OUTLINES_TOP
100
AcDbPolyline
 90
        4
 70
         1
 43
0.0
 10
-33.6
 20
13.65
 10
-33.6
 20
14.15
 10
-32.6
 20
14.15
 10
-32.6
 20
13.65
  0
LWPOLYLINE
  5
1D4
100
AcDbEntity
  8
ASSEMBLY_OUTLINES_TOP
100
AcDbPolyline
 90
        4
 70
         1
 43
0.0
 10
-33.85
 20
13.5
 10
-33.85
 20
14.3
 10
-32.35
 20
14.3
 10
-32.35
 20
13.5
  0
LWPOLYLINE
  5
1D5
100
AcDbEntity
  8
ASSEMBLY_OUTLINES_TOP
100
AcDbPolyline
 90
        4
 70
         1
 43
0.0
 10
-52.25
 20
29.05
 10
-52.25
 20
29.85
 10
-50.75
 20
29.85
 10
-50.75
 20
29.05
  0
LWPOLYLINE
  5
1D6
100
AcDbEntity
  8
ASSEMBLY_OUTLINES_TOP
100
AcDbPolyline
 90
        4
 70
         1
 43
0.0
 10
-52.0
 20
29.2
 10
-52.0
 20
29.7
 10
-51.0
 20
29.7
 10
-51.0
 20
29.2
  0
LWPOLYLINE
  5
1D7
100
AcDbEntity
  8
ASSEMBLY_OUTLINES_TOP
100
AcDbPolyline
 90
        4
 70
         1
 43
0.0
 10
-33.8
 20
44.9
 10
-33.8
 20
45.9
 10
-33.3
 20
45.9
 10
-33.3
 20
44.9
  0
LWPOLYLINE
  5
1D8
100
AcDbEntity
  8
ASSEMBLY_OUTLINES_TOP
100
AcDbPolyline
 90
        4
 70
         1
 43
0.0
 10
-33.95
 20
44.65
 10
-33.95
 20
46.15
 10
-33.15
 20
46.15
 10
-33.15
 20
44.65
  0
LWPOLYLINE
  5
1D9
100
AcDbEntity
  8
ASSEMBLY_OUTLINES_TOP
100
AcDbPolyline
 90
        4
 70
         1
 43
0.0
 10
-52.25
 20
29.85
 10
-52.25
 20
30.65
 10
-50.75
 20
30.65
 10
-50.75
 20
29.85
  0
LWPOLYLINE
  5
1DA
100
AcDbEntity
  8
ASSEMBLY_OUTLINES_TOP
100
AcDbPolyline
 90
        4
 70
         1
 43
0.0
 10
-52.0
 20
30.0
 10
-52.0
 20
30.5
 10
-51.0
 20
30.5
 10
-51.0
 20
30.0
  0
LWPOLYLINE
  5
1DB
100
AcDbEntity
  8
ASSEMBLY_OUTLINES_TOP
100
AcDbPolyline
 90
        4
 70
         1
 43
0.0
 10
-52.25
 20
30.65
 10
-52.25
 20
31.45
 10
-50.75
 20
31.45
 10
-50.75
 20
30.65
  0
LWPOLYLINE
  5
1DC
100
AcDbEntity
  8
ASSEMBLY_OUTLINES_TOP
100
AcDbPolyline
 90
        4
 70
         1
 43
0.0
 10
-52.0
 20
30.8
 10
-52.0
 20
31.3
 10
-51.0
 20
31.3
 10
-51.0
 20
30.8
  0
LWPOLYLINE
  5
1DD
100
AcDbEntity
  8
ASSEMBLY_OUTLINES_TOP
100
AcDbPolyline
 90
        4
 70
         1
 43
0.0
 10
-30.25
 20
19.9
 10
-30.25
 20
20.4
 10
-29.25
 20
20.4
 10
-29.25
 20
19.9
  0
LWPOLYLINE
  5
1DE
100
AcDbEntity
  8
ASSEMBLY_OUTLINES_TOP
100
AcDbPolyline
 90
        4
 70
         1
 43
0.0
 10
-30.5
 20
19.75
 10
-30.5
 20
20.55
 10
-29.0
 20
20.55
 10
-29.0
 20
19.75
  0
LWPOLYLINE
  5
1DF
100
AcDbEntity
  8
ASSEMBLY_OUTLINES_TOP
100
AcDbPolyline
 90
        4
 70
         1
 43
0.0
 10
-50.35
 20
29.85
 10
-50.35
 20
30.65
 10
-48.85
 20
30.65
 10
-48.85
 20
29.85
  0
LWPOLYLINE
  5
1E0
100
AcDbEntity
  8
ASSEMBLY_OUTLINES_TOP
100
AcDbPolyline
 90
        4
 70
         1
 43
0.0
 10
-50.1
 20
30.0
 10
-50.1
 20
30.5
 10
-49.1
 20
30.5
 10
-49.1
 20
30.0
  0
LWPOLYLINE
  5
1E1
100
AcDbEntity
  8
ASSEMBLY_OUTLINES_TOP
100
AcDbPolyline
 90
        4
 70
         1
 43
0.0
 10
-50.35
 20
30.7
 10
-50.35
 20
31.5
 10
-48.85
 20
31.5
 10
-48.85
 20
30.7
  0
LWPOLYLINE
  5
1E2
100
AcDbEntity
  8
ASSEMBLY_OUTLINES_TOP
100
AcDbPolyline
 90
        4
 70
         1
 43
0.0
 10
-50.1
 20
30.85
 10
-50.1
 20
31.35
 10
-49.1
 20
31.35
 10
-49.1
 20
30.85
  0
LWPOLYLINE
  5
1E3
100
AcDbEntity
  8
ASSEMBLY_OUTLINES_TOP
100
AcDbPolyline
 90
        4
 70
         1
 43
0.0
 10
-30.9
 20
48.95
 10
-30.9
 20
49.45
 10
-29.9
 20
49.45
 10
-29.9
 20
48.95
  0
LWPOLYLINE
  5
1E4
100
AcDbEntity
  8
ASSEMBLY_OUTLINES_TOP
100
AcDbPolyline
 90
        4
 70
         1
 43
0.0
 10
-31.15
 20
48.8
 10
-31.15
 20
49.6
 10
-29.65
 20
49.6
 10
-29.65
 20
48.8
  0
LWPOLYLINE
  5
1E5
100
AcDbEntity
  8
ASSEMBLY_OUTLINES_TOP
100
AcDbPolyline
 90
        4
 70
         1
 43
0.0
 10
-52.25
 20
34.75
 10
-52.25
 20
35.55
 10
-50.75
 20
35.55
 10
-50.75
 20
34.75
  0
LWPOLYLINE
  5
1E6
100
AcDbEntity
  8
ASSEMBLY_OUTLINES_TOP
100
AcDbPolyline
 90
        4
 70
         1
 43
0.0
 10
-52.0
 20
34.9
 10
-52.0
 20
35.4
 10
-51.0
 20
35.4
 10
-51.0
 20
34.9
  0
LWPOLYLINE
  5
1E7
100
AcDbEntity
  8
ASSEMBLY_OUTLINES_TOP
100
AcDbPolyline
 90
        4
 70
         1
 43
0.0
 10
-31.3
 20
49.85
 10
-31.3
 20
50.35
 10
-30.3
 20
50.35
 10
-30.3
 20
49.85
  0
LWPOLYLINE
  5
1E8
100
AcDbEntity
  8
ASSEMBLY_OUTLINES_TOP
100
AcDbPolyline
 90
        4
 70
         1
 43
0.0
 10
-31.55
 20
49.7
 10
-31.55
 20
50.5
 10
-30.05
 20
50.5
 10
-30.05
 20
49.7
  0
LWPOLYLINE
  5
1E9
100
AcDbEntity
  8
ASSEMBLY_OUTLINES_TOP
100
AcDbPolyline
 90
        4
 70
         1
 43
0.0
 10
-52.3
 20
38.35
 10
-52.3
 20
39.15
 10
-50.8
 20
39.15
 10
-50.8
 20
38.35
  0
LWPOLYLINE
  5
1EA
100
AcDbEntity
  8
ASSEMBLY_OUTLINES_TOP
100
AcDbPolyline
 90
        4
 70
         1
 43
0.0
 10
-52.05
 20
38.5
 10
-52.05
 20
39.0
 10
-51.05
 20
39.0
 10
-51.05
 20
38.5
  0
LWPOLYLINE
  5
1EB
100
AcDbEntity
  8
ASSEMBLY_OUTLINES_TOP
100
AcDbPolyline
 90
        4
 70
         1
 43
0.0
 10
-28.65
 20
20.8
 10
-28.65
 20
21.8
 10
-28.15
 20
21.8
 10
-28.15
 20
20.8
  0
LWPOLYLINE
  5
1EC
100
AcDbEntity
  8
ASSEMBLY_OUTLINES_TOP
100
AcDbPolyline
 90
        4
 70
         1
 43
0.0
 10
-28.8
 20
20.55
 10
-28.8
 20
22.05
 10
-28.0
 20
22.05
 10
-28.0
 20
20.55
  0
LWPOLYLINE
  5
1ED
100
AcDbEntity
  8
ASSEMBLY_OUTLINES_TOP
100
AcDbPolyline
 90
        4
 70
         1
 43
0.0
 10
-29.3
 20
48.95
 10
-29.3
 20
49.45
 10
-28.3
 20
49.45
 10
-28.3
 20
48.95
  0
LWPOLYLINE
  5
1EE
100
AcDbEntity
  8
ASSEMBLY_OUTLINES_TOP
100
AcDbPolyline
 90
        4
 70
         1
 43
0.0
 10
-29.55
 20
48.8
 10
-29.55
 20
49.6
 10
-28.05
 20
49.6
 10
-28.05
 20
48.8
  0
LWPOLYLINE
  5
1EF
100
AcDbEntity
  8
ASSEMBLY_OUTLINES_TOP
100
AcDbPolyline
 90
        4
 70
         1
 43
0.0
 10
-52.3
 20
39.2
 10
-52.3
 20
40.0
 10
-50.8
 20
40.0
 10
-50.8
 20
39.2
  0
LWPOLYLINE
  5
1F0
100
AcDbEntity
  8
ASSEMBLY_OUTLINES_TOP
100
AcDbPolyline
 90
        4
 70
         1
 43
0.0
 10
-52.05
 20
39.35
 10
-52.05
 20
39.85
 10
-51.05
 20
39.85
 10
-51.05
 20
39.35
  0
LWPOLYLINE
  5
1F1
100
AcDbEntity
  8
ASSEMBLY_OUTLINES_TOP
100
AcDbPolyline
 90
        4
 70
         1
 43
0.0
 10
-27.55
 20
23.05
 10
-27.55
 20
23.55
 10
-26.55
 20
23.55
 10
-26.55
 20
23.05
  0
LWPOLYLINE
  5
1F2
100
AcDbEntity
  8
ASSEMBLY_OUTLINES_TOP
100
AcDbPolyline
 90
        4
 70
         1
 43
0.0
 10
-27.8
 20
22.9
 10
-27.8
 20
23.7
 10
-26.3
 20
23.7
 10
-26.3
 20
22.9
  0
LWPOLYLINE
  5
1F3
100
AcDbEntity
  8
ASSEMBLY_OUTLINES_TOP
100
AcDbPolyline
 90
        4
 70
         1
 43
0.0
 10
-28.65
 20
47.15
 10
-28.65
 20
48.15
 10
-28.15
 20
48.15
 10
-28.15
 20
47.15
  0
LWPOLYLINE
  5
1F4
100
AcDbEntity
  8
ASSEMBLY_OUTLINES_TOP
100
AcDbPolyline
 90
        4
 70
         1
 43
0.0
 10
-28.8
 20
46.9
 10
-28.8
 20
48.4
 10
-28.0
 20
48.4
 10
-28.0
 20
46.9
  0
LWPOLYLINE
  5
1F5
100
AcDbEntity
  8
ASSEMBLY_OUTLINES_TOP
100
AcDbPolyline
 90
        4
 70
         1
 43
0.0
 10
-49.95
 20
36.6
 10
-49.95
 20
37.4
 10
-48.45
 20
37.4
 10
-48.45
 20
36.6
  0
LWPOLYLINE
  5
1F6
100
AcDbEntity
  8
ASSEMBLY_OUTLINES_TOP
100
AcDbPolyline
 90
        4
 70
         1
 43
0.0
 10
-49.7
 20
36.75
 10
-49.7
 20
37.25
 10
-48.7
 20
37.25
 10
-48.7
 20
36.75
  0
LWPOLYLINE
  5
1F7
100
AcDbEntity
  8
ASSEMBLY_OUTLINES_TOP
100
AcDbPolyline
 90
        4
 70
         1
 43
0.0
 10
-26.05
 20
22.85
 10
-26.05
 20
23.85
 10
-25.55
 20
23.85
 10
-25.55
 20
22.85
  0
LWPOLYLINE
  5
1F8
100
AcDbEntity
  8
ASSEMBLY_OUTLINES_TOP
100
AcDbPolyline
 90
        4
 70
         1
 43
0.0
 10
-26.2
 20
22.6
 10
-26.2
 20
24.1
 10
-25.4
 20
24.1
 10
-25.4
 20
22.6
  0
LWPOLYLINE
  5
1F9
100
AcDbEntity
  8
ASSEMBLY_OUTLINES_TOP
100
AcDbPolyline
 90
        4
 70
         1
 43
0.0
 10
-49.95
 20
37.5
 10
-49.95
 20
38.3
 10
-48.45
 20
38.3
 10
-48.45
 20
37.5
  0
LWPOLYLINE
  5
1FA
100
AcDbEntity
  8
ASSEMBLY_OUTLINES_TOP
100
AcDbPolyline
 90
        4
 70
         1
 43
0.0
 10
-49.7
 20
37.65
 10
-49.7
 20
38.15
 10
-48.7
 20
38.15
 10
-48.7
 20
37.65
  0
LWPOLYLINE
  5
1FB
100
AcDbEntity
  8
ASSEMBLY_OUTLINES_TOP
100
AcDbPolyline
 90
        4
 70
         1
 43
0.0
 10
-27.55
 20
23.9
 10
-27.55
 20
24.4
 10
-26.55
 20
24.4
 10
-26.55
 20
23.9
  0
LWPOLYLINE
  5
1FC
100
AcDbEntity
  8
ASSEMBLY_OUTLINES_TOP
100
AcDbPolyline
 90
        4
 70
         1
 43
0.0
 10
-27.8
 20
23.75
 10
-27.8
 20
24.55
 10
-26.3
 20
24.55
 10
-26.3
 20
23.75
  0
LWPOLYLINE
  5
1FD
100
AcDbEntity
  8
ASSEMBLY_OUTLINES_TOP
100
AcDbPolyline
 90
        4
 70
         1
 43
0.0
 10
-47.0
 20
51.35
 10
-47.0
 20
52.85
 10
-46.2
 20
52.85
 10
-46.2
 20
51.35
  0
LWPOLYLINE
  5
1FE
100
AcDbEntity
  8
ASSEMBLY_OUTLINES_TOP
100
AcDbPolyline
 90
        4
 70
         1
 43
0.0
 10
-46.85
 20
51.6
 10
-46.85
 20
52.6
 10
-46.35
 20
52.6
 10
-46.35
 20
51.6
  0
LWPOLYLINE
  5
1FF
100
AcDbEntity
  8
ASSEMBLY_OUTLINES_TOP
100
AcDbPolyline
 90
        4
 70
         1
 43
0.0
 10
-26.850001
 20
47.15
 10
-26.850001
 20
48.15
 10
-27.350001
 20
48.149999
 10
-27.350001
 20
47.15
  0
LWPOLYLINE
  5
200
100
AcDbEntity
  8
ASSEMBLY_OUTLINES_TOP
100
AcDbPolyline
 90
        4
 70
         1
 43
0.0
 10
-26.700001
 20
46.899999
 10
-26.700001
 20
48.4
 10
-27.500001
 20
48.4
 10
-27.500001
 20
46.9
  0
LWPOLYLINE
  5
201
100
AcDbEntity
  8
ASSEMBLY_OUTLINES_TOP
100
AcDbPolyline
 90
        4
 70
         1
 43
0.0
 10
-45.2
 20
51.35
 10
-45.2
 20
52.85
 10
-44.4
 20
52.85
 10
-44.4
 20
51.35
  0
LWPOLYLINE
  5
202
100
AcDbEntity
  8
ASSEMBLY_OUTLINES_TOP
100
AcDbPolyline
 90
        4
 70
         1
 43
0.0
 10
-45.05
 20
51.6
 10
-45.05
 20
52.6
 10
-44.55
 20
52.6
 10
-44.55
 20
51.6
  0
LWPOLYLINE
  5
203
100
AcDbEntity
  8
ASSEMBLY_OUTLINES_TOP
100
AcDbPolyline
 90
        4
 70
         1
 43
0.0
 10
-46.1
 20
51.35
 10
-46.1
 20
52.85
 10
-45.3
 20
52.85
 10
-45.3
 20
51.35
  0
LWPOLYLINE
  5
204
100
AcDbEntity
  8
ASSEMBLY_OUTLINES_TOP
100
AcDbPolyline
 90
        4
 70
         1
 43
0.0
 10
-45.95
 20
51.6
 10
-45.95
 20
52.6
 10
-45.45
 20
52.6
 10
-45.45
 20
51.6
  0
LWPOLYLINE
  5
205
100
AcDbEntity
  8
ASSEMBLY_OUTLINES_TOP
100
AcDbPolyline
 90
        4
 70
         1
 43
0.0
 10
-27.75
 20
48.8
 10
-27.75
 20
49.8
 10
-27.25
 20
49.8
 10
-27.25
 20
48.8
  0
LWPOLYLINE
  5
206
100
AcDbEntity
  8
ASSEMBLY_OUTLINES_TOP
100
AcDbPolyline
 90
        4
 70
         1
 43
0.0
 10
-27.9
 20
48.55
 10
-27.9
 20
50.05
 10
-27.1
 20
50.05
 10
-27.1
 20
48.55
  0
LWPOLYLINE
  5
207
100
AcDbEntity
  8
ASSEMBLY_OUTLINES_TOP
100
AcDbPolyline
 90
        4
 70
         1
 43
0.0
 10
-44.35
 20
40.7
 10
-44.35
 20
41.5
 10
-42.85
 20
41.5
 10
-42.85
 20
40.7
  0
LWPOLYLINE
  5
208
100
AcDbEntity
  8
ASSEMBLY_OUTLINES_TOP
100
AcDbPolyline
 90
        4
 70
         1
 43
0.0
 10
-44.1
 20
40.85
 10
-44.1
 20
41.35
 10
-43.1
 20
41.35
 10
-43.1
 20
40.85
  0
LWPOLYLINE
  5
209
100
AcDbEntity
  8
ASSEMBLY_OUTLINES_TOP
100
AcDbPolyline
 90
        4
 70
         1
 43
0.0
 10
-44.3
 20
35.85
 10
-44.3
 20
36.65
 10
-42.8
 20
36.65
 10
-42.8
 20
35.85
  0
LWPOLYLINE
  5
20A
100
AcDbEntity
  8
ASSEMBLY_OUTLINES_TOP
100
AcDbPolyline
 90
        4
 70
         1
 43
0.0
 10
-44.05
 20
36.0
 10
-44.05
 20
36.5
 10
-43.05
 20
36.5
 10
-43.05
 20
36.0
  0
LWPOLYLINE
  5
20B
100
AcDbEntity
  8
ASSEMBLY_OUTLINES_TOP
100
AcDbPolyline
 90
        4
 70
         1
 43
0.0
 10
-25.2
 20
24.6
 10
-25.2
 20
25.6
 10
-24.7
 20
25.6
 10
-24.7
 20
24.6
  0
LWPOLYLINE
  5
20C
100
AcDbEntity
  8
ASSEMBLY_OUTLINES_TOP
100
AcDbPolyline
 90
        4
 70
         1
 43
0.0
 10
-25.35
 20
24.35
 10
-25.35
 20
25.85
 10
-24.55
 20
25.85
 10
-24.55
 20
24.35
  0
LWPOLYLINE
  5
20D
100
AcDbEntity
  8
ASSEMBLY_OUTLINES_TOP
100
AcDbPolyline
 90
        4
 70
         1
 43
0.0
 10
-40.8
 20
28.7
 10
-40.8
 20
29.5
 10
-39.3
 20
29.5
 10
-39.3
 20
28.7
  0
LWPOLYLINE
  5
20E
100
AcDbEntity
  8
ASSEMBLY_OUTLINES_TOP
100
AcDbPolyline
 90
        4
 70
         1
 43
0.0
 10
-40.55
 20
28.85
 10
-40.55
 20
29.35
 10
-39.55
 20
29.35
 10
-39.55
 20
28.85
  0
LWPOLYLINE
  5
20F
100
AcDbEntity
  8
ASSEMBLY_OUTLINES_TOP
100
AcDbPolyline
 90
        4
 70
         1
 43
0.0
 10
-62.05
 20
51.15
 10
-62.05
 20
52.15
 10
-61.55
 20
52.15
 10
-61.55
 20
51.15
  0
LWPOLYLINE
  5
210
100
AcDbEntity
  8
ASSEMBLY_OUTLINES_TOP
100
AcDbPolyline
 90
        4
 70
         1
 43
0.0
 10
-62.2
 20
50.9
 10
-62.2
 20
52.4
 10
-61.4
 20
52.4
 10
-61.4
 20
50.9
  0
LWPOLYLINE
  5
211
100
AcDbEntity
  8
ASSEMBLY_OUTLINES_TOP
100
AcDbPolyline
 90
        4
 70
         1
 43
0.0
 10
-40.8
 20
29.7
 10
-40.8
 20
30.5
 10
-39.3
 20
30.5
 10
-39.3
 20
29.7
  0
LWPOLYLINE
  5
212
100
AcDbEntity
  8
ASSEMBLY_OUTLINES_TOP
100
AcDbPolyline
 90
        4
 70
         1
 43
0.0
 10
-40.55
 20
29.85
 10
-40.55
 20
30.35
 10
-39.55
 20
30.35
 10
-39.55
 20
29.85
  0
LWPOLYLINE
  5
213
100
AcDbEntity
  8
ASSEMBLY_OUTLINES_TOP
100
AcDbPolyline
 90
        4
 70
         1
 43
0.1
 10
-56.8
 20
17.8
 10
-56.8
 20
19.2
 10
-53.8
 20
19.2
 10
-53.8
 20
17.8
  0
LWPOLYLINE
  5
214
100
AcDbEntity
  8
ASSEMBLY_OUTLINES_TOP
100
AcDbPolyline
 90
        2
 70
         0
 43
0.1
 10
-53.9
 20
19.2
 10
-53.8
 20
19.1
  0
LWPOLYLINE
  5
215
100
AcDbEntity
  8
ASSEMBLY_OUTLINES_TOP
100
AcDbPolyline
 90
        2
 70
         0
 43
0.1
 10
-54.0
 20
19.2
 10
-53.8
 20
19.0
  0
LWPOLYLINE
  5
216
100
AcDbEntity
  8
ASSEMBLY_OUTLINES_TOP
100
AcDbPolyline
 90
        2
 70
         0
 43
0.1
 10
-54.1
 20
19.2
 10
-53.8
 20
18.9
  0
LWPOLYLINE
  5
217
100
AcDbEntity
  8
ASSEMBLY_OUTLINES_TOP
100
AcDbPolyline
 90
        2
 70
         0
 43
0.1
 10
-54.2
 20
19.2
 10
-53.8
 20
18.8
  0
LWPOLYLINE
  5
218
100
AcDbEntity
  8
ASSEMBLY_OUTLINES_TOP
100
AcDbPolyline
 90
        2
 70
         0
 43
0.1
 10
-54.3
 20
19.2
 10
-53.8
 20
18.7
  0
LWPOLYLINE
  5
219
100
AcDbEntity
  8
ASSEMBLY_OUTLINES_TOP
100
AcDbPolyline
 90
        2
 70
         0
 43
0.1
 10
-54.4
 20
19.2
 10
-53.8
 20
18.6
  0
LWPOLYLINE
  5
21A
100
AcDbEntity
  8
ASSEMBLY_OUTLINES_TOP
100
AcDbPolyline
 90
        4
 70
         1
 43
0.0
 10
-11.6
 20
40.45
 10
-11.6
 20
40.95
 10
-10.6
 20
40.95
 10
-10.6
 20
40.45
  0
LWPOLYLINE
  5
21B
100
AcDbEntity
  8
ASSEMBLY_OUTLINES_TOP
100
AcDbPolyline
 90
        4
 70
         1
 43
0.0
 10
-11.85
 20
40.3
 10
-11.85
 20
41.1
 10
-10.35
 20
41.1
 10
-10.35
 20
40.3
  0
LWPOLYLINE
  5
21C
100
AcDbEntity
  8
ASSEMBLY_OUTLINES_TOP
100
AcDbPolyline
 90
        4
 70
         1
 43
0.0
 10
-9.7
 20
52.85
 10
-9.7
 20
53.35
 10
-8.7
 20
53.35
 10
-8.7
 20
52.85
  0
LWPOLYLINE
  5
21D
100
AcDbEntity
  8
ASSEMBLY_OUTLINES_TOP
100
AcDbPolyline
 90
        4
 70
         1
 43
0.0
 10
-9.95
 20
52.7
 10
-9.95
 20
53.5
 10
-8.45
 20
53.5
 10
-8.45
 20
52.7
  0
LWPOLYLINE
  5
21E
100
AcDbEntity
  8
ASSEMBLY_OUTLINES_TOP
100
AcDbPolyline
 90
        4
 70
         1
 43
0.0
 10
-40.8
 20
31.6
 10
-40.8
 20
32.4
 10
-39.3
 20
32.4
 10
-39.3
 20
31.6
  0
LWPOLYLINE
  5
21F
100
AcDbEntity
  8
ASSEMBLY_OUTLINES_TOP
100
AcDbPolyline
 90
        4
 70
         1
 43
0.0
 10
-40.55
 20
31.75
 10
-40.55
 20
32.25
 10
-39.55
 20
32.25
 10
-39.55
 20
31.75
  0
LWPOLYLINE
  5
220
100
AcDbEntity
  8
ASSEMBLY_OUTLINES_TOP
100
AcDbPolyline
 90
        4
 70
         1
 43
0.1
 10
-53.4
 20
17.8
 10
-53.4
 20
19.2
 10
-50.4
 20
19.2
 10
-50.4
 20
17.8
  0
LWPOLYLINE
  5
221
100
AcDbEntity
  8
ASSEMBLY_OUTLINES_TOP
100
AcDbPolyline
 90
        2
 70
         0
 43
0.1
 10
-50.5
 20
19.2
 10
-50.4
 20
19.1
  0
LWPOLYLINE
  5
222
100
AcDbEntity
  8
ASSEMBLY_OUTLINES_TOP
100
AcDbPolyline
 90
        2
 70
         0
 43
0.1
 10
-50.6
 20
19.2
 10
-50.4
 20
19.0
  0
LWPOLYLINE
  5
223
100
AcDbEntity
  8
ASSEMBLY_OUTLINES_TOP
100
AcDbPolyline
 90
        2
 70
         0
 43
0.1
 10
-50.7
 20
19.2
 10
-50.4
 20
18.9
  0
LWPOLYLINE
  5
224
100
AcDbEntity
  8
ASSEMBLY_OUTLINES_TOP
100
AcDbPolyline
 90
        2
 70
         0
 43
0.1
 10
-50.8
 20
19.2
 10
-50.4
 20
18.8
  0
LWPOLYLINE
  5
225
100
AcDbEntity
  8
ASSEMBLY_OUTLINES_TOP
100
AcDbPolyline
 90
        2
 70
         0
 43
0.1
 10
-50.9
 20
19.2
 10
-50.4
 20
18.7
  0
LWPOLYLINE
  5
226
100
AcDbEntity
  8
ASSEMBLY_OUTLINES_TOP
100
AcDbPolyline
 90
        2
 70
         0
 43
0.1
 10
-51.0
 20
19.2
 10
-50.4
 20
18.6
  0
LWPOLYLINE
  5
227
100
AcDbEntity
  8
ASSEMBLY_OUTLINES_TOP
100
AcDbPolyline
 90
        4
 70
         1
 43
0.0
 10
-4.4
 20
37.65
 10
-4.4
 20
38.15
 10
-3.4
 20
38.15
 10
-3.4
 20
37.65
  0
LWPOLYLINE
  5
228
100
AcDbEntity
  8
ASSEMBLY_OUTLINES_TOP
100
AcDbPolyline
 90
        4
 70
         1
 43
0.0
 10
-4.65
 20
37.5
 10
-4.65
 20
38.3
 10
-3.15
 20
38.3
 10
-3.15
 20
37.5
  0
LWPOLYLINE
  5
229
100
AcDbEntity
  8
ASSEMBLY_OUTLINES_TOP
100
AcDbPolyline
 90
        4
 70
         1
 43
0.0
 10
-11.55
 20
52.85
 10
-11.55
 20
53.35
 10
-10.55
 20
53.35
 10
-10.55
 20
52.85
  0
LWPOLYLINE
  5
22A
100
AcDbEntity
  8
ASSEMBLY_OUTLINES_TOP
100
AcDbPolyline
 90
        4
 70
         1
 43
0.0
 10
-11.8
 20
52.7
 10
-11.8
 20
53.5
 10
-10.3
 20
53.5
 10
-10.3
 20
52.7
  0
LWPOLYLINE
  5
22B
100
AcDbEntity
  8
ASSEMBLY_OUTLINES_TOP
100
AcDbPolyline
 90
        4
 70
         1
 43
0.0
 10
-40.8
 20
32.45
 10
-40.8
 20
33.25
 10
-39.3
 20
33.25
 10
-39.3
 20
32.45
  0
LWPOLYLINE
  5
22C
100
AcDbEntity
  8
ASSEMBLY_OUTLINES_TOP
100
AcDbPolyline
 90
        4
 70
         1
 43
0.0
 10
-40.55
 20
32.6
 10
-40.55
 20
33.1
 10
-39.55
 20
33.1
 10
-39.55
 20
32.6
  0
LWPOLYLINE
  5
22D
100
AcDbEntity
  8
ASSEMBLY_OUTLINES_TOP
100
AcDbPolyline
 90
        4
 70
         1
 43
0.1
 10
-40.6
 20
3.2
 10
-40.6
 20
4.6
 10
-37.6
 20
4.6
 10
-37.6
 20
3.2
  0
LWPOLYLINE
  5
22E
100
AcDbEntity
  8
ASSEMBLY_OUTLINES_TOP
100
AcDbPolyline
 90
        2
 70
         0
 43
0.1
 10
-40.5
 20
3.2
 10
-40.6
 20
3.3
  0
LWPOLYLINE
  5
22F
100
AcDbEntity
  8
ASSEMBLY_OUTLINES_TOP
100
AcDbPolyline
 90
        2
 70
         0
 43
0.1
 10
-40.4
 20
3.2
 10
-40.6
 20
3.4
  0
LWPOLYLINE
  5
230
100
AcDbEntity
  8
ASSEMBLY_OUTLINES_TOP
100
AcDbPolyline
 90
        2
 70
         0
 43
0.1
 10
-40.3
 20
3.2
 10
-40.6
 20
3.5
  0
LWPOLYLINE
  5
231
100
AcDbEntity
  8
ASSEMBLY_OUTLINES_TOP
100
AcDbPolyline
 90
        2
 70
         0
 43
0.1
 10
-40.2
 20
3.2
 10
-40.6
 20
3.6
  0
LWPOLYLINE
  5
232
100
AcDbEntity
  8
ASSEMBLY_OUTLINES_TOP
100
AcDbPolyline
 90
        2
 70
         0
 43
0.1
 10
-40.1
 20
3.2
 10
-40.6
 20
3.7
  0
LWPOLYLINE
  5
233
100
AcDbEntity
  8
ASSEMBLY_OUTLINES_TOP
100
AcDbPolyline
 90
        2
 70
         0
 43
0.1
 10
-40.0
 20
3.2
 10
-40.6
 20
3.8
  0
LWPOLYLINE
  5
234
100
AcDbEntity
  8
ASSEMBLY_OUTLINES_TOP
100
AcDbPolyline
 90
        4
 70
         1
 43
0.0
 10
-4.4
 20
38.5
 10
-4.4
 20
39.0
 10
-3.4
 20
39.0
 10
-3.4
 20
38.5
  0
LWPOLYLINE
  5
235
100
AcDbEntity
  8
ASSEMBLY_OUTLINES_TOP
100
AcDbPolyline
 90
        4
 70
         1
 43
0.0
 10
-4.65
 20
38.35
 10
-4.65
 20
39.15
 10
-3.15
 20
39.15
 10
-3.15
 20
38.35
  0
LWPOLYLINE
  5
236
100
AcDbEntity
  8
ASSEMBLY_OUTLINES_TOP
100
AcDbPolyline
 90
        4
 70
         1
 43
0.0
 10
-40.65
 20
36.4
 10
-40.65
 20
37.2
 10
-39.15
 20
37.2
 10
-39.15
 20
36.4
  0
LWPOLYLINE
  5
237
100
AcDbEntity
  8
ASSEMBLY_OUTLINES_TOP
100
AcDbPolyline
 90
        4
 70
         1
 43
0.0
 10
-40.4
 20
36.55
 10
-40.4
 20
37.05
 10
-39.4
 20
37.05
 10
-39.4
 20
36.55
  0
LWPOLYLINE
  5
238
100
AcDbEntity
  8
ASSEMBLY_OUTLINES_TOP
100
AcDbPolyline
 90
        4
 70
         1
 43
0.1
 10
-37.6
 20
12.6
 10
-37.6
 20
14.0
 10
-34.6
 20
14.0
 10
-34.6
 20
12.6
  0
LWPOLYLINE
  5
239
100
AcDbEntity
  8
ASSEMBLY_OUTLINES_TOP
100
AcDbPolyline
 90
        2
 70
         0
 43
0.1
 10
-37.5
 20
12.6
 10
-37.6
 20
12.7
  0
LWPOLYLINE
  5
23A
100
AcDbEntity
  8
ASSEMBLY_OUTLINES_TOP
100
AcDbPolyline
 90
        2
 70
         0
 43
0.1
 10
-37.4
 20
12.6
 10
-37.6
 20
12.8
  0
LWPOLYLINE
  5
23B
100
AcDbEntity
  8
ASSEMBLY_OUTLINES_TOP
100
AcDbPolyline
 90
        2
 70
         0
 43
0.1
 10
-37.3
 20
12.6
 10
-37.6
 20
12.9
  0
LWPOLYLINE
  5
23C
100
AcDbEntity
  8
ASSEMBLY_OUTLINES_TOP
100
AcDbPolyline
 90
        2
 70
         0
 43
0.1
 10
-37.2
 20
12.6
 10
-37.6
 20
13.0
  0
LWPOLYLINE
  5
23D
100
AcDbEntity
  8
ASSEMBLY_OUTLINES_TOP
100
AcDbPolyline
 90
        2
 70
         0
 43
0.1
 10
-37.1
 20
12.6
 10
-37.6
 20
13.1
  0
LWPOLYLINE
  5
23E
100
AcDbEntity
  8
ASSEMBLY_OUTLINES_TOP
100
AcDbPolyline
 90
        2
 70
         0
 43
0.1
 10
-37.0
 20
12.6
 10
-37.6
 20
13.2
  0
LWPOLYLINE
  5
23F
100
AcDbEntity
  8
ASSEMBLY_OUTLINES_TOP
100
AcDbPolyline
 90
        4
 70
         1
 43
0.0
 10
-3.0
 20
46.05
 10
-3.0
 20
46.55
 10
-2.0
 20
46.55
 10
-2.0
 20
46.05
  0
LWPOLYLINE
  5
240
100
AcDbEntity
  8
ASSEMBLY_OUTLINES_TOP
100
AcDbPolyline
 90
        4
 70
         1
 43
0.0
 10
-3.25
 20
45.9
 10
-3.25
 20
46.7
 10
-1.75
 20
46.7
 10
-1.75
 20
45.9
  0
LWPOLYLINE
  5
241
100
AcDbEntity
  8
ASSEMBLY_OUTLINES_TOP
100
AcDbPolyline
 90
        4
 70
         1
 43
0.0
 10
-40.7
 20
37.75
 10
-40.7
 20
38.55
 10
-39.2
 20
38.55
 10
-39.2
 20
37.75
  0
LWPOLYLINE
  5
242
100
AcDbEntity
  8
ASSEMBLY_OUTLINES_TOP
100
AcDbPolyline
 90
        4
 70
         1
 43
0.0
 10
-40.45
 20
37.9
 10
-40.45
 20
38.4
 10
-39.45
 20
38.4
 10
-39.45
 20
37.9
  0
LWPOLYLINE
  5
243
100
AcDbEntity
  8
ASSEMBLY_OUTLINES_TOP
100
AcDbPolyline
 90
        4
 70
         1
 43
0.0
 10
-3.0
 20
48.75
 10
-3.0
 20
49.25
 10
-2.0
 20
49.25
 10
-2.0
 20
48.75
  0
LWPOLYLINE
  5
244
100
AcDbEntity
  8
ASSEMBLY_OUTLINES_TOP
100
AcDbPolyline
 90
        4
 70
         1
 43
0.0
 10
-3.25
 20
48.6
 10
-3.25
 20
49.4
 10
-1.75
 20
49.4
 10
-1.75
 20
48.6
  0
LWPOLYLINE
  5
245
100
AcDbEntity
  8
ASSEMBLY_OUTLINES_TOP
100
AcDbPolyline
 90
        4
 70
         1
 43
0.0
 10
-40.9
 20
38.95
 10
-40.9
 20
39.75
 10
-39.4
 20
39.75
 10
-39.4
 20
38.95
  0
LWPOLYLINE
  5
246
100
AcDbEntity
  8
ASSEMBLY_OUTLINES_TOP
100
AcDbPolyline
 90
        4
 70
         1
 43
0.0
 10
-40.65
 20
39.1
 10
-40.65
 20
39.6
 10
-39.65
 20
39.6
 10
-39.65
 20
39.1
  0
LWPOLYLINE
  5
247
100
AcDbEntity
  8
ASSEMBLY_OUTLINES_TOP
100
AcDbPolyline
 90
        4
 70
         1
 43
0.0
 10
-35.7
 20
44.65
 10
-35.7
 20
46.15
 10
-34.9
 20
46.15
 10
-34.9
 20
44.65
  0
LWPOLYLINE
  5
248
100
AcDbEntity
  8
ASSEMBLY_OUTLINES_TOP
100
AcDbPolyline
 90
        4
 70
         1
 43
0.0
 10
-35.55
 20
44.9
 10
-35.55
 20
45.9
 10
-35.05
 20
45.9
 10
-35.05
 20
44.9
  0
LWPOLYLINE
  5
249
100
AcDbEntity
  8
ASSEMBLY_OUTLINES_TOP
100
AcDbPolyline
 90
        4
 70
         1
 43
0.0
 10
-21.8
 20
27.75
 10
-21.8
 20
28.25
 10
-20.8
 20
28.25
 10
-20.8
 20
27.75
  0
LWPOLYLINE
  5
24A
100
AcDbEntity
  8
ASSEMBLY_OUTLINES_TOP
100
AcDbPolyline
 90
        4
 70
         1
 43
0.0
 10
-22.05
 20
27.6
 10
-22.05
 20
28.4
 10
-20.55
 20
28.4
 10
-20.55
 20
27.6
  0
LWPOLYLINE
  5
24B
100
AcDbEntity
  8
ASSEMBLY_OUTLINES_TOP
100
AcDbPolyline
 90
        4
 70
         1
 43
0.0
 10
-34.8
 20
44.65
 10
-34.8
 20
46.15
 10
-34.0
 20
46.15
 10
-34.0
 20
44.65
  0
LWPOLYLINE
  5
24C
100
AcDbEntity
  8
ASSEMBLY_OUTLINES_TOP
100
AcDbPolyline
 90
        4
 70
         1
 43
0.0
 10
-34.65
 20
44.9
 10
-34.65
 20
45.9
 10
-34.15
 20
45.9
 10
-34.15
 20
44.9
  0
LWPOLYLINE
  5
24D
100
AcDbEntity
  8
ASSEMBLY_OUTLINES_TOP
100
AcDbPolyline
 90
        4
 70
         1
 43
0.0
 10
-36.55
 20
44.65
 10
-36.55
 20
46.15
 10
-35.75
 20
46.15
 10
-35.75
 20
44.65
  0
LWPOLYLINE
  5
24E
100
AcDbEntity
  8
ASSEMBLY_OUTLINES_TOP
100
AcDbPolyline
 90
        4
 70
         1
 43
0.0
 10
-36.4
 20
44.9
 10
-36.4
 20
45.9
 10
-35.9
 20
45.9
 10
-35.9
 20
44.9
  0
LWPOLYLINE
  5
24F
100
AcDbEntity
  8
BOARD_OUTLINE
100
AcDbPolyline
 90
        4
 70
         1
 43
0.0
 10
-67.6
 20
0.0
 10
-67.6
 20
70.0
 10
0.0
 20
70.0
 10
0.0
 20
0.0
  0
CIRCLE
  5
250
100
AcDbEntity
  8
MOUNTING_HOLES_LAYER_TOP
100
AcDbCircle
 10
-33.6
 20
67.3
 30
0.0
 40
1.25
  0
HATCH
  5
251
100
AcDbEntity
  8
MOUNTING_HOLES_LAYER_TOP
100
AcDbHatch
 10
0.0
 20
0.0
 30
0.0
 210
0.0
 220
0.0
 230
1.0
  2
SOLID
 70
         1
 71
        1
 91
        1
  92
     1
  93
     1
 72
     2
 10
-33.6
 20
67.3
  40
1.25
  50
     0.0
  51
     360.0
 73
     0
  97
     1
  330
    592
 75
     0
 76
     1
  98
     1
 10
0.0
 20
0.0
  0
CIRCLE
  5
252
100
AcDbEntity
  8
MOUNTING_HOLES_LAYER_TOP
100
AcDbCircle
 10
-57.0
 20
2.6
 30
0.0
 40
1.25
  0
HATCH
  5
253
100
AcDbEntity
  8
MOUNTING_HOLES_LAYER_TOP
100
AcDbHatch
 10
0.0
 20
0.0
 30
0.0
 210
0.0
 220
0.0
 230
1.0
  2
SOLID
 70
         1
 71
        1
 91
        1
  92
     1
  93
     1
 72
     2
 10
-57.0
 20
2.6
  40
1.25
  50
     0.0
  51
     360.0
 73
     0
  97
     1
  330
    594
 75
     0
 76
     1
  98
     1
 10
0.0
 20
0.0
  0
CIRCLE
  5
254
100
AcDbEntity
  8
MOUNTING_HOLES_LAYER_TOP
100
AcDbCircle
 10
-19.8
 20
15.0
 30
0.0
 40
1.25
  0
HATCH
  5
255
100
AcDbEntity
  8
MOUNTING_HOLES_LAYER_TOP
100
AcDbHatch
 10
0.0
 20
0.0
 30
0.0
 210
0.0
 220
0.0
 230
1.0
  2
SOLID
 70
         1
 71
        1
 91
        1
  92
     1
  93
     1
 72
     2
 10
-19.8
 20
15.0
  40
1.25
  50
     0.0
  51
     360.0
 73
     0
  97
     1
  330
    596
 75
     0
 76
     1
  98
     1
 10
0.0
 20
0.0
  0
CIRCLE
  5
256
100
AcDbEntity
  8
MOUNTING_HOLES_LAYER_TOP
100
AcDbCircle
 10
-1.8
 20
52.0
 30
0.0
 40
1.25
  0
HATCH
  5
257
100
AcDbEntity
  8
MOUNTING_HOLES_LAYER_TOP
100
AcDbHatch
 10
0.0
 20
0.0
 30
0.0
 210
0.0
 220
0.0
 230
1.0
  2
SOLID
 70
         1
 71
        1
 91
        1
  92
     1
  93
     1
 72
     2
 10
-1.8
 20
52.0
  40
1.25
  50
     0.0
  51
     360.0
 73
     0
  97
     1
  330
    598
 75
     0
 76
     1
  98
     1
 10
0.0
 20
0.0
  0
CIRCLE
  5
258
100
AcDbEntity
  8
MOUNTING_HOLES_LAYER_TOP
100
AcDbCircle
 10
-65.8
 20
52.0
 30
0.0
 40
1.25
  0
HATCH
  5
259
100
AcDbEntity
  8
MOUNTING_HOLES_LAYER_TOP
100
AcDbHatch
 10
0.0
 20
0.0
 30
0.0
 210
0.0
 220
0.0
 230
1.0
  2
SOLID
 70
         1
 71
        1
 91
        1
  92
     1
  93
     1
 72
     2
 10
-65.8
 20
52.0
  40
1.25
  50
     0.0
  51
     360.0
 73
     0
  97
     1
  330
    600
 75
     0
 76
     1
  98
     1
 10
0.0
 20
0.0
  0
CIRCLE
  5
25A
100
AcDbEntity
  8
MOUNTING_HOLES_LAYER_TOP
100
AcDbCircle
 10
-14.67
 20
10.89
 30
0.0
 40
1.65
  0
HATCH
  5
25B
100
AcDbEntity
  8
MOUNTING_HOLES_LAYER_TOP
100
AcDbHatch
 10
0.0
 20
0.0
 30
0.0
 210
0.0
 220
0.0
 230
1.0
  2
SOLID
 70
         1
 71
        1
 91
        1
  92
     1
  93
     1
 72
     2
 10
-14.67
 20
10.89
  40
1.65
  50
     0.0
  51
     360.0
 73
     0
  97
     1
  330
    602
 75
     0
 76
     1
  98
     1
 10
0.0
 20
0.0
  0
CIRCLE
  5
25C
100
AcDbEntity
  8
MOUNTING_HOLES_LAYER_TOP
100
AcDbCircle
 10
-3.24
 20
10.89
 30
0.0
 40
1.65
  0
HATCH
  5
25D
100
AcDbEntity
  8
MOUNTING_HOLES_LAYER_TOP
100
AcDbHatch
 10
0.0
 20
0.0
 30
0.0
 210
0.0
 220
0.0
 230
1.0
  2
SOLID
 70
         1
 71
        1
 91
        1
  92
     1
  93
     1
 72
     2
 10
-3.24
 20
10.89
  40
1.65
  50
     0.0
  51
     360.0
 73
     0
  97
     1
  330
    604
 75
     0
 76
     1
  98
     1
 10
0.0
 20
0.0
  0
CIRCLE
  5
25E
100
AcDbEntity
  8
MOUNTING_HOLES_LAYER_TOP
100
AcDbCircle
 10
-61.3
 20
4.8
 30
0.0
 40
0.275
  0
HATCH
  5
25F
100
AcDbEntity
  8
MOUNTING_HOLES_LAYER_TOP
100
AcDbHatch
 10
0.0
 20
0.0
 30
0.0
 210
0.0
 220
0.0
 230
1.0
  2
SOLID
 70
         1
 71
        1
 91
        1
  92
     1
  93
     1
 72
     2
 10
-61.3
 20
4.8
  40
0.275
  50
     0.0
  51
     360.0
 73
     0
  97
     1
  330
    606
 75
     0
 76
     1
  98
     1
 10
0.0
 20
0.0
  0
CIRCLE
  5
260
100
AcDbEntity
  8
MOUNTING_HOLES_LAYER_TOP
100
AcDbCircle
 10
-65.3
 20
4.8
 30
0.0
 40
0.275
  0
HATCH
  5
261
100
AcDbEntity
  8
MOUNTING_HOLES_LAYER_TOP
100
AcDbHatch
 10
0.0
 20
0.0
 30
0.0
 210
0.0
 220
0.0
 230
1.0
  2
SOLID
 70
         1
 71
        1
 91
        1
  92
     1
  93
     1
 72
     2
 10
-65.3
 20
4.8
  40
0.275
  50
     0.0
  51
     360.0
 73
     0
  97
     1
  330
    608
 75
     0
 76
     1
  98
     1
 10
0.0
 20
0.0
  0
CIRCLE
  5
262
100
AcDbEntity
  8
MOUNTING_HOLES_LAYER_TOP
100
AcDbCircle
 10
-50.7
 20
10.0
 30
0.0
 40
0.65
  0
HATCH
  5
263
100
AcDbEntity
  8
MOUNTING_HOLES_LAYER_TOP
100
AcDbHatch
 10
0.0
 20
0.0
 30
0.0
 210
0.0
 220
0.0
 230
1.0
  2
SOLID
 70
         1
 71
        1
 91
        1
  92
     1
  93
     1
 72
     2
 10
-50.7
 20
10.0
  40
0.65
  50
     0.0
  51
     360.0
 73
     0
  97
     1
  330
    610
 75
     0
 76
     1
  98
     1
 10
0.0
 20
0.0
  0
CIRCLE
  5
264
100
AcDbEntity
  8
MOUNTING_HOLES_LAYER_TOP
100
AcDbCircle
 10
-45.7
 20
10.0
 30
0.0
 40
0.65
  0
HATCH
  5
265
100
AcDbEntity
  8
MOUNTING_HOLES_LAYER_TOP
100
AcDbHatch
 10
0.0
 20
0.0
 30
0.0
 210
0.0
 220
0.0
 230
1.0
  2
SOLID
 70
         1
 71
        1
 91
        1
  92
     1
  93
     1
 72
     2
 10
-45.7
 20
10.0
  40
0.65
  50
     0.0
  51
     360.0
 73
     0
  97
     1
  330
    612
 75
     0
 76
     1
  98
     1
 10
0.0
 20
0.0
  0
CIRCLE
  5
266
100
AcDbEntity
  8
MOUNTING_HOLES_LAYER_TOP
100
AcDbCircle
 10
-31.5
 20
4.48
 30
0.0
 40
0.65
  0
HATCH
  5
267
100
AcDbEntity
  8
MOUNTING_HOLES_LAYER_TOP
100
AcDbHatch
 10
0.0
 20
0.0
 30
0.0
 210
0.0
 220
0.0
 230
1.0
  2
SOLID
 70
         1
 71
        1
 91
        1
  92
     1
  93
     1
 72
     2
 10
-31.5
 20
4.48
  40
0.65
  50
     0.0
  51
     360.0
 73
     0
  97
     1
  330
    614
 75
     0
 76
     1
  98
     1
 10
0.0
 20
0.0
  0
CIRCLE
  5
268
100
AcDbEntity
  8
MOUNTING_HOLES_LAYER_TOP
100
AcDbCircle
 10
-22.5
 20
4.48
 30
0.0
 40
0.65
  0
HATCH
  5
269
100
AcDbEntity
  8
MOUNTING_HOLES_LAYER_TOP
100
AcDbHatch
 10
0.0
 20
0.0
 30
0.0
 210
0.0
 220
0.0
 230
1.0
  2
SOLID
 70
         1
 71
        1
 91
        1
  92
     1
  93
     1
 72
     2
 10
-22.5
 20
4.48
  40
0.65
  50
     0.0
  51
     360.0
 73
     0
  97
     1
  330
    616
 75
     0
 76
     1
  98
     1
 10
0.0
 20
0.0
  0
CIRCLE
  5
26A
100
AcDbEntity
  8
PART_HOLES_LAYER_TOP
100
AcDbCircle
 10
-63.098682
 20
11.204196
 30
0.0
 40
0.6
  0
HATCH
  5
26B
100
AcDbEntity
  8
PART_HOLES_LAYER_TOP
100
AcDbHatch
 10
0.0
 20
0.0
 30
0.0
 210
0.0
 220
0.0
 230
1.0
  2
SOLID
 70
         1
 71
        1
 91
        1
  92
     1
  93
     1
 72
     2
 10
-63.098682
 20
11.204196
  40
0.6
  50
     0.0
  51
     360.0
 73
     0
  97
     1
  330
    618
 75
     0
 76
     1
  98
     1
 10
0.0
 20
0.0
  0
CIRCLE
  5
26C
100
AcDbEntity
  8
PART_HOLES_LAYER_TOP
100
AcDbCircle
 10
-63.098682
 20
16.204196
 30
0.0
 40
0.6
  0
HATCH
  5
26D
100
AcDbEntity
  8
PART_HOLES_LAYER_TOP
100
AcDbHatch
 10
0.0
 20
0.0
 30
0.0
 210
0.0
 220
0.0
 230
1.0
  2
SOLID
 70
         1
 71
        1
 91
        1
  92
     1
  93
     1
 72
     2
 10
-63.098682
 20
16.204196
  40
0.6
  50
     0.0
  51
     360.0
 73
     0
  97
     1
  330
    620
 75
     0
 76
     1
  98
     1
 10
0.0
 20
0.0
  0
ENDSEC
  0
SECTION
  2
OBJECTS
  0
DICTIONARY
  5
16
100
AcDbDictionary
  3
ACAD_GROUP
350
17
  3
ACAD_MLINESTYLE
350
18
  0
DICTIONARY
  5
17
102
{ACAD_REACTORS
330
16
102
}
100
AcDbDictionary
  0
DICTIONARY
  5
18
102
{ACAD_REACTORS
330
16
102
}
100
AcDbDictionary
  3
STANDARD
350
19
  0
MLINESTYLE
  5
19
102
{ACAD_REACTORS
330
18
102
}
100
AcDbMlineStyle
  2
STANDARD
 70
         0
  3

 62
         0
 51
90.0
 52
90.0
 71
        2
 49
0.5
 62
         256
  6
BYLAYER
 49
-0.5
 62
         256
  6
BYLAYER
  0
DICTIONARY
  5
1A
102
{ACAD_REACTORS
330
16
102
}
100
AcDbDictionary
  0
ENDSEC
  0
EOF
