  0
SECTION
  2
HEADER
  9
$ACADVER
  1
AC1014
  9
$ACADMAINTVER
 70
         0
  9
$DWGCODEPAGE
  3
ANSI_1252
  9
$INSBASE
 10
0.0
 20
0.0
 30
0.0
  9
$EXTMIN
 10
0.0
 20
-0.258845
 30
0.0
  9
$EXTMAX
 10
122.225283
 20
72.199675
 30
0.0
  9
$LIMMIN
 10
0.0
 20
0.0
  9
$LIMMAX
 10
0.0
 20
0.0
  9
$ORTHOMODE
 70
         0
  9
$REGENMODE
 70
         1
  9
$FILLMODE
 70
         1
  9
$QTEXTMODE
 70
         0
  9
$MIRRTEXT
 70
         1
  9
$DRAGMODE
 70
         2
  9
$LTSCALE
 40
1.0
  9
$OSMODE
 70
         0
  9
$ATTMODE
 70
         1
  9
$TEXTSIZE
 40
0.2
  9
$TRACEWID
 40
0.05
  9
$TEXTSTYLE
  7
STANDARD
  9
$CLAYER
  8
0
  9
$CELTYPE
  6
CONTINUOUS
  9
$CECOLOR
 62
       256
  9
$CELTSCALE
 40
1.0
  9
$DELOBJ
 70
         1
  9
$DISPSILH
 70
         0
  9
$DIMSCALE
 40
1.0
  9
$DIMASZ
 40
0.18
  9
$DIMEXO
 40
0.0625
  9
$DIMDLI
 40
0.38
  9
$DIMRND
 40
0.0
  9
$DIMDLE
 40
0.0
  9
$DIMEXE
 40
0.18
  9
$DIMTP
 40
0.0
  9
$DIMTM
 40
0.0
  9
$DIMTXT
 40
0.18
  9
$DIMCEN
 40
0.09
  9
$DIMTSZ
 40
0.0
  9
$DIMTOL
 70
         0
  9
$DIMLIM
 70
         0
  9
$DIMTIH
 70
         1
  9
$DIMTOH
 70
         1
  9
$DIMSE1
 70
         0
  9
$DIMSE2
 70
         0
  9
$DIMTAD
 70
         0
  9
$DIMZIN
 70
         0
  9
$DIMBLK
  1

  9
$DIMASO
 70
         1
  9
$DIMSHO
 70
         1
  9
$DIMPOST
  1

  9
$DIMAPOST
  1

  9
$DIMALT
 70
         0
  9
$DIMALTD
 70
         2
  9
$DIMALTF
 40
25.4
  9
$DIMLFAC
 40
1.0
  9
$DIMTOFL
 70
         0
  9
$DIMTVP
 40
0.0
  9
$DIMTIX
 70
         0
  9
$DIMSOXD
 70
         0
  9
$DIMSAH
 70
         0
  9
$DIMBLK1
  1

  9
$DIMBLK2
  1

  9
$DIMSTYLE
  2
STANDARD
  9
$DIMCLRD
 70
         0
  9
$DIMCLRE
 70
         0
  9
$DIMCLRT
 70
         0
  9
$DIMTFAC
 40
1.0
  9
$DIMGAP
 40
0.09
  9
$DIMJUST
 70
         0
  9
$DIMSD1
 70
         0
  9
$DIMSD2
 70
         0
  9
$DIMTOLJ
 70
         1
  9
$DIMTZIN
 70
         0
  9
$DIMALTZ
 70
         0
  9
$DIMALTTZ
 70
         0
  9
$DIMFIT
 70
         3
  9
$DIMUPT
 70
         0
  9
$DIMUNIT
 70
         2
  9
$DIMDEC
 70
         4
  9
$DIMTDEC
 70
         4
  9
$DIMALTU
 70
         2
  9
$DIMALTTD
 70
         2
  9
$DIMTXSTY
  7
STANDARD
  9
$DIMAUNIT
 70
         0
  9
$LUNITS
 70
         2
  9
$LUPREC
 70
         4
  9
$SKETCHINC
 40
0.1
  9
$FILLETRAD
 40
0.0
  9
$AUNITS
 70
         0
  9
$AUPREC
 70
         0
  9
$MENU
  1
acad
  9
$ELEVATION
 40
0.0
  9
$PELEVATION
 40
0.0
  9
$THICKNESS
 40
0.0
  9
$LIMCHECK
 70
         0
  9
$BLIPMODE
 70
         1
  9
$CHAMFERA
 40
0.0
  9
$CHAMFERB
 40
0.0
  9
$CHAMFERC
 40
0.0
  9
$CHAMFERD
 40
0.0
  9
$SKPOLY
 70
         0
  9
$TDCREATE
 40
2455615.740486111
  9
$TDUPDATE
 40
0.000000000
  9
$TDINDWG
 40
0.0000000000
  9
$TDUSRTIMER
 40
0.0000000000
  9
$USRTIMER
 70
         1
  9
$ANGBASE
 50
0.0
  9
$ANGDIR
 70
         0
  9
$PDMODE
 70
         0
  9
$PDSIZE
 40
0.0
  9
$PLINEWID
 40
0.0
  9
$COORDS
 70
         0
  9
$SPLFRAME
 70
         0
  9
$SPLINETYPE
 70
         6
  9
$SPLINESEGS
 70
         8
  9
$ATTDIA
 70
         0
  9
$ATTREQ
 70
         1
  9
$HANDLING
 70
         1
  9
$HANDSEED
  5
17A
  9
$SURFTAB1
 70
         6
  9
$SURFTAB2
 70
         6
  9
$SURFTYPE
 70
         6
  9
$SURFU
 70
         6
  9
$SURFV
 70
         6
  9
$UCSNAME
  2

  9
$UCSORG
 10
0.0
 20
0.0
 30
0.0
  9
$UCSXDIR
 10
1.0
 20
0.0
 30
0.0
  9
$UCSYDIR
 10
0.0
 20
1.0
 30
0.0
  9
$PUCSNAME
  2

  9
$PUCSORG
 10
0.0
 20
0.0
 30
0.0
  9
$PUCSXDIR
 10
1.0
 20
0.0
 30
0.0
  9
$PUCSYDIR
 10
0.0
 20
1.0
 30
0.0
  9
$USERI1
 70
        -3
  9
$USERI2
 70
         0
  9
$USERI3
 70
         0
  9
$USERI4
 70
         0
  9
$USERI5
 70
         0
  9
$USERR1
 40
0.0
  9
$USERR2
 40
0.0
  9
$USERR3
 40
0.0
  9
$USERR4
 40
0.0
  9
$USERR5
 40
0.0
  9
$WORLDVIEW
 70
         1
  9
$SHADEDGE
 70
         3
  9
$SHADEDIF
 70
        70
  9
$TILEMODE
 70
         1
  9
$MAXACTVP
 70
        16
  9
$PINSBASE
 10
0.0
 20
0.0
 30
0.0
  9
$PLIMCHECK
 70
         0
  9
$PEXTMIN
 10
1.0000000000E+20
 20
1.0000000000E+20
 30
1.0000000000E+20
  9
$PEXTMAX
 10
-1.0000000000E+20
 20
-1.0000000000E+20
 30
-1.0000000000E+20
  9
$PLIMMIN
 10
0.0
 20
0.0
  9
$PLIMMAX
 10
12.0
 20
9.0
  9
$UNITMODE
 70
         0
  9
$VISRETAIN
 70
         0
  9
$PLINEGEN
 70
         1
  9
$PSLTSCALE
 70
         0
  9
$TREEDEPTH
 70
      3020
  9
$PICKSTYLE
 70
         1
  9
$CMLSTYLE
  2
STANDARD
  9
$CMLJUST
 70
         0
  9
$CMLSCALE
 40
1.0
  9
$PROXYGRAPHICS
 70
         0
  9
$MEASUREMENT
 70
         0
  0
ENDSEC
  0
SECTION
  2
CLASSES
  0
CLASS
  1
LWPOLYLINE
  2
AcDbPolyline
  3
"AutoCAD"
 90
        0
280
         0
281
         1
  0
CLASS
  1
IMAGE
  2
AcDbRasterImage
  3
ISM
 90
      127
280
         0
281
         1
  0
CLASS
  1
OLE2FRAME
  2
AcDbOle2Frame
  3
""
 90
        0
280
         0
281
         1
  0
CLASS
  1
HATCH
  2
AcDbHatch
  3
"ACAD_SEDONA"
 90
        0
280
         0
281
         1
  0
CLASS
  1
DICTIONARYVAR
  2
AcDbDictionaryVar
  3
"AutoCAD"
 90
        0
280
         0
281
         0
  0
CLASS
  1
RASTERVARIABLES
  2
AcDbRasterVariables
  3
ISM
 90
        0
280
         0
281
         0
  0
CLASS
  1
IMAGEDEF
  2
AcDbRasterImageDef
  3
ISM
 90
        0
280
         0
281
         0
  0
CLASS
  1
IMAGEDEF_REACTOR
  2
AcDbRasterImageDefReactor
  3
ISM
 90
        1
280
         0
281
         0
  0
CLASS
  1
IDBUFFER
  2
AcDbIdBuffer
  3
"Acad"
 90
        0
280
         0
281
         0
  0
CLASS
  1
SPATIAL_FILTER
  2
AcDbSpatialFilter
  3
"Acad"
 90
        0
280
         0
281
         0
  0
CLASS
  1
XRECORD
  2
AcDbXrecord
  3
"<Built In>"
 90
        0
280
         0
281
         0
  0
CLASS
  1
SORTENTSTABLE
  2
AcDbSortentsTable
  3
"AutoCAD"
 90
        0
280
         0
281
         0
  0
CLASS
  1
LAYER_INDEX
  2
AcDbLayerIndex
  3
"Acad"
 90
        0
280
         0
281
         0
  0
CLASS
  1
SPATIAL_INDEX
  2
AcDbSpatialIndex
  3
"Acad"
 90
        0
280
         0
281
         0
  0
CLASS
  1
OBJECT_PTR
  2
CAseDLPNTableRecord
  3
"ASE-LPNTableRecord"
 90
        1
280
         0
281
         0
  0
CLASS
  1
LAYOUT
  2
AcDbLayout
  3
"AutoCAD 2000"
 90
        0
280
         0
281
         0
  0
CLASS
  1
PLOTSETTINGS
  2
AcDbPlotSettings
  3
"AutoCAD 2000"
 90
        0
280
         0
281
         0
  0
CLASS
  1
ACDBDICTIONARYWDFLT
  2
AcDbDictionaryWithDefault
  3
"AutoCAD 2000"
 90
        0
280
         0
281
         0
  0
CLASS
  1
ACDBPLACEHOLDER
  2
AcDbPlaceHolder
  3
"AutoCAD 2000"
 90
        0
280
         0
281
         0
  0
CLASS
  1
VBA_PROJECT
  2
AcDbVbaProject
  3
"acadvba"
 90
        0
280
         0
281
         0
  0
CLASS
  1
WIPEOUT
  2
AcDbWipeout
  3
WipeOut|AutoCAD Express Tool|expresstools@autodesk.com
 90
      127
280
         0
281
         1
  0
CLASS
  1
WIPEOUTVARIABLES
  2
AcDbWipeoutVariables
  3
WipeOut|AutoCAD Express Tool|expresstools@autodesk.com
 90
        0
280
         0
281
         0
  0
CLASS
  1
RTEXT
  2
RText
  3
RText|AutoCAD Express Tool|expresstools@autodesk.com
 90
        0
280
         0
281
         1
  0
CLASS
  1
ARCALIGNEDTEXT
  2
AcDbArcAlignedText
  3
ATEXT|AutoCAD Express Tool|expresstools@autodesk.com
 90
        0
280
         0
281
         1
  0
ENDSEC
  0
SECTION
  2
TABLES
  0
TABLE
  2
VPORT
  5
7
100
AcDbSymbolTable
 70
         1
  0
VPORT
  5
15
100
AcDbSymbolTableRecord
100
AcDbViewportTableRecord
  2
*ACTIVE
 70
         0
 10
0.0
 20
0.0
 11
1.0
 21
1.0
 12
6.591288
 22
4.579184
 13
0.0
 23
0.0
 14
1.0
 24
1.0
 15
0.0
 25
0.0
 16
0.0
 26
0.0
 36
1.0
 17
0.0
 27
0.0
 37
0.0
 40
9.158369
 41
0.688564
 42
50.0
 43
0.0
 44
0.0
 50
0.0
 51
0.0
 71
         0
 72
       100
 73
         1
 74
         1
 75
         0
 76
         0
 77
         0
 78
         0
  0
ENDTAB
  0
TABLE
  2
LTYPE
  5
4
100
AcDbSymbolTable
 70
         3
  0
LTYPE
  5
11
100
AcDbSymbolTableRecord
100
AcDbLinetypeTableRecord
  2
BYBLOCK
 70
        64
  3

 72
        65
 73
         0
 40
0.0
  0
LTYPE
  5
12
100
AcDbSymbolTableRecord
100
AcDbLinetypeTableRecord
  2
BYLAYER
 70
        64
  3

 72
        65
 73
         0
 40
0.0
  0
LTYPE
  5
13
100
AcDbSymbolTableRecord
100
AcDbLinetypeTableRecord
  2
CONTINUOUS
 70
        64
  3
Solid line
 72
        65
 73
         0
 40
0.0
  0
ENDTAB
  0
TABLE
  2
LAYER
  5
2
100
AcDbSymbolTable
 70
         6
  0
LAYER
  5
14
100
AcDbSymbolTableRecord
100
AcDbLayerTableRecord
  2
0
 70
         0
 62
         7
  6
CONTINUOUS
  0
LAYER
  5
24
100
AcDbSymbolTableRecord
100
AcDbLayerTableRecord
  2
ASSEMBLY_OUTLINES_TOP
 70
         0
 62
       102
  6
CONTINUOUS
  0
LAYER
  5
25
100
AcDbSymbolTableRecord
100
AcDbLayerTableRecord
  2
ASSEMBLY_REF_DES_TOP
 70
         0
 62
       102
  6
CONTINUOUS
  0
LAYER
  5
26
100
AcDbSymbolTableRecord
100
AcDbLayerTableRecord
  2
BOARD_OUTLINE
 70
         0
 62
        10
  6
CONTINUOUS
  0
LAYER
  5
27
100
AcDbSymbolTableRecord
100
AcDbLayerTableRecord
  2
MOUNTING_HOLES_LAYER_TOP
 70
         0
 62
        42
  6
CONTINUOUS
  0
LAYER
  5
28
100
AcDbSymbolTableRecord
100
AcDbLayerTableRecord
  2
PART_HOLES_LAYER_TOP
 70
         0
 62
        30
  6
CONTINUOUS
  0
ENDTAB
  0
TABLE
  2
STYLE
  5
3
100
AcDbSymbolTable
 70
         3
  0
STYLE
  5
17
100
AcDbSymbolTableRecord
100
AcDbTextStyleTableRecord
  2
STANDARD
 70
         0
 40
0.0
 41
1.0
 50
0.0
 71
         0
 42
0.0
  3
txt
  4

  0
STYLE
  5
81
100
AcDbSymbolTableRecord
100
AcDbTextStyleTableRecord
  2
VERIBEST_GERBER_1
 70
         0
 40
0.0
 41
1.0
 50
0.0
 71
         0
 42
0.0
  3
C:\Windows\Fonts\VBest1.ttf
  4

  0
STYLE
  5
8D
100
AcDbSymbolTableRecord
100
AcDbTextStyleTableRecord
  2
GOST_TYPE_B
 70
         0
 40
0.0
 41
1.0
 50
0.0
 71
         0
 42
0.0
  3
gost_2.ttf
  4

  0
ENDTAB
  0
TABLE
  2
VIEW
  5
5
100
AcDbSymbolTable
 70
         0
  0
ENDTAB
  0
TABLE
  2
UCS
  5
6
100
AcDbSymbolTable
 70
         0
  0
ENDTAB
  0
TABLE
  2
APPID
  5
8
100
AcDbSymbolTable
 70
         1
  0
APPID
  5
16
100
AcDbSymbolTableRecord
100
AcDbRegAppTableRecord
  2
ACAD
 70
         0
  0
ENDTAB
  0
TABLE
  2
DIMSTYLE
  5
9
100
AcDbSymbolTable
 70
         1
  0
DIMSTYLE
105
18
100
AcDbSymbolTableRecord
100
AcDbDimStyleTableRecord
  2
STANDARD
 70
         0
  3

  4

  5

  6

  7

 40
1.0
 41
0.18
 42
0.0625
 43
0.38
 44
0.18
 45
0.0
 46
0.0
 47
0.0
 48
0.0
 71
         0
 72
         0
 73
         1
 74
         1
 75
         0
 76
         0
 77
         0
 78
         0
140
0.18
141
0.09
142
0.0
143
25.4
144
1.0
145
0.0
146
1.0
147
0.09
170
         0
171
         2
172
         0
173
         0
174
         0
175
         0
176
         0
177
         0
178
         0
270
         2
271
         4
272
         4
273
         2
274
         2
275
         0
280
         0
281
         0
282
         0
283
         1
284
         0
285
         0
286
         0
287
         3
288
         0
340
17
  0
ENDTAB
  0
TABLE
  2
BLOCK_RECORD
  5
1
100
AcDbSymbolTable
 70
         0
  0
BLOCK_RECORD
  5
A
100
AcDbSymbolTableRecord
100
AcDbBlockTableRecord
  2
*MODEL_SPACE
  0
BLOCK_RECORD
  5
B
100
AcDbSymbolTableRecord
100
AcDbBlockTableRecord
  2
*PAPER_SPACE
  0
ENDTAB
  0
ENDSEC
  0
SECTION
  2
BLOCKS
  0
BLOCK
  5
D
100
AcDbEntity
  8
0
100
AcDbBlockBegin
  2
*MODEL_SPACE
 70
         0
 10
0.0
 20
0.0
 30
0.0
  3
*MODEL_SPACE
  1

  0
ENDBLK
  5
E
100
AcDbEntity
  8
0
100
AcDbBlockEnd
  0
BLOCK
  5
F
100
AcDbEntity
 67
         1
  8
0
100
AcDbBlockBegin
  2
*PAPER_SPACE
 70
         0
 10
0.0
 20
0.0
 30
0.0
  3
*PAPER_SPACE
  1

  0
ENDBLK
  5
10
100
AcDbEntity
 67
         1
  8
0
100
AcDbBlockEnd
  0
ENDSEC
  0
SECTION
  2
ENTITIES
  0
LWPOLYLINE
  5
29
100
AcDbEntity
  8
ASSEMBLY_OUTLINES_TOP
100
AcDbPolyline
 90
        3
 70
         1
 10
50.0
 20
34.614716
 10
51.143
 20
35.186216
 10
51.143
 20
34.043216
  0
HATCH
  5
2A
100
AcDbEntity
  8
ASSEMBLY_OUTLINES_TOP
100
AcDbHatch
 10
0.0
 20
0.0
 30
0.0
210
0.0
220
0.0
230
1.0
  2
SOLID
 70
         1
 71
         1
 91
        1
 92
        2
 72
         0
 73
         1
 93
        3
 10
50.0
 20
34.614716000000001
 10
51.143000000000001
 20
35.186216000000002
 10
51.143000000000001
 20
34.043216000000001
 97
        1
330
29
 75
         0
 76
         1
 98
        1
 10
0.0
 20
0.0
  0
LWPOLYLINE
  5
2B
100
AcDbEntity
  8
ASSEMBLY_OUTLINES_TOP
100
AcDbPolyline
 90
        3
 70
         1
 10
47.0
 20
34.614716
 10
45.857
 20
34.043217
 10
45.857001
 20
35.186216
  0
HATCH
  5
2C
100
AcDbEntity
  8
ASSEMBLY_OUTLINES_TOP
100
AcDbHatch
 10
0.0
 20
0.0
 30
0.0
210
0.0
220
0.0
230
1.0
  2
SOLID
 70
         1
 71
         1
 91
        1
 92
        2
 72
         0
 73
         1
 93
        3
 10
47.0
 20
34.614716000000001
 10
45.856999999999999
 20
34.043216999999999
 10
45.857000999999997
 20
35.186216000000002
 97
        1
330
2B
 75
         0
 76
         1
 98
        1
 10
0.0
 20
0.0
  0
LWPOLYLINE
  5
2D
100
AcDbEntity
  8
ASSEMBLY_OUTLINES_TOP
100
AcDbPolyline
 90
        2
 70
         0
 43
0.2032
 10
50.5715
 20
34.614716
 10
52.8575
 20
34.614716
  0
LWPOLYLINE
  5
2E
100
AcDbEntity
  8
ASSEMBLY_OUTLINES_TOP
100
AcDbPolyline
 90
        2
 70
         0
 43
0.2032
 10
46.4285
 20
34.614716
 10
44.1425
 20
34.614716
  0
LWPOLYLINE
  5
2F
100
AcDbEntity
  8
ASSEMBLY_OUTLINES_TOP
100
AcDbPolyline
 90
        2
 70
         0
 43
0.2032
 10
50.0
 20
36.992
 10
50.0
 20
34.106716
  0
LWPOLYLINE
  5
30
100
AcDbEntity
  8
ASSEMBLY_OUTLINES_TOP
100
AcDbPolyline
 90
        2
 70
         0
 43
0.2032
 10
47.0
 20
5.008
 10
47.0
 20
35.122716
  0
LWPOLYLINE
  5
31
100
AcDbEntity
  8
ASSEMBLY_OUTLINES_TOP
100
AcDbPolyline
 90
        3
 70
         1
 10
38.61839
 20
37.5
 10
38.04689
 20
38.643
 10
39.18989
 20
38.643
  0
HATCH
  5
32
100
AcDbEntity
  8
ASSEMBLY_OUTLINES_TOP
100
AcDbHatch
 10
0.0
 20
0.0
 30
0.0
210
0.0
220
0.0
230
1.0
  2
SOLID
 70
         1
 71
         1
 91
        1
 92
        2
 72
         0
 73
         1
 93
        3
 10
38.618389999999998
 20
37.5
 10
38.046889999999998
 20
38.643000000000001
 10
39.189889999999998
 20
38.643000000000001
 97
        1
330
31
 75
         0
 76
         1
 98
        1
 10
0.0
 20
0.0
  0
LWPOLYLINE
  5
33
100
AcDbEntity
  8
ASSEMBLY_OUTLINES_TOP
100
AcDbPolyline
 90
        3
 70
         1
 10
38.61839
 20
64.5
 10
39.189889
 20
63.357
 10
38.04689
 20
63.357001
  0
HATCH
  5
34
100
AcDbEntity
  8
ASSEMBLY_OUTLINES_TOP
100
AcDbHatch
 10
0.0
 20
0.0
 30
0.0
210
0.0
220
0.0
230
1.0
  2
SOLID
 70
         1
 71
         1
 91
        1
 92
        2
 72
         0
 73
         1
 93
        3
 10
38.618389999999998
 20
64.5
 10
39.189889000000001
 20
63.356999999999999
 10
38.046889999999998
 20
63.357000999999997
 97
        1
330
33
 75
         0
 76
         1
 98
        1
 10
0.0
 20
0.0
  0
LWPOLYLINE
  5
35
100
AcDbEntity
  8
ASSEMBLY_OUTLINES_TOP
100
AcDbPolyline
 90
        2
 70
         0
 43
0.2032
 10
38.61839
 20
48.247402
 10
38.61839
 20
38.0715
  0
LWPOLYLINE
  5
36
100
AcDbEntity
  8
ASSEMBLY_OUTLINES_TOP
100
AcDbPolyline
 90
        2
 70
         0
 43
0.2032
 10
38.61839
 20
63.9285
 10
38.61839
 20
53.752597
  0
LWPOLYLINE
  5
37
100
AcDbEntity
  8
ASSEMBLY_OUTLINES_TOP
100
AcDbPolyline
 90
        2
 70
         0
 43
0.2032
 10
49.492
 20
37.5
 10
38.11039
 20
37.5
  0
LWPOLYLINE
  5
38
100
AcDbEntity
  8
ASSEMBLY_OUTLINES_TOP
100
AcDbPolyline
 90
        2
 70
         0
 43
0.2032
 10
46.492
 20
64.5
 10
38.11039
 20
64.5
  0
LWPOLYLINE
  5
39
100
AcDbEntity
  8
ASSEMBLY_OUTLINES_TOP
100
AcDbPolyline
 90
        3
 70
         1
 10
107.0
 20
71.590075
 10
108.143
 20
72.161575
 10
108.143
 20
71.018575
  0
HATCH
  5
3A
100
AcDbEntity
  8
ASSEMBLY_OUTLINES_TOP
100
AcDbHatch
 10
0.0
 20
0.0
 30
0.0
210
0.0
220
0.0
230
1.0
  2
SOLID
 70
         1
 71
         1
 91
        1
 92
        2
 72
         0
 73
         1
 93
        3
 10
107.0
 20
71.590074999999999
 10
108.143
 20
72.161574999999999
 10
108.143
 20
71.018574999999998
 97
        1
330
39
 75
         0
 76
         1
 98
        1
 10
0.0
 20
0.0
  0
LWPOLYLINE
  5
3B
100
AcDbEntity
  8
ASSEMBLY_OUTLINES_TOP
100
AcDbPolyline
 90
        3
 70
         1
 10
103.5
 20
71.590075
 10
102.357
 20
71.018576
 10
102.357001
 20
72.161575
  0
HATCH
  5
3C
100
AcDbEntity
  8
ASSEMBLY_OUTLINES_TOP
100
AcDbHatch
 10
0.0
 20
0.0
 30
0.0
210
0.0
220
0.0
230
1.0
  2
SOLID
 70
         1
 71
         1
 91
        1
 92
        2
 72
         0
 73
         1
 93
        3
 10
103.5
 20
71.590074999999999
 10
102.357
 20
71.018575999999996
 10
102.357001
 20
72.161574999999999
 97
        1
330
3B
 75
         0
 76
         1
 98
        1
 10
0.0
 20
0.0
  0
LWPOLYLINE
  5
3D
100
AcDbEntity
  8
ASSEMBLY_OUTLINES_TOP
100
AcDbPolyline
 90
        2
 70
         0
 43
0.2032
 10
107.5715
 20
71.590075
 10
109.8575
 20
71.590075
  0
LWPOLYLINE
  5
3E
100
AcDbEntity
  8
ASSEMBLY_OUTLINES_TOP
100
AcDbPolyline
 90
        2
 70
         0
 43
0.2032
 10
102.9285
 20
71.590075
 10
100.6425
 20
71.590075
  0
LWPOLYLINE
  5
3F
100
AcDbEntity
  8
ASSEMBLY_OUTLINES_TOP
100
AcDbPolyline
 90
        2
 70
         0
 43
0.2032
 10
107.0
 20
65.008
 10
107.0
 20
72.098075
  0
LWPOLYLINE
  5
40
100
AcDbEntity
  8
ASSEMBLY_OUTLINES_TOP
100
AcDbPolyline
 90
        2
 70
         0
 43
0.2032
 10
103.5
 20
62.508
 10
103.5
 20
72.098075
  0
LWPOLYLINE
  5
41
100
AcDbEntity
  8
ASSEMBLY_OUTLINES_TOP
100
AcDbPolyline
 90
        3
 70
         1
 10
121.615683
 20
62.0
 10
122.187182
 20
60.857
 10
121.044183
 20
60.857001
  0
HATCH
  5
42
100
AcDbEntity
  8
ASSEMBLY_OUTLINES_TOP
100
AcDbHatch
 10
0.0
 20
0.0
 30
0.0
210
0.0
220
0.0
230
1.0
  2
SOLID
 70
         1
 71
         1
 91
        1
 92
        2
 72
         0
 73
         1
 93
        3
 10
121.615683
 20
62.0
 10
122.18718200000001
 20
60.856999999999999
 10
121.044183
 20
60.857000999999997
 97
        1
330
41
 75
         0
 76
         1
 98
        1
 10
0.0
 20
0.0
  0
LWPOLYLINE
  5
43
100
AcDbEntity
  8
ASSEMBLY_OUTLINES_TOP
100
AcDbPolyline
 90
        3
 70
         1
 10
121.615683
 20
64.5
 10
121.044183
 20
65.643
 10
122.187183
 20
65.643
  0
HATCH
  5
44
100
AcDbEntity
  8
ASSEMBLY_OUTLINES_TOP
100
AcDbHatch
 10
0.0
 20
0.0
 30
0.0
210
0.0
220
0.0
230
1.0
  2
SOLID
 70
         1
 71
         1
 91
        1
 92
        2
 72
         0
 73
         1
 93
        3
 10
121.615683
 20
64.5
 10
121.044183
 20
65.643000000000001
 10
122.187183
 20
65.643000000000001
 97
        1
330
43
 75
         0
 76
         1
 98
        1
 10
0.0
 20
0.0
  0
LWPOLYLINE
  5
45
100
AcDbEntity
  8
ASSEMBLY_OUTLINES_TOP
100
AcDbPolyline
 90
        2
 70
         0
 43
0.2032
 10
121.615683
 20
61.4285
 10
121.615683
 20
59.1425
  0
LWPOLYLINE
  5
46
100
AcDbEntity
  8
ASSEMBLY_OUTLINES_TOP
100
AcDbPolyline
 90
        2
 70
         0
 43
0.2032
 10
121.615683
 20
65.0715
 10
121.615683
 20
67.3575
  0
LWPOLYLINE
  5
47
100
AcDbEntity
  8
ASSEMBLY_OUTLINES_TOP
100
AcDbPolyline
 90
        2
 70
         0
 43
0.2032
 10
104.008
 20
62.0
 10
122.123683
 20
62.0
  0
LWPOLYLINE
  5
48
100
AcDbEntity
  8
ASSEMBLY_OUTLINES_TOP
100
AcDbPolyline
 90
        2
 70
         0
 43
0.2032
 10
107.508
 20
64.5
 10
122.123683
 20
64.5
  0
LWPOLYLINE
  5
49
100
AcDbEntity
  8
ASSEMBLY_OUTLINES_TOP
100
AcDbPolyline
 90
        3
 70
         1
 10
116.632144
 20
4.5
 10
117.203643
 20
3.357
 10
116.060644
 20
3.357001
  0
HATCH
  5
4A
100
AcDbEntity
  8
ASSEMBLY_OUTLINES_TOP
100
AcDbHatch
 10
0.0
 20
0.0
 30
0.0
210
0.0
220
0.0
230
1.0
  2
SOLID
 70
         1
 71
         1
 91
        1
 92
        2
 72
         0
 73
         1
 93
        3
 10
116.632144
 20
4.5
 10
117.203643
 20
3.3570000000000002
 10
116.060644
 20
3.3570009999999999
 97
        1
330
49
 75
         0
 76
         1
 98
        1
 10
0.0
 20
0.0
  0
LWPOLYLINE
  5
4B
100
AcDbEntity
  8
ASSEMBLY_OUTLINES_TOP
100
AcDbPolyline
 90
        3
 70
         1
 10
116.632144
 20
7.0
 10
116.060644
 20
8.143
 10
117.203644
 20
8.143
  0
HATCH
  5
4C
100
AcDbEntity
  8
ASSEMBLY_OUTLINES_TOP
100
AcDbHatch
 10
0.0
 20
0.0
 30
0.0
210
0.0
220
0.0
230
1.0
  2
SOLID
 70
         1
 71
         1
 91
        1
 92
        2
 72
         0
 73
         1
 93
        3
 10
116.632144
 20
7.0
 10
116.060644
 20
8.1430000000000007
 10
117.203644
 20
8.1430000000000007
 97
        1
330
4B
 75
         0
 76
         1
 98
        1
 10
0.0
 20
0.0
  0
LWPOLYLINE
  5
4D
100
AcDbEntity
  8
ASSEMBLY_OUTLINES_TOP
100
AcDbPolyline
 90
        2
 70
         0
 43
0.2032
 10
116.632144
 20
3.9285
 10
116.632144
 20
1.6425
  0
LWPOLYLINE
  5
4E
100
AcDbEntity
  8
ASSEMBLY_OUTLINES_TOP
100
AcDbPolyline
 90
        2
 70
         0
 43
0.2032
 10
116.632144
 20
7.5715
 10
116.632144
 20
9.8575
  0
LWPOLYLINE
  5
4F
100
AcDbEntity
  8
ASSEMBLY_OUTLINES_TOP
100
AcDbPolyline
 90
        2
 70
         0
 43
0.2032
 10
107.508
 20
4.5
 10
117.140144
 20
4.5
  0
LWPOLYLINE
  5
50
100
AcDbEntity
  8
ASSEMBLY_OUTLINES_TOP
100
AcDbPolyline
 90
        2
 70
         0
 43
0.2032
 10
104.008
 20
7.0
 10
117.140144
 20
7.0
  0
LWPOLYLINE
  5
51
100
AcDbEntity
  8
ASSEMBLY_OUTLINES_TOP
100
AcDbPolyline
 90
        3
 70
         1
 10
107.0
 20
0.350755
 10
108.143
 20
0.922255
 10
108.143
 20
-0.220745
  0
HATCH
  5
52
100
AcDbEntity
  8
ASSEMBLY_OUTLINES_TOP
100
AcDbHatch
 10
0.0
 20
0.0
 30
0.0
210
0.0
220
0.0
230
1.0
  2
SOLID
 70
         1
 71
         1
 91
        1
 92
        2
 72
         0
 73
         1
 93
        3
 10
107.0
 20
0.350755
 10
108.143
 20
0.9222550000000001
 10
108.143
 20
-0.220745
 97
        1
330
51
 75
         0
 76
         1
 98
        1
 10
0.0
 20
0.0
  0
LWPOLYLINE
  5
53
100
AcDbEntity
  8
ASSEMBLY_OUTLINES_TOP
100
AcDbPolyline
 90
        3
 70
         1
 10
103.5
 20
0.350755
 10
102.357
 20
-0.220744
 10
102.357001
 20
0.922255
  0
HATCH
  5
54
100
AcDbEntity
  8
ASSEMBLY_OUTLINES_TOP
100
AcDbHatch
 10
0.0
 20
0.0
 30
0.0
210
0.0
220
0.0
230
1.0
  2
SOLID
 70
         1
 71
         1
 91
        1
 92
        2
 72
         0
 73
         1
 93
        3
 10
103.5
 20
0.350755
 10
102.357
 20
-0.220744
 10
102.357001
 20
0.9222550000000001
 97
        1
330
53
 75
         0
 76
         1
 98
        1
 10
0.0
 20
0.0
  0
LWPOLYLINE
  5
55
100
AcDbEntity
  8
ASSEMBLY_OUTLINES_TOP
100
AcDbPolyline
 90
        2
 70
         0
 43
0.2032
 10
107.5715
 20
0.350755
 10
109.8575
 20
0.350755
  0
LWPOLYLINE
  5
56
100
AcDbEntity
  8
ASSEMBLY_OUTLINES_TOP
100
AcDbPolyline
 90
        2
 70
         0
 43
0.2032
 10
102.9285
 20
0.350755
 10
100.6425
 20
0.350755
  0
LWPOLYLINE
  5
57
100
AcDbEntity
  8
ASSEMBLY_OUTLINES_TOP
100
AcDbPolyline
 90
        2
 70
         0
 43
0.2032
 10
107.0
 20
3.992
 10
107.0
 20
-0.157245
  0
LWPOLYLINE
  5
58
100
AcDbEntity
  8
ASSEMBLY_OUTLINES_TOP
100
AcDbPolyline
 90
        2
 70
         0
 43
0.2032
 10
103.5
 20
6.492
 10
103.5
 20
-0.157245
  0
LWPOLYLINE
  5
59
100
AcDbEntity
  8
ASSEMBLY_OUTLINES_TOP
100
AcDbPolyline
 90
        3
 70
         1
 10
109.77161
 20
4.5
 10
110.343109
 20
3.357
 10
109.20011
 20
3.357001
  0
HATCH
  5
5A
100
AcDbEntity
  8
ASSEMBLY_OUTLINES_TOP
100
AcDbHatch
 10
0.0
 20
0.0
 30
0.0
210
0.0
220
0.0
230
1.0
  2
SOLID
 70
         1
 71
         1
 91
        1
 92
        2
 72
         0
 73
         1
 93
        3
 10
109.77161
 20
4.5
 10
110.343109
 20
3.3570000000000002
 10
109.20011
 20
3.3570009999999999
 97
        1
330
59
 75
         0
 76
         1
 98
        1
 10
0.0
 20
0.0
  0
LWPOLYLINE
  5
5B
100
AcDbEntity
  8
ASSEMBLY_OUTLINES_TOP
100
AcDbPolyline
 90
        3
 70
         1
 10
109.77161
 20
10.37
 10
109.20011
 20
11.513
 10
110.34311
 20
11.513
  0
HATCH
  5
5C
100
AcDbEntity
  8
ASSEMBLY_OUTLINES_TOP
100
AcDbHatch
 10
0.0
 20
0.0
 30
0.0
210
0.0
220
0.0
230
1.0
  2
SOLID
 70
         1
 71
         1
 91
        1
 92
        2
 72
         0
 73
         1
 93
        3
 10
109.77161
 20
10.369999999999999
 10
109.20011
 20
11.513
 10
110.34311
 20
11.513
 97
        1
330
5B
 75
         0
 76
         1
 98
        1
 10
0.0
 20
0.0
  0
LWPOLYLINE
  5
5D
100
AcDbEntity
  8
ASSEMBLY_OUTLINES_TOP
100
AcDbPolyline
 90
        2
 70
         0
 43
0.2032
 10
109.77161
 20
3.9285
 10
109.77161
 20
1.6425
  0
LWPOLYLINE
  5
5E
100
AcDbEntity
  8
ASSEMBLY_OUTLINES_TOP
100
AcDbPolyline
 90
        2
 70
         0
 43
0.2032
 10
109.77161
 20
10.9415
 10
109.77161
 20
13.2275
  0
LWPOLYLINE
  5
5F
100
AcDbEntity
  8
ASSEMBLY_OUTLINES_TOP
100
AcDbPolyline
 90
        2
 70
         0
 43
0.2032
 10
107.508
 20
4.5
 10
110.27961
 20
4.5
  0
LWPOLYLINE
  5
60
100
AcDbEntity
  8
ASSEMBLY_OUTLINES_TOP
100
AcDbPolyline
 90
        2
 70
         0
 43
0.2032
 10
105.338
 20
10.37
 10
110.27961
 20
10.37
  0
LWPOLYLINE
  5
61
100
AcDbEntity
  8
ASSEMBLY_OUTLINES_TOP
100
AcDbPolyline
 90
        3
 70
         1
 10
33.441083
 20
4.5
 10
34.012582
 20
3.357
 10
32.869583
 20
3.357001
  0
HATCH
  5
62
100
AcDbEntity
  8
ASSEMBLY_OUTLINES_TOP
100
AcDbHatch
 10
0.0
 20
0.0
 30
0.0
210
0.0
220
0.0
230
1.0
  2
SOLID
 70
         1
 71
         1
 91
        1
 92
        2
 72
         0
 73
         1
 93
        3
 10
33.441082999999999
 20
4.5
 10
34.012582000000002
 20
3.3570000000000002
 10
32.869582999999999
 20
3.3570009999999999
 97
        1
330
61
 75
         0
 76
         1
 98
        1
 10
0.0
 20
0.0
  0
LWPOLYLINE
  5
63
100
AcDbEntity
  8
ASSEMBLY_OUTLINES_TOP
100
AcDbPolyline
 90
        3
 70
         1
 10
33.441083
 20
6.3
 10
32.869583
 20
7.443
 10
34.012583
 20
7.443
  0
HATCH
  5
64
100
AcDbEntity
  8
ASSEMBLY_OUTLINES_TOP
100
AcDbHatch
 10
0.0
 20
0.0
 30
0.0
210
0.0
220
0.0
230
1.0
  2
SOLID
 70
         1
 71
         1
 91
        1
 92
        2
 72
         0
 73
         1
 93
        3
 10
33.441082999999999
 20
6.2999999999999998
 10
32.869582999999999
 20
7.4429999999999996
 10
34.012582999999999
 20
7.4429999999999996
 97
        1
330
63
 75
         0
 76
         1
 98
        1
 10
0.0
 20
0.0
  0
LWPOLYLINE
  5
65
100
AcDbEntity
  8
ASSEMBLY_OUTLINES_TOP
100
AcDbPolyline
 90
        2
 70
         0
 43
0.2032
 10
33.441083
 20
3.9285
 10
33.441083
 20
1.6425
  0
LWPOLYLINE
  5
66
100
AcDbEntity
  8
ASSEMBLY_OUTLINES_TOP
100
AcDbPolyline
 90
        2
 70
         0
 43
0.2032
 10
33.441083
 20
6.8715
 10
33.441083
 20
9.1575
  0
LWPOLYLINE
  5
67
100
AcDbEntity
  8
ASSEMBLY_OUTLINES_TOP
100
AcDbPolyline
 90
        2
 70
         0
 43
0.2032
 10
46.492
 20
4.5
 10
32.933083
 20
4.5
  0
LWPOLYLINE
  5
68
100
AcDbEntity
  8
ASSEMBLY_OUTLINES_TOP
100
AcDbPolyline
 90
        2
 70
         0
 43
0.2032
 10
47.992
 20
6.3
 10
32.933083
 20
6.3
  0
LWPOLYLINE
  5
69
100
AcDbEntity
  8
ASSEMBLY_OUTLINES_TOP
100
AcDbPolyline
 90
        3
 70
         1
 10
48.5
 20
1.5
 10
49.643
 20
2.0715
 10
49.643
 20
0.9285
  0
HATCH
  5
6A
100
AcDbEntity
  8
ASSEMBLY_OUTLINES_TOP
100
AcDbHatch
 10
0.0
 20
0.0
 30
0.0
210
0.0
220
0.0
230
1.0
  2
SOLID
 70
         1
 71
         1
 91
        1
 92
        2
 72
         0
 73
         1
 93
        3
 10
48.5
 20
1.5
 10
49.643000000000001
 20
2.0714999999999999
 10
49.643000000000001
 20
0.9285
 97
        1
330
69
 75
         0
 76
         1
 98
        1
 10
0.0
 20
0.0
  0
LWPOLYLINE
  5
6B
100
AcDbEntity
  8
ASSEMBLY_OUTLINES_TOP
100
AcDbPolyline
 90
        3
 70
         1
 10
47.0
 20
1.5
 10
45.857
 20
0.928501
 10
45.857001
 20
2.0715
  0
HATCH
  5
6C
100
AcDbEntity
  8
ASSEMBLY_OUTLINES_TOP
100
AcDbHatch
 10
0.0
 20
0.0
 30
0.0
210
0.0
220
0.0
230
1.0
  2
SOLID
 70
         1
 71
         1
 91
        1
 92
        2
 72
         0
 73
         1
 93
        3
 10
47.0
 20
1.5
 10
45.856999999999999
 20
0.928501
 10
45.857000999999997
 20
2.0714999999999999
 97
        1
330
6B
 75
         0
 76
         1
 98
        1
 10
0.0
 20
0.0
  0
LWPOLYLINE
  5
6D
100
AcDbEntity
  8
ASSEMBLY_OUTLINES_TOP
100
AcDbPolyline
 90
        2
 70
         0
 43
0.2032
 10
49.0715
 20
1.5
 10
51.3575
 20
1.5
  0
LWPOLYLINE
  5
6E
100
AcDbEntity
  8
ASSEMBLY_OUTLINES_TOP
100
AcDbPolyline
 90
        2
 70
         0
 43
0.2032
 10
46.4285
 20
1.5
 10
44.1425
 20
1.5
  0
LWPOLYLINE
  5
6F
100
AcDbEntity
  8
ASSEMBLY_OUTLINES_TOP
100
AcDbPolyline
 90
        2
 70
         0
 43
0.2032
 10
48.5
 20
5.792
 10
48.5
 20
0.992
  0
LWPOLYLINE
  5
70
100
AcDbEntity
  8
ASSEMBLY_OUTLINES_TOP
100
AcDbPolyline
 90
        2
 70
         0
 43
0.2032
 10
47.0
 20
3.992
 10
47.0
 20
0.992
  0
LWPOLYLINE
  5
71
100
AcDbEntity
  8
ASSEMBLY_OUTLINES_TOP
100
AcDbPolyline
 90
        2
 70
         0
 43
0.2032
 10
47.0
 20
65.008
 10
47.0
 20
69.679724
  0
LWPOLYLINE
  5
72
100
AcDbEntity
  8
ASSEMBLY_OUTLINES_TOP
100
AcDbPolyline
 90
        2
 70
         0
 43
0.2032
 10
107.0
 20
65.008
 10
107.0
 20
69.679724
  0
LWPOLYLINE
  5
73
100
AcDbEntity
  8
ASSEMBLY_OUTLINES_TOP
100
AcDbPolyline
 90
        2
 70
         0
 43
0.2032
 10
47.5715
 20
69.171724
 10
74.247402
 20
69.171724
  0
LWPOLYLINE
  5
74
100
AcDbEntity
  8
ASSEMBLY_OUTLINES_TOP
100
AcDbPolyline
 90
        2
 70
         0
 43
0.2032
 10
79.752598
 20
69.171724
 10
106.4285
 20
69.171724
  0
LWPOLYLINE
  5
75
100
AcDbEntity
  8
ASSEMBLY_OUTLINES_TOP
100
AcDbPolyline
 90
        3
 70
         1
 10
47.0
 20
69.171724
 10
48.143
 20
69.743224
 10
48.143
 20
68.600224
  0
HATCH
  5
76
100
AcDbEntity
  8
ASSEMBLY_OUTLINES_TOP
100
AcDbHatch
 10
0.0
 20
0.0
 30
0.0
210
0.0
220
0.0
230
1.0
  2
SOLID
 70
         1
 71
         1
 91
        1
 92
        2
 72
         0
 73
         1
 93
        3
 10
47.0
 20
69.171723999999998
 10
48.143000000000001
 20
69.743223999999998
 10
48.143000000000001
 20
68.600223999999997
 97
        1
330
75
 75
         0
 76
         1
 98
        1
 10
0.0
 20
0.0
  0
LWPOLYLINE
  5
77
100
AcDbEntity
  8
ASSEMBLY_OUTLINES_TOP
100
AcDbPolyline
 90
        3
 70
         1
 10
107.0
 20
69.171724
 10
105.857
 20
68.600225
 10
105.857001
 20
69.743224
  0
HATCH
  5
78
100
AcDbEntity
  8
ASSEMBLY_OUTLINES_TOP
100
AcDbHatch
 10
0.0
 20
0.0
 30
0.0
210
0.0
220
0.0
230
1.0
  2
SOLID
 70
         1
 71
         1
 91
        1
 92
        2
 72
         0
 73
         1
 93
        3
 10
107.0
 20
69.171723999999998
 10
105.857
 20
68.600224999999995
 10
105.857001
 20
69.743223999999998
 97
        1
330
77
 75
         0
 76
         1
 98
        1
 10
0.0
 20
0.0
  0
LWPOLYLINE
  5
79
100
AcDbEntity
  8
ASSEMBLY_OUTLINES_TOP
100
AcDbPolyline
 90
        2
 70
         0
 43
0.2032
 10
107.508
 20
64.5
 10
113.313084
 20
64.5
  0
LWPOLYLINE
  5
7A
100
AcDbEntity
  8
ASSEMBLY_OUTLINES_TOP
100
AcDbPolyline
 90
        2
 70
         0
 43
0.2032
 10
107.508
 20
4.5
 10
113.313084
 20
4.5
  0
LWPOLYLINE
  5
7B
100
AcDbEntity
  8
ASSEMBLY_OUTLINES_TOP
100
AcDbPolyline
 90
        2
 70
         0
 43
0.2032
 10
112.805084
 20
63.9285
 10
112.805084
 20
37.252597
  0
LWPOLYLINE
  5
7C
100
AcDbEntity
  8
ASSEMBLY_OUTLINES_TOP
100
AcDbPolyline
 90
        2
 70
         0
 43
0.2032
 10
112.805084
 20
31.747402
 10
112.805084
 20
5.0715
  0
LWPOLYLINE
  5
7D
100
AcDbEntity
  8
ASSEMBLY_OUTLINES_TOP
100
AcDbPolyline
 90
        3
 70
         1
 10
112.805084
 20
64.5
 10
113.376583
 20
63.357
 10
112.233584
 20
63.357001
  0
HATCH
  5
7E
100
AcDbEntity
  8
ASSEMBLY_OUTLINES_TOP
100
AcDbHatch
 10
0.0
 20
0.0
 30
0.0
210
0.0
220
0.0
230
1.0
  2
SOLID
 70
         1
 71
         1
 91
        1
 92
        2
 72
         0
 73
         1
 93
        3
 10
112.80508399999999
 20
64.5
 10
113.376583
 20
63.356999999999999
 10
112.23358399999999
 20
63.357000999999997
 97
        1
330
7D
 75
         0
 76
         1
 98
        1
 10
0.0
 20
0.0
  0
LWPOLYLINE
  5
7F
100
AcDbEntity
  8
ASSEMBLY_OUTLINES_TOP
100
AcDbPolyline
 90
        3
 70
         1
 10
112.805084
 20
4.5
 10
112.233584
 20
5.643
 10
113.376584
 20
5.643
  0
HATCH
  5
80
100
AcDbEntity
  8
ASSEMBLY_OUTLINES_TOP
100
AcDbHatch
 10
0.0
 20
0.0
 30
0.0
210
0.0
220
0.0
230
1.0
  2
SOLID
 70
         1
 71
         1
 91
        1
 92
        2
 72
         0
 73
         1
 93
        3
 10
112.80508399999999
 20
4.5
 10
112.23358399999999
 20
5.6429999999999998
 10
113.37658399999999
 20
5.6429999999999998
 97
        1
330
7F
 75
         0
 76
         1
 98
        1
 10
0.0
 20
0.0
  0
TEXT
  5
82
100
AcDbEntity
  8
ASSEMBLY_OUTLINES_TOP
100
AcDbText
 10
40.323896
 20
33.979716
 30
0.0
 40
1.27
  1
3mm
  7
VERIBEST_GERBER_1
 72
         1
 11
42.121581
 21
34.614716
 31
0.0
100
AcDbText
 73
         2
  0
TEXT
  5
83
100
AcDbEntity
  8
ASSEMBLY_OUTLINES_TOP
100
AcDbText
 10
39.25339
 20
48.602241
 30
0.0
 40
1.27
  1
27mm
 50
90.0
  7
VERIBEST_GERBER_1
 72
         1
 11
38.61839
 21
51.000001
 31
0.0
100
AcDbText
 73
         2
  0
TEXT
  5
84
100
AcDbEntity
  8
ASSEMBLY_OUTLINES_TOP
100
AcDbText
 10
94.662991
 20
70.955075
 30
0.0
 40
1.27
  1
3.5mm
  7
VERIBEST_GERBER_1
 72
         1
 11
97.514776
 21
71.590075
 31
0.0
100
AcDbText
 73
         2
  0
TEXT
  5
85
100
AcDbEntity
  8
ASSEMBLY_OUTLINES_TOP
100
AcDbText
 10
122.250683
 20
67.633439
 30
0.0
 40
1.27
  1
2.5mm
 50
90.0
  7
VERIBEST_GERBER_1
 72
         1
 11
121.615683
 21
70.485224
 31
0.0
100
AcDbText
 73
         2
  0
TEXT
  5
86
100
AcDbEntity
  8
ASSEMBLY_OUTLINES_TOP
100
AcDbText
 10
117.267144
 20
10.133439
 30
0.0
 40
1.27
  1
2.5mm
 50
90.0
  7
VERIBEST_GERBER_1
 72
         1
 11
116.632144
 21
12.985224
 31
0.0
100
AcDbText
 73
         2
  0
TEXT
  5
87
100
AcDbEntity
  8
ASSEMBLY_OUTLINES_TOP
100
AcDbText
 10
94.662991
 20
-0.284245
 30
0.0
 40
1.27
  1
3.5mm
  7
VERIBEST_GERBER_1
 72
         1
 11
97.514776
 21
0.350755
 31
0.0
100
AcDbText
 73
         2
  0
TEXT
  5
88
100
AcDbEntity
  8
ASSEMBLY_OUTLINES_TOP
100
AcDbText
 10
110.40661
 20
13.533443
 30
0.0
 40
1.27
  1
5.87mm
 50
90.0
  7
VERIBEST_GERBER_1
 72
         1
 11
109.77161
 21
16.985303
 31
0.0
100
AcDbText
 73
         2
  0
TEXT
  5
89
100
AcDbEntity
  8
ASSEMBLY_OUTLINES_TOP
100
AcDbText
 10
34.076083
 20
9.429947
 30
0.0
 40
1.27
  1
1.8mm
 50
90.0
  7
VERIBEST_GERBER_1
 72
         1
 11
33.441083
 21
12.211882
 31
0.0
100
AcDbText
 73
         2
  0
TEXT
  5
8A
100
AcDbEntity
  8
ASSEMBLY_OUTLINES_TOP
100
AcDbText
 10
38.306183
 20
0.865
 30
0.0
 40
1.27
  1
1.5mm
  7
VERIBEST_GERBER_1
 72
         1
 11
41.088118
 21
1.5
 31
0.0
100
AcDbText
 73
         2
  0
TEXT
  5
8B
100
AcDbEntity
  8
ASSEMBLY_OUTLINES_TOP
100
AcDbText
 10
74.60224
 20
68.536724
 30
0.0
 40
1.27
  1
60mm
  7
VERIBEST_GERBER_1
 72
         1
 11
77.0
 21
69.171724
 31
0.0
100
AcDbText
 73
         2
  0
TEXT
  5
8C
100
AcDbEntity
  8
ASSEMBLY_OUTLINES_TOP
100
AcDbText
 10
113.440084
 20
32.102241
 30
0.0
 40
1.27
  1
60mm
 50
90.0
  7
VERIBEST_GERBER_1
 72
         1
 11
112.805084
 21
34.500001
 31
0.0
100
AcDbText
 73
         2
  0
TEXT
  5
8E
100
AcDbEntity
  8
ASSEMBLY_OUTLINES_TOP
100
AcDbText
 10
48.396
 20
10.66
 30
0.0
 40
1.0
  1
2
  7
GOST_TYPE_B
 72
         2
 11
49.08
 21
10.66
 31
0.0
100
AcDbText
 73
         1
  0
TEXT
  5
8F
100
AcDbEntity
  8
ASSEMBLY_OUTLINES_TOP
100
AcDbText
 10
47.812
 20
57.28
 30
0.0
 40
1.0
  1
1
  7
GOST_TYPE_B
 72
         2
 11
48.3
 21
57.28
 31
0.0
100
AcDbText
 73
         1
  0
TEXT
  5
90
100
AcDbEntity
  8
ASSEMBLY_OUTLINES_TOP
100
AcDbText
 10
99.850939
 20
9.603134
 30
0.0
 40
1.0
  1
2
  7
GOST_TYPE_B
 72
         2
 11
100.534939
 21
9.603134
 31
0.0
100
AcDbText
 73
         1
  0
TEXT
  5
91
100
AcDbEntity
  8
ASSEMBLY_OUTLINES_TOP
100
AcDbText
 10
98.482
 20
59.47
 30
0.0
 40
1.0
  1
39
  7
GOST_TYPE_B
 72
         2
 11
99.85
 21
59.47
 31
0.0
100
AcDbText
 73
         1
  0
TEXT
  5
92
100
AcDbEntity
  8
ASSEMBLY_OUTLINES_TOP
100
AcDbText
 10
98.365
 20
62.4
 30
0.0
 40
1.0
  1
40
  7
GOST_TYPE_B
 72
         2
 11
99.83
 21
62.4
 31
0.0
100
AcDbText
 73
         1
  0
LWPOLYLINE
  5
93
100
AcDbEntity
  8
ASSEMBLY_OUTLINES_TOP
100
AcDbPolyline
 90
        4
 70
         1
 43
0.1
 10
86.74
 20
26.77
 10
86.74
 20
39.27
 10
94.24
 20
39.27
 10
94.24
 20
26.77
  0
LWPOLYLINE
  5
94
100
AcDbEntity
  8
ASSEMBLY_OUTLINES_TOP
100
AcDbPolyline
 90
        2
 70
         0
 43
0.1
 10
94.24
 20
26.87
 10
94.14
 20
26.77
  0
LWPOLYLINE
  5
95
100
AcDbEntity
  8
ASSEMBLY_OUTLINES_TOP
100
AcDbPolyline
 90
        2
 70
         0
 43
0.1
 10
94.24
 20
26.97
 10
94.04
 20
26.77
  0
LWPOLYLINE
  5
96
100
AcDbEntity
  8
ASSEMBLY_OUTLINES_TOP
100
AcDbPolyline
 90
        2
 70
         0
 43
0.1
 10
94.24
 20
27.07
 10
93.94
 20
26.77
  0
LWPOLYLINE
  5
97
100
AcDbEntity
  8
ASSEMBLY_OUTLINES_TOP
100
AcDbPolyline
 90
        2
 70
         0
 43
0.1
 10
94.24
 20
27.17
 10
93.84
 20
26.77
  0
LWPOLYLINE
  5
98
100
AcDbEntity
  8
ASSEMBLY_OUTLINES_TOP
100
AcDbPolyline
 90
        2
 70
         0
 43
0.1
 10
94.24
 20
27.27
 10
93.74
 20
26.77
  0
LWPOLYLINE
  5
99
100
AcDbEntity
  8
ASSEMBLY_OUTLINES_TOP
100
AcDbPolyline
 90
        2
 70
         0
 43
0.1
 10
94.24
 20
27.37
 10
93.64
 20
26.77
  0
LWPOLYLINE
  5
9A
100
AcDbEntity
  8
ASSEMBLY_OUTLINES_TOP
100
AcDbPolyline
 90
        4
 70
         1
 43
0.1
 10
76.55
 20
10.7
 10
76.55
 20
12.7
 10
88.55
 20
12.7
 10
88.55
 20
10.7
  0
LWPOLYLINE
  5
9B
100
AcDbEntity
  8
ASSEMBLY_OUTLINES_TOP
100
AcDbPolyline
 90
        4
 70
         1
 43
0.1
 10
101.08
 20
9.07
 10
101.08
 20
59.97
 10
106.08
 20
59.97
 10
106.08
 20
9.07
  0
LWPOLYLINE
  5
9C
100
AcDbEntity
  8
ASSEMBLY_OUTLINES_TOP
100
AcDbPolyline
 90
        4
 70
         1
 43
0.1
 10
47.2
 20
58.91
 10
47.2
 20
63.91
 10
98.1
 20
63.91
 10
98.1
 20
58.91
  0
LWPOLYLINE
  5
9D
100
AcDbEntity
  8
ASSEMBLY_OUTLINES_TOP
100
AcDbPolyline
 90
        4
 70
         1
 43
0.1
 10
47.2
 20
5.05
 10
47.2
 20
10.05
 10
98.1
 20
10.05
 10
98.1
 20
5.05
  0
LWPOLYLINE
  5
9E
100
AcDbEntity
  8
ASSEMBLY_OUTLINES_TOP
100
AcDbPolyline
 90
        4
 70
         1
 43
0.1
 10
47.4
 20
42.9
 10
47.4
 20
56.3
 10
59.5
 20
56.3
 10
59.5
 20
42.9
  0
LWPOLYLINE
  5
9F
100
AcDbEntity
  8
ASSEMBLY_OUTLINES_TOP
100
AcDbPolyline
 90
        4
 70
         1
 43
0.1
 10
40.4
 20
44.6
 10
40.4
 20
55.6
 10
47.4
 20
55.6
 10
47.4
 20
44.6
  0
LWPOLYLINE
  5
A0
100
AcDbEntity
  8
ASSEMBLY_OUTLINES_TOP
100
AcDbPolyline
 90
        4
 70
         1
 43
0.1
 10
82.86
 20
15.08
 10
82.86
 20
18.08
 10
86.56
 20
18.08
 10
86.56
 20
15.08
  0
LWPOLYLINE
  5
A1
100
AcDbEntity
  8
ASSEMBLY_OUTLINES_TOP
100
AcDbPolyline
 90
        2
 70
         0
 43
0.1
 10
86.46
 20
18.08
 10
86.46
 20
15.08
  0
LWPOLYLINE
  5
A2
100
AcDbEntity
  8
ASSEMBLY_OUTLINES_TOP
100
AcDbPolyline
 90
        2
 70
         0
 43
0.1
 10
86.36
 20
18.08
 10
86.36
 20
15.08
  0
LWPOLYLINE
  5
A3
100
AcDbEntity
  8
ASSEMBLY_OUTLINES_TOP
100
AcDbPolyline
 90
        2
 70
         0
 43
0.1
 10
86.26
 20
18.08
 10
86.26
 20
15.08
  0
LWPOLYLINE
  5
A4
100
AcDbEntity
  8
ASSEMBLY_OUTLINES_TOP
100
AcDbPolyline
 90
        2
 70
         0
 43
0.1
 10
86.16
 20
18.08
 10
86.16
 20
15.08
  0
LWPOLYLINE
  5
A5
100
AcDbEntity
  8
ASSEMBLY_OUTLINES_TOP
100
AcDbPolyline
 90
        2
 70
         0
 43
0.1
 10
86.06
 20
18.08
 10
86.06
 20
15.08
  0
LWPOLYLINE
  5
A6
100
AcDbEntity
  8
ASSEMBLY_OUTLINES_TOP
100
AcDbPolyline
 90
        2
 70
         0
 43
0.1
 10
85.96
 20
18.08
 10
85.96
 20
15.08
  0
LWPOLYLINE
  5
A7
100
AcDbEntity
  8
ASSEMBLY_OUTLINES_TOP
100
AcDbPolyline
 90
        2
 70
         0
 43
0.1
 10
85.86
 20
18.08
 10
85.86
 20
15.08
  0
LWPOLYLINE
  5
A8
100
AcDbEntity
  8
ASSEMBLY_OUTLINES_TOP
100
AcDbPolyline
 90
        2
 70
         0
 43
0.1
 10
85.76
 20
18.08
 10
85.76
 20
15.08
  0
LWPOLYLINE
  5
A9
100
AcDbEntity
  8
ASSEMBLY_OUTLINES_TOP
100
AcDbPolyline
 90
        4
 70
         1
 43
0.1
 10
96.2
 20
35.25
 10
96.2
 20
38.95
 10
99.2
 20
38.95
 10
99.2
 20
35.25
  0
LWPOLYLINE
  5
AA
100
AcDbEntity
  8
ASSEMBLY_OUTLINES_TOP
100
AcDbPolyline
 90
        2
 70
         0
 43
0.1
 10
96.2
 20
38.85
 10
99.2
 20
38.85
  0
LWPOLYLINE
  5
AB
100
AcDbEntity
  8
ASSEMBLY_OUTLINES_TOP
100
AcDbPolyline
 90
        2
 70
         0
 43
0.1
 10
96.2
 20
38.75
 10
99.2
 20
38.75
  0
LWPOLYLINE
  5
AC
100
AcDbEntity
  8
ASSEMBLY_OUTLINES_TOP
100
AcDbPolyline
 90
        2
 70
         0
 43
0.1
 10
96.2
 20
38.65
 10
99.2
 20
38.65
  0
LWPOLYLINE
  5
AD
100
AcDbEntity
  8
ASSEMBLY_OUTLINES_TOP
100
AcDbPolyline
 90
        2
 70
         0
 43
0.1
 10
96.2
 20
38.55
 10
99.2
 20
38.55
  0
LWPOLYLINE
  5
AE
100
AcDbEntity
  8
ASSEMBLY_OUTLINES_TOP
100
AcDbPolyline
 90
        2
 70
         0
 43
0.1
 10
96.2
 20
38.45
 10
99.2
 20
38.45
  0
LWPOLYLINE
  5
AF
100
AcDbEntity
  8
ASSEMBLY_OUTLINES_TOP
100
AcDbPolyline
 90
        2
 70
         0
 43
0.1
 10
96.2
 20
38.35
 10
99.2
 20
38.35
  0
LWPOLYLINE
  5
B0
100
AcDbEntity
  8
ASSEMBLY_OUTLINES_TOP
100
AcDbPolyline
 90
        2
 70
         0
 43
0.1
 10
96.2
 20
38.25
 10
99.2
 20
38.25
  0
LWPOLYLINE
  5
B1
100
AcDbEntity
  8
ASSEMBLY_OUTLINES_TOP
100
AcDbPolyline
 90
        2
 70
         0
 43
0.1
 10
96.2
 20
38.15
 10
99.2
 20
38.15
  0
LWPOLYLINE
  5
B2
100
AcDbEntity
  8
ASSEMBLY_OUTLINES_TOP
100
AcDbPolyline
 90
        4
 70
         1
 43
0.1
 10
95.65
 20
18.6
 10
95.65
 20
21.6
 10
99.35
 20
21.6
 10
99.35
 20
18.6
  0
LWPOLYLINE
  5
B3
100
AcDbEntity
  8
ASSEMBLY_OUTLINES_TOP
100
AcDbPolyline
 90
        2
 70
         0
 43
0.1
 10
95.75
 20
18.6
 10
95.75
 20
21.6
  0
LWPOLYLINE
  5
B4
100
AcDbEntity
  8
ASSEMBLY_OUTLINES_TOP
100
AcDbPolyline
 90
        2
 70
         0
 43
0.1
 10
95.85
 20
18.6
 10
95.85
 20
21.6
  0
LWPOLYLINE
  5
B5
100
AcDbEntity
  8
ASSEMBLY_OUTLINES_TOP
100
AcDbPolyline
 90
        2
 70
         0
 43
0.1
 10
95.95
 20
18.6
 10
95.95
 20
21.6
  0
LWPOLYLINE
  5
B6
100
AcDbEntity
  8
ASSEMBLY_OUTLINES_TOP
100
AcDbPolyline
 90
        2
 70
         0
 43
0.1
 10
96.05
 20
18.6
 10
96.05
 20
21.6
  0
LWPOLYLINE
  5
B7
100
AcDbEntity
  8
ASSEMBLY_OUTLINES_TOP
100
AcDbPolyline
 90
        2
 70
         0
 43
0.1
 10
96.15
 20
18.6
 10
96.15
 20
21.6
  0
LWPOLYLINE
  5
B8
100
AcDbEntity
  8
ASSEMBLY_OUTLINES_TOP
100
AcDbPolyline
 90
        2
 70
         0
 43
0.1
 10
96.25
 20
18.6
 10
96.25
 20
21.6
  0
LWPOLYLINE
  5
B9
100
AcDbEntity
  8
ASSEMBLY_OUTLINES_TOP
100
AcDbPolyline
 90
        2
 70
         0
 43
0.1
 10
96.35
 20
18.6
 10
96.35
 20
21.6
  0
LWPOLYLINE
  5
BA
100
AcDbEntity
  8
ASSEMBLY_OUTLINES_TOP
100
AcDbPolyline
 90
        2
 70
         0
 43
0.1
 10
96.45
 20
18.6
 10
96.45
 20
21.6
  0
LWPOLYLINE
  5
BB
100
AcDbEntity
  8
ASSEMBLY_OUTLINES_TOP
100
AcDbPolyline
 90
        6
 70
         1
 43
0.1
 10
93.0
 20
20.22
 10
91.35
 20
18.57
 10
86.4
 20
18.57
 10
86.4
 20
25.17
 10
91.35
 20
25.17
 10
93.0
 20
23.52
  0
LWPOLYLINE
  5
BC
100
AcDbEntity
  8
ASSEMBLY_OUTLINES_TOP
100
AcDbPolyline
 90
        4
 70
         1
 43
0.1
 10
96.055
 20
22.335
 10
96.055
 20
25.385
 10
97.805
 20
25.385
 10
97.805
 20
22.335
  0
LWPOLYLINE
  5
BD
100
AcDbEntity
  8
ASSEMBLY_OUTLINES_TOP
100
AcDbPolyline
 90
        2
 70
         0
 43
0.1
 10
97.805
 20
22.435
 10
97.705
 20
22.335
  0
LWPOLYLINE
  5
BE
100
AcDbEntity
  8
ASSEMBLY_OUTLINES_TOP
100
AcDbPolyline
 90
        2
 70
         0
 43
0.1
 10
97.805
 20
22.535
 10
97.605
 20
22.335
  0
LWPOLYLINE
  5
BF
100
AcDbEntity
  8
ASSEMBLY_OUTLINES_TOP
100
AcDbPolyline
 90
        2
 70
         0
 43
0.1
 10
97.805
 20
22.635
 10
97.505
 20
22.335
  0
LWPOLYLINE
  5
C0
100
AcDbEntity
  8
ASSEMBLY_OUTLINES_TOP
100
AcDbPolyline
 90
        2
 70
         0
 43
0.1
 10
97.805
 20
22.735
 10
97.405
 20
22.335
  0
LWPOLYLINE
  5
C1
100
AcDbEntity
  8
ASSEMBLY_OUTLINES_TOP
100
AcDbPolyline
 90
        2
 70
         0
 43
0.1
 10
97.805
 20
22.835
 10
97.305
 20
22.335
  0
LWPOLYLINE
  5
C2
100
AcDbEntity
  8
ASSEMBLY_OUTLINES_TOP
100
AcDbPolyline
 90
        2
 70
         0
 43
0.1
 10
97.805
 20
22.935
 10
97.205
 20
22.335
  0
LWPOLYLINE
  5
C3
100
AcDbEntity
  8
ASSEMBLY_OUTLINES_TOP
100
AcDbPolyline
 90
        4
 70
         1
 43
0.1
 10
90.682
 20
10.925
 10
90.682
 20
17.655
 10
96.902
 20
17.655
 10
96.902
 20
10.925
  0
LWPOLYLINE
  5
C4
100
AcDbEntity
  8
ASSEMBLY_OUTLINES_TOP
100
AcDbPolyline
 90
        4
 70
         1
 43
0.1
 10
85.95
 20
40.42
 10
85.95
 20
42.96
 10
91.03
 20
42.96
 10
91.03
 20
40.42
  0
LWPOLYLINE
  5
C5
100
AcDbEntity
  8
ASSEMBLY_OUTLINES_TOP
100
AcDbPolyline
 90
        4
 70
         1
 43
0.1
 10
77.41
 20
43.45
 10
77.41
 20
55.55
 10
95.91
 20
55.55
 10
95.91
 20
43.45
  0
LWPOLYLINE
  5
C6
100
AcDbEntity
  8
ASSEMBLY_OUTLINES_TOP
100
AcDbPolyline
 90
        2
 70
         1
 43
0.1
 10
77.91
 20
54.55
 42
-1.0
 10
78.91
 20
54.55
 42
-1.0
  0
LWPOLYLINE
  5
C7
100
AcDbEntity
  8
ASSEMBLY_OUTLINES_TOP
100
AcDbPolyline
 90
        2
 70
         1
 43
0.1
 10
56.86
 20
40.81
 42
-1.0
 10
60.86
 20
40.81
 42
-1.0
  0
LWPOLYLINE
  5
C8
100
AcDbEntity
  8
ASSEMBLY_OUTLINES_TOP
100
AcDbPolyline
 90
        2
 70
         0
 43
0.1
 10
79.51
 20
18.94
 10
72.01
 20
18.94
  0
LWPOLYLINE
  5
C9
100
AcDbEntity
  8
ASSEMBLY_OUTLINES_TOP
100
AcDbPolyline
 90
        2
 70
         0
 43
0.1
 10
79.51
 20
22.94
 10
72.01
 20
22.94
  0
LWPOLYLINE
  5
CA
100
AcDbEntity
  8
ASSEMBLY_OUTLINES_TOP
100
AcDbPolyline
 90
        2
 70
         0
 43
0.1
 10
79.51
 20
18.94
 42
1.0
 10
79.51
 20
22.94
  0
LWPOLYLINE
  5
CB
100
AcDbEntity
  8
ASSEMBLY_OUTLINES_TOP
100
AcDbPolyline
 90
        2
 70
         0
 43
0.1
 10
72.01
 20
22.94
 42
1.0
 10
72.01
 20
18.94
  0
LWPOLYLINE
  5
CC
100
AcDbEntity
  8
ASSEMBLY_OUTLINES_TOP
100
AcDbPolyline
 90
        4
 70
         1
 43
0.1
 10
85.06
 20
32.53
 10
85.06
 20
35.43
 10
86.36
 20
35.43
 10
86.36
 20
32.53
  0
LWPOLYLINE
  5
CD
100
AcDbEntity
  8
ASSEMBLY_OUTLINES_TOP
100
AcDbPolyline
 90
        4
 70
         1
 43
0.1
 10
67.7
 20
26.73
 10
67.7
 20
41.73
 10
82.7
 20
41.73
 10
82.7
 20
26.73
  0
LWPOLYLINE
  5
CE
100
AcDbEntity
  8
ASSEMBLY_OUTLINES_TOP
100
AcDbPolyline
 90
        2
 70
         0
 43
0.1
 10
67.7
 20
41.63
 10
67.8
 20
41.73
  0
LWPOLYLINE
  5
CF
100
AcDbEntity
  8
ASSEMBLY_OUTLINES_TOP
100
AcDbPolyline
 90
        2
 70
         0
 43
0.1
 10
67.7
 20
41.53
 10
67.9
 20
41.73
  0
LWPOLYLINE
  5
D0
100
AcDbEntity
  8
ASSEMBLY_OUTLINES_TOP
100
AcDbPolyline
 90
        2
 70
         0
 43
0.1
 10
67.7
 20
41.43
 10
68.0
 20
41.73
  0
LWPOLYLINE
  5
D1
100
AcDbEntity
  8
ASSEMBLY_OUTLINES_TOP
100
AcDbPolyline
 90
        2
 70
         0
 43
0.1
 10
67.7
 20
41.33
 10
68.1
 20
41.73
  0
LWPOLYLINE
  5
D2
100
AcDbEntity
  8
ASSEMBLY_OUTLINES_TOP
100
AcDbPolyline
 90
        2
 70
         0
 43
0.1
 10
67.7
 20
41.23
 10
68.2
 20
41.73
  0
LWPOLYLINE
  5
D3
100
AcDbEntity
  8
ASSEMBLY_OUTLINES_TOP
100
AcDbPolyline
 90
        2
 70
         0
 43
0.1
 10
67.7
 20
41.13
 10
68.3
 20
41.73
  0
LWPOLYLINE
  5
D4
100
AcDbEntity
  8
ASSEMBLY_OUTLINES_TOP
100
AcDbPolyline
 90
        2
 70
         0
 43
0.1
 10
61.11
 20
21.27
 42
1.0
 10
65.11
 20
21.27
  0
LWPOLYLINE
  5
D5
100
AcDbEntity
  8
ASSEMBLY_OUTLINES_TOP
100
AcDbPolyline
 90
        2
 70
         0
 43
0.1
 10
65.11
 20
28.77
 10
65.11
 20
21.27
  0
LWPOLYLINE
  5
D6
100
AcDbEntity
  8
ASSEMBLY_OUTLINES_TOP
100
AcDbPolyline
 90
        2
 70
         0
 43
0.1
 10
61.11
 20
28.77
 10
61.11
 20
21.27
  0
LWPOLYLINE
  5
D7
100
AcDbEntity
  8
ASSEMBLY_OUTLINES_TOP
100
AcDbPolyline
 90
        2
 70
         0
 43
0.1
 10
65.11
 20
28.77
 42
1.0
 10
61.11
 20
28.77
  0
LWPOLYLINE
  5
D8
100
AcDbEntity
  8
ASSEMBLY_OUTLINES_TOP
100
AcDbPolyline
 90
        4
 70
         1
 43
0.1
 10
51.71
 20
21.76
 10
51.71
 20
28.76
 10
58.71
 20
28.76
 10
58.71
 20
21.76
  0
LWPOLYLINE
  5
D9
100
AcDbEntity
  8
ASSEMBLY_OUTLINES_TOP
100
AcDbPolyline
 90
        2
 70
         1
 43
0.1
 10
57.21
 20
27.76
 42
-1.0
 10
58.21
 20
27.76
 42
-1.0
  0
TEXT
  5
DA
100
AcDbEntity
  8
ASSEMBLY_REF_DES_TOP
100
AcDbText
 10
89.367
 20
32.5265
 30
0.0
 40
1.0
  1
DD3
  7
GOST_TYPE_B
 72
         1
 11
90.49
 21
33.02
 31
0.0
100
AcDbText
 73
         2
  0
TEXT
  5
DB
100
AcDbEntity
  8
ASSEMBLY_REF_DES_TOP
100
AcDbText
 10
81.537
 20
13.04
 30
0.0
 40
1.0
  1
X5
  7
GOST_TYPE_B
 72
         2
 11
83.1
 21
13.04
 31
0.0
100
AcDbText
 73
         1
  0
TEXT
  5
DC
100
AcDbEntity
  8
ASSEMBLY_REF_DES_TOP
100
AcDbText
 10
103.088856
 20
35.509145
 30
0.0
 40
1.0
  1
X3
 50
270.0
  7
GOST_TYPE_B
 72
         1
 11
103.582356
 21
34.727645
 31
0.0
100
AcDbText
 73
         2
  0
TEXT
  5
DD
100
AcDbEntity
  8
ASSEMBLY_REF_DES_TOP
100
AcDbText
 10
72.174145
 20
60.914144
 30
0.0
 40
1.0
  1
X1
  7
GOST_TYPE_B
 72
         1
 11
72.857645
 21
61.407644
 31
0.0
100
AcDbText
 73
         2
  0
TEXT
  5
DE
100
AcDbEntity
  8
ASSEMBLY_REF_DES_TOP
100
AcDbText
 10
69.507645
 20
6.954144
 30
0.0
 40
1.0
  1
X4
  7
GOST_TYPE_B
 72
         1
 11
70.337645
 21
7.447644
 31
0.0
100
AcDbText
 73
         2
  0
TEXT
  5
DF
100
AcDbEntity
  8
ASSEMBLY_REF_DES_TOP
100
AcDbText
 10
52.547
 20
48.09
 30
0.0
 40
1.0
  1
X2
  7
GOST_TYPE_B
 72
         2
 11
54.11
 21
48.09
 31
0.0
100
AcDbText
 73
         1
  0
TEXT
  5
E0
100
AcDbEntity
  8
ASSEMBLY_REF_DES_TOP
100
AcDbText
 10
83.9775
 20
16.0865
 30
0.0
 40
1.0
  1
C4
  7
GOST_TYPE_B
 72
         1
 11
84.71
 21
16.58
 31
0.0
100
AcDbText
 73
         2
  0
TEXT
  5
E1
100
AcDbEntity
  8
ASSEMBLY_REF_DES_TOP
100
AcDbText
 10
97.114
 20
36.6065
 30
0.0
 40
1.0
  1
C1
  7
GOST_TYPE_B
 72
         1
 11
97.7
 21
37.1
 31
0.0
100
AcDbText
 73
         2
  0
TEXT
  5
E2
100
AcDbEntity
  8
ASSEMBLY_REF_DES_TOP
100
AcDbText
 10
96.816
 20
19.6065
 30
0.0
 40
1.0
  1
C3
  7
GOST_TYPE_B
 72
         1
 11
97.5
 21
20.1
 31
0.0
100
AcDbText
 73
         2
  0
TEXT
  5
E3
100
AcDbEntity
  8
ASSEMBLY_REF_DES_TOP
100
AcDbText
 10
89.2065
 20
22.554
 30
0.0
 40
1.0
  1
C2
 50
270.0
  7
GOST_TYPE_B
 72
         1
 11
89.7
 21
21.87
 31
0.0
100
AcDbText
 73
         2
  0
TEXT
  5
E4
100
AcDbEntity
  8
ASSEMBLY_REF_DES_TOP
100
AcDbText
 10
96.4365
 20
24.9345
 30
0.0
 40
1.0
  1
DA1
 50
270.0
  7
GOST_TYPE_B
 72
         1
 11
96.93
 21
23.86
 31
0.0
100
AcDbText
 73
         2
  0
TEXT
  5
E5
100
AcDbEntity
  8
ASSEMBLY_REF_DES_TOP
100
AcDbText
 10
93.628
 20
13.7965
 30
0.0
 40
1.0
  1
DA2
  7
GOST_TYPE_B
 72
         1
 11
94.8
 21
14.29
 31
0.0
100
AcDbText
 73
         2
  0
TEXT
  5
E6
100
AcDbEntity
  8
ASSEMBLY_REF_DES_TOP
100
AcDbText
 10
88.046
 20
41.2
 30
0.0
 40
1.0
  1
J1
  7
GOST_TYPE_B
 72
         2
 11
89.12
 21
41.2
 31
0.0
100
AcDbText
 73
         1
  0
TEXT
  5
E7
100
AcDbEntity
  8
ASSEMBLY_REF_DES_TOP
100
AcDbText
 10
85.635
 20
49.0065
 30
0.0
 40
1.0
  1
DD1
  7
GOST_TYPE_B
 72
         1
 11
86.66
 21
49.5
 31
0.0
100
AcDbText
 73
         2
  0
TEXT
  5
E8
100
AcDbEntity
  8
ASSEMBLY_REF_DES_TOP
100
AcDbText
 10
57.744
 20
40.38
 30
0.0
 40
1.0
  1
ZQ1
  7
GOST_TYPE_B
 72
         2
 11
59.99
 21
40.38
 31
0.0
100
AcDbText
 73
         1
  0
TEXT
  5
E9
100
AcDbEntity
  8
ASSEMBLY_REF_DES_TOP
100
AcDbText
 10
74.539
 20
20.1965
 30
0.0
 40
1.0
  1
ZQ3
  7
GOST_TYPE_B
 72
         1
 11
75.76
 21
20.69
 31
0.0
100
AcDbText
 73
         2
  0
TEXT
  5
EA
100
AcDbEntity
  8
ASSEMBLY_REF_DES_TOP
100
AcDbText
 10
85.0755
 20
33.4865
 30
0.0
 40
1.0
  1
R1
  7
GOST_TYPE_B
 72
         1
 11
85.71
 21
33.98
 31
0.0
100
AcDbText
 73
         2
  0
TEXT
  5
EB
100
AcDbEntity
  8
ASSEMBLY_REF_DES_TOP
100
AcDbText
 10
74.077
 20
33.7365
 30
0.0
 40
1.0
  1
DD2
  7
GOST_TYPE_B
 72
         1
 11
75.2
 21
34.23
 31
0.0
100
AcDbText
 73
         2
  0
TEXT
  5
EC
100
AcDbEntity
  8
ASSEMBLY_REF_DES_TOP
100
AcDbText
 10
62.139
 20
24.5265
 30
0.0
 40
1.0
  1
ZQ2
  7
GOST_TYPE_B
 72
         1
 11
63.36
 21
25.02
 31
0.0
100
AcDbText
 73
         2
  0
TEXT
  5
ED
100
AcDbEntity
  8
ASSEMBLY_REF_DES_TOP
100
AcDbText
 10
54.0385
 20
24.7665
 30
0.0
 40
1.0
  1
DD4
  7
GOST_TYPE_B
 72
         1
 11
55.21
 21
25.26
 31
0.0
100
AcDbText
 73
         2
  0
LWPOLYLINE
  5
EE
100
AcDbEntity
  8
BOARD_OUTLINE
100
AcDbPolyline
 90
        4
 70
         1
 43
0.25
 10
47.0
 20
4.5
 10
47.0
 20
64.5
 10
107.0
 20
64.5
 10
107.0
 20
4.5
  0
LWPOLYLINE
  5
EF
100
AcDbEntity
  8
MOUNTING_HOLES_LAYER_TOP
100
AcDbPolyline
 90
        2
 70
         1
 43
1.5
 10
49.25
 20
37.5
 42
-1.0
 10
50.75
 20
37.5
 42
-1.0
  0
LWPOLYLINE
  5
F0
100
AcDbEntity
  8
MOUNTING_HOLES_LAYER_TOP
100
AcDbPolyline
 90
        2
 70
         1
 43
1.5
 10
102.75
 20
62.0
 42
-1.0
 10
104.25
 20
62.0
 42
-1.0
  0
LWPOLYLINE
  5
F1
100
AcDbEntity
  8
MOUNTING_HOLES_LAYER_TOP
100
AcDbPolyline
 90
        2
 70
         1
 43
1.5
 10
102.75
 20
7.0
 42
-1.0
 10
104.25
 20
7.0
 42
-1.0
  0
LWPOLYLINE
  5
F2
100
AcDbEntity
  8
MOUNTING_HOLES_LAYER_TOP
100
AcDbPolyline
 90
        2
 70
         1
 43
0.75
 10
56.525
 20
44.6
 42
-1.0
 10
57.275
 20
44.6
 42
-1.0
  0
LWPOLYLINE
  5
F3
100
AcDbEntity
  8
MOUNTING_HOLES_LAYER_TOP
100
AcDbPolyline
 90
        2
 70
         1
 43
0.75
 10
56.525
 20
54.6
 42
-1.0
 10
57.275
 20
54.6
 42
-1.0
  0
LWPOLYLINE
  5
F4
100
AcDbEntity
  8
PART_HOLES_LAYER_TOP
100
AcDbPolyline
 90
        2
 70
         1
 43
0.45
 10
77.375
 20
11.7
 42
-1.0
 10
77.825
 20
11.7
 42
-1.0
  0
LWPOLYLINE
  5
F5
100
AcDbEntity
  8
PART_HOLES_LAYER_TOP
100
AcDbPolyline
 90
        2
 70
         1
 43
0.45
 10
83.375
 20
11.7
 42
-1.0
 10
83.825
 20
11.7
 42
-1.0
  0
LWPOLYLINE
  5
F6
100
AcDbEntity
  8
PART_HOLES_LAYER_TOP
100
AcDbPolyline
 90
        2
 70
         1
 43
0.45
 10
85.375
 20
11.7
 42
-1.0
 10
85.825
 20
11.7
 42
-1.0
  0
LWPOLYLINE
  5
F7
100
AcDbEntity
  8
PART_HOLES_LAYER_TOP
100
AcDbPolyline
 90
        2
 70
         1
 43
0.45
 10
87.375
 20
11.7
 42
-1.0
 10
87.825
 20
11.7
 42
-1.0
  0
LWPOLYLINE
  5
F8
100
AcDbEntity
  8
PART_HOLES_LAYER_TOP
100
AcDbPolyline
 90
        2
 70
         1
 43
0.45
 10
81.375
 20
11.7
 42
-1.0
 10
81.825
 20
11.7
 42
-1.0
  0
LWPOLYLINE
  5
F9
100
AcDbEntity
  8
PART_HOLES_LAYER_TOP
100
AcDbPolyline
 90
        2
 70
         1
 43
0.45
 10
79.375
 20
11.7
 42
-1.0
 10
79.825
 20
11.7
 42
-1.0
  0
LWPOLYLINE
  5
FA
100
AcDbEntity
  8
PART_HOLES_LAYER_TOP
100
AcDbPolyline
 90
        2
 70
         1
 43
0.45
 10
104.605
 20
10.37
 42
-1.0
 10
105.055
 20
10.37
 42
-1.0
  0
LWPOLYLINE
  5
FB
100
AcDbEntity
  8
PART_HOLES_LAYER_TOP
100
AcDbPolyline
 90
        2
 70
         1
 43
0.45
 10
102.065
 20
12.91
 42
-1.0
 10
102.515
 20
12.91
 42
-1.0
  0
LWPOLYLINE
  5
FC
100
AcDbEntity
  8
PART_HOLES_LAYER_TOP
100
AcDbPolyline
 90
        2
 70
         1
 43
0.45
 10
102.065
 20
15.45
 42
-1.0
 10
102.515
 20
15.45
 42
-1.0
  0
LWPOLYLINE
  5
FD
100
AcDbEntity
  8
PART_HOLES_LAYER_TOP
100
AcDbPolyline
 90
        2
 70
         1
 43
0.45
 10
102.065
 20
43.39
 42
-1.0
 10
102.515
 20
43.39
 42
-1.0
  0
LWPOLYLINE
  5
FE
100
AcDbEntity
  8
PART_HOLES_LAYER_TOP
100
AcDbPolyline
 90
        2
 70
         1
 43
0.45
 10
104.605
 20
43.39
 42
-1.0
 10
105.055
 20
43.39
 42
-1.0
  0
LWPOLYLINE
  5
FF
100
AcDbEntity
  8
PART_HOLES_LAYER_TOP
100
AcDbPolyline
 90
        2
 70
         1
 43
0.45
 10
102.065
 20
45.93
 42
-1.0
 10
102.515
 20
45.93
 42
-1.0
  0
LWPOLYLINE
  5
100
100
AcDbEntity
  8
PART_HOLES_LAYER_TOP
100
AcDbPolyline
 90
        2
 70
         1
 43
0.45
 10
104.605
 20
45.93
 42
-1.0
 10
105.055
 20
45.93
 42
-1.0
  0
LWPOLYLINE
  5
101
100
AcDbEntity
  8
PART_HOLES_LAYER_TOP
100
AcDbPolyline
 90
        2
 70
         1
 43
0.45
 10
102.065
 20
48.47
 42
-1.0
 10
102.515
 20
48.47
 42
-1.0
  0
LWPOLYLINE
  5
102
100
AcDbEntity
  8
PART_HOLES_LAYER_TOP
100
AcDbPolyline
 90
        2
 70
         1
 43
0.45
 10
104.605
 20
48.47
 42
-1.0
 10
105.055
 20
48.47
 42
-1.0
  0
LWPOLYLINE
  5
103
100
AcDbEntity
  8
PART_HOLES_LAYER_TOP
100
AcDbPolyline
 90
        2
 70
         1
 43
0.45
 10
102.065
 20
51.01
 42
-1.0
 10
102.515
 20
51.01
 42
-1.0
  0
LWPOLYLINE
  5
104
100
AcDbEntity
  8
PART_HOLES_LAYER_TOP
100
AcDbPolyline
 90
        2
 70
         1
 43
0.45
 10
104.605
 20
51.01
 42
-1.0
 10
105.055
 20
51.01
 42
-1.0
  0
LWPOLYLINE
  5
105
100
AcDbEntity
  8
PART_HOLES_LAYER_TOP
100
AcDbPolyline
 90
        2
 70
         1
 43
0.45
 10
104.605
 20
53.55
 42
-1.0
 10
105.055
 20
53.55
 42
-1.0
  0
LWPOLYLINE
  5
106
100
AcDbEntity
  8
PART_HOLES_LAYER_TOP
100
AcDbPolyline
 90
        2
 70
         1
 43
0.45
 10
104.605
 20
25.61
 42
-1.0
 10
105.055
 20
25.61
 42
-1.0
  0
LWPOLYLINE
  5
107
100
AcDbEntity
  8
PART_HOLES_LAYER_TOP
100
AcDbPolyline
 90
        2
 70
         1
 43
0.45
 10
102.065
 20
23.07
 42
-1.0
 10
102.515
 20
23.07
 42
-1.0
  0
LWPOLYLINE
  5
108
100
AcDbEntity
  8
PART_HOLES_LAYER_TOP
100
AcDbPolyline
 90
        2
 70
         1
 43
0.45
 10
102.065
 20
30.69
 42
-1.0
 10
102.515
 20
30.69
 42
-1.0
  0
LWPOLYLINE
  5
109
100
AcDbEntity
  8
PART_HOLES_LAYER_TOP
100
AcDbPolyline
 90
        2
 70
         1
 43
0.45
 10
104.605
 20
28.15
 42
-1.0
 10
105.055
 20
28.15
 42
-1.0
  0
LWPOLYLINE
  5
10A
100
AcDbEntity
  8
PART_HOLES_LAYER_TOP
100
AcDbPolyline
 90
        2
 70
         1
 43
0.45
 10
102.065
 20
25.61
 42
-1.0
 10
102.515
 20
25.61
 42
-1.0
  0
LWPOLYLINE
  5
10B
100
AcDbEntity
  8
PART_HOLES_LAYER_TOP
100
AcDbPolyline
 90
        2
 70
         1
 43
0.45
 10
102.065
 20
28.15
 42
-1.0
 10
102.515
 20
28.15
 42
-1.0
  0
LWPOLYLINE
  5
10C
100
AcDbEntity
  8
PART_HOLES_LAYER_TOP
100
AcDbPolyline
 90
        2
 70
         1
 43
0.45
 10
102.065
 20
10.37
 42
-1.0
 10
102.515
 20
10.37
 42
-1.0
  0
LWPOLYLINE
  5
10D
100
AcDbEntity
  8
PART_HOLES_LAYER_TOP
100
AcDbPolyline
 90
        2
 70
         1
 43
0.45
 10
102.065
 20
33.23
 42
-1.0
 10
102.515
 20
33.23
 42
-1.0
  0
LWPOLYLINE
  5
10E
100
AcDbEntity
  8
PART_HOLES_LAYER_TOP
100
AcDbPolyline
 90
        2
 70
         1
 43
0.45
 10
104.605
 20
35.77
 42
-1.0
 10
105.055
 20
35.77
 42
-1.0
  0
LWPOLYLINE
  5
10F
100
AcDbEntity
  8
PART_HOLES_LAYER_TOP
100
AcDbPolyline
 90
        2
 70
         1
 43
0.45
 10
104.605
 20
30.69
 42
-1.0
 10
105.055
 20
30.69
 42
-1.0
  0
LWPOLYLINE
  5
110
100
AcDbEntity
  8
PART_HOLES_LAYER_TOP
100
AcDbPolyline
 90
        2
 70
         1
 43
0.45
 10
104.605
 20
12.91
 42
-1.0
 10
105.055
 20
12.91
 42
-1.0
  0
LWPOLYLINE
  5
111
100
AcDbEntity
  8
PART_HOLES_LAYER_TOP
100
AcDbPolyline
 90
        2
 70
         1
 43
0.45
 10
104.605
 20
15.45
 42
-1.0
 10
105.055
 20
15.45
 42
-1.0
  0
LWPOLYLINE
  5
112
100
AcDbEntity
  8
PART_HOLES_LAYER_TOP
100
AcDbPolyline
 90
        2
 70
         1
 43
0.45
 10
104.605
 20
17.99
 42
-1.0
 10
105.055
 20
17.99
 42
-1.0
  0
LWPOLYLINE
  5
113
100
AcDbEntity
  8
PART_HOLES_LAYER_TOP
100
AcDbPolyline
 90
        2
 70
         1
 43
0.45
 10
102.065
 20
53.55
 42
-1.0
 10
102.515
 20
53.55
 42
-1.0
  0
LWPOLYLINE
  5
114
100
AcDbEntity
  8
PART_HOLES_LAYER_TOP
100
AcDbPolyline
 90
        2
 70
         1
 43
0.45
 10
102.065
 20
56.09
 42
-1.0
 10
102.515
 20
56.09
 42
-1.0
  0
LWPOLYLINE
  5
115
100
AcDbEntity
  8
PART_HOLES_LAYER_TOP
100
AcDbPolyline
 90
        2
 70
         1
 43
0.45
 10
104.605
 20
56.09
 42
-1.0
 10
105.055
 20
56.09
 42
-1.0
  0
LWPOLYLINE
  5
116
100
AcDbEntity
  8
PART_HOLES_LAYER_TOP
100
AcDbPolyline
 90
        2
 70
         1
 43
0.45
 10
102.065
 20
58.63
 42
-1.0
 10
102.515
 20
58.63
 42
-1.0
  0
LWPOLYLINE
  5
117
100
AcDbEntity
  8
PART_HOLES_LAYER_TOP
100
AcDbPolyline
 90
        2
 70
         1
 43
0.45
 10
104.605
 20
20.53
 42
-1.0
 10
105.055
 20
20.53
 42
-1.0
  0
LWPOLYLINE
  5
118
100
AcDbEntity
  8
PART_HOLES_LAYER_TOP
100
AcDbPolyline
 90
        2
 70
         1
 43
0.45
 10
102.065
 20
17.99
 42
-1.0
 10
102.515
 20
17.99
 42
-1.0
  0
LWPOLYLINE
  5
119
100
AcDbEntity
  8
PART_HOLES_LAYER_TOP
100
AcDbPolyline
 90
        2
 70
         1
 43
0.45
 10
104.605
 20
23.07
 42
-1.0
 10
105.055
 20
23.07
 42
-1.0
  0
LWPOLYLINE
  5
11A
100
AcDbEntity
  8
PART_HOLES_LAYER_TOP
100
AcDbPolyline
 90
        2
 70
         1
 43
0.45
 10
102.065
 20
20.53
 42
-1.0
 10
102.515
 20
20.53
 42
-1.0
  0
LWPOLYLINE
  5
11B
100
AcDbEntity
  8
PART_HOLES_LAYER_TOP
100
AcDbPolyline
 90
        2
 70
         1
 43
0.45
 10
104.605
 20
58.63
 42
-1.0
 10
105.055
 20
58.63
 42
-1.0
  0
LWPOLYLINE
  5
11C
100
AcDbEntity
  8
PART_HOLES_LAYER_TOP
100
AcDbPolyline
 90
        2
 70
         1
 43
0.45
 10
104.605
 20
40.85
 42
-1.0
 10
105.055
 20
40.85
 42
-1.0
  0
LWPOLYLINE
  5
11D
100
AcDbEntity
  8
PART_HOLES_LAYER_TOP
100
AcDbPolyline
 90
        2
 70
         1
 43
0.45
 10
102.065
 20
40.85
 42
-1.0
 10
102.515
 20
40.85
 42
-1.0
  0
LWPOLYLINE
  5
11E
100
AcDbEntity
  8
PART_HOLES_LAYER_TOP
100
AcDbPolyline
 90
        2
 70
         1
 43
0.45
 10
102.065
 20
38.31
 42
-1.0
 10
102.515
 20
38.31
 42
-1.0
  0
LWPOLYLINE
  5
11F
100
AcDbEntity
  8
PART_HOLES_LAYER_TOP
100
AcDbPolyline
 90
        2
 70
         1
 43
0.45
 10
104.605
 20
38.31
 42
-1.0
 10
105.055
 20
38.31
 42
-1.0
  0
LWPOLYLINE
  5
120
100
AcDbEntity
  8
PART_HOLES_LAYER_TOP
100
AcDbPolyline
 90
        2
 70
         1
 43
0.45
 10
102.065
 20
35.77
 42
-1.0
 10
102.515
 20
35.77
 42
-1.0
  0
LWPOLYLINE
  5
121
100
AcDbEntity
  8
PART_HOLES_LAYER_TOP
100
AcDbPolyline
 90
        2
 70
         1
 43
0.45
 10
104.605
 20
33.23
 42
-1.0
 10
105.055
 20
33.23
 42
-1.0
  0
LWPOLYLINE
  5
122
100
AcDbEntity
  8
PART_HOLES_LAYER_TOP
100
AcDbPolyline
 90
        2
 70
         1
 43
0.45
 10
48.275
 20
60.16
 42
-1.0
 10
48.725
 20
60.16
 42
-1.0
  0
LWPOLYLINE
  5
123
100
AcDbEntity
  8
PART_HOLES_LAYER_TOP
100
AcDbPolyline
 90
        2
 70
         1
 43
0.45
 10
81.295
 20
62.7
 42
-1.0
 10
81.745
 20
62.7
 42
-1.0
  0
LWPOLYLINE
  5
124
100
AcDbEntity
  8
PART_HOLES_LAYER_TOP
100
AcDbPolyline
 90
        2
 70
         1
 43
0.45
 10
83.835
 20
62.7
 42
-1.0
 10
84.285
 20
62.7
 42
-1.0
  0
LWPOLYLINE
  5
125
100
AcDbEntity
  8
PART_HOLES_LAYER_TOP
100
AcDbPolyline
 90
        2
 70
         1
 43
0.45
 10
78.755
 20
62.7
 42
-1.0
 10
79.205
 20
62.7
 42
-1.0
  0
LWPOLYLINE
  5
126
100
AcDbEntity
  8
PART_HOLES_LAYER_TOP
100
AcDbPolyline
 90
        2
 70
         1
 43
0.45
 10
78.755
 20
60.16
 42
-1.0
 10
79.205
 20
60.16
 42
-1.0
  0
LWPOLYLINE
  5
127
100
AcDbEntity
  8
PART_HOLES_LAYER_TOP
100
AcDbPolyline
 90
        2
 70
         1
 43
0.45
 10
68.595
 20
62.7
 42
-1.0
 10
69.045
 20
62.7
 42
-1.0
  0
LWPOLYLINE
  5
128
100
AcDbEntity
  8
PART_HOLES_LAYER_TOP
100
AcDbPolyline
 90
        2
 70
         1
 43
0.45
 10
81.295
 20
60.16
 42
-1.0
 10
81.745
 20
60.16
 42
-1.0
  0
LWPOLYLINE
  5
129
100
AcDbEntity
  8
PART_HOLES_LAYER_TOP
100
AcDbPolyline
 90
        2
 70
         1
 43
0.45
 10
76.215
 20
62.7
 42
-1.0
 10
76.665
 20
62.7
 42
-1.0
  0
LWPOLYLINE
  5
12A
100
AcDbEntity
  8
PART_HOLES_LAYER_TOP
100
AcDbPolyline
 90
        2
 70
         1
 43
0.45
 10
76.215
 20
60.16
 42
-1.0
 10
76.665
 20
60.16
 42
-1.0
  0
LWPOLYLINE
  5
12B
100
AcDbEntity
  8
PART_HOLES_LAYER_TOP
100
AcDbPolyline
 90
        2
 70
         1
 43
0.45
 10
83.835
 20
60.16
 42
-1.0
 10
84.285
 20
60.16
 42
-1.0
  0
LWPOLYLINE
  5
12C
100
AcDbEntity
  8
PART_HOLES_LAYER_TOP
100
AcDbPolyline
 90
        2
 70
         1
 43
0.45
 10
73.675
 20
62.7
 42
-1.0
 10
74.125
 20
62.7
 42
-1.0
  0
LWPOLYLINE
  5
12D
100
AcDbEntity
  8
PART_HOLES_LAYER_TOP
100
AcDbPolyline
 90
        2
 70
         1
 43
0.45
 10
73.675
 20
60.16
 42
-1.0
 10
74.125
 20
60.16
 42
-1.0
  0
LWPOLYLINE
  5
12E
100
AcDbEntity
  8
PART_HOLES_LAYER_TOP
100
AcDbPolyline
 90
        2
 70
         1
 43
0.45
 10
50.815
 20
62.7
 42
-1.0
 10
51.265
 20
62.7
 42
-1.0
  0
LWPOLYLINE
  5
12F
100
AcDbEntity
  8
PART_HOLES_LAYER_TOP
100
AcDbPolyline
 90
        2
 70
         1
 43
0.45
 10
66.055
 20
62.7
 42
-1.0
 10
66.505
 20
62.7
 42
-1.0
  0
LWPOLYLINE
  5
130
100
AcDbEntity
  8
PART_HOLES_LAYER_TOP
100
AcDbPolyline
 90
        2
 70
         1
 43
0.45
 10
58.435
 20
60.16
 42
-1.0
 10
58.885
 20
60.16
 42
-1.0
  0
LWPOLYLINE
  5
131
100
AcDbEntity
  8
PART_HOLES_LAYER_TOP
100
AcDbPolyline
 90
        2
 70
         1
 43
0.45
 10
55.895
 20
60.16
 42
-1.0
 10
56.345
 20
60.16
 42
-1.0
  0
LWPOLYLINE
  5
132
100
AcDbEntity
  8
PART_HOLES_LAYER_TOP
100
AcDbPolyline
 90
        2
 70
         1
 43
0.45
 10
58.435
 20
62.7
 42
-1.0
 10
58.885
 20
62.7
 42
-1.0
  0
LWPOLYLINE
  5
133
100
AcDbEntity
  8
PART_HOLES_LAYER_TOP
100
AcDbPolyline
 90
        2
 70
         1
 43
0.45
 10
53.355
 20
62.7
 42
-1.0
 10
53.805
 20
62.7
 42
-1.0
  0
LWPOLYLINE
  5
134
100
AcDbEntity
  8
PART_HOLES_LAYER_TOP
100
AcDbPolyline
 90
        2
 70
         1
 43
0.45
 10
55.895
 20
62.7
 42
-1.0
 10
56.345
 20
62.7
 42
-1.0
  0
LWPOLYLINE
  5
135
100
AcDbEntity
  8
PART_HOLES_LAYER_TOP
100
AcDbPolyline
 90
        2
 70
         1
 43
0.45
 10
53.355
 20
60.16
 42
-1.0
 10
53.805
 20
60.16
 42
-1.0
  0
LWPOLYLINE
  5
136
100
AcDbEntity
  8
PART_HOLES_LAYER_TOP
100
AcDbPolyline
 90
        2
 70
         1
 43
0.45
 10
71.135
 20
62.7
 42
-1.0
 10
71.585
 20
62.7
 42
-1.0
  0
LWPOLYLINE
  5
137
100
AcDbEntity
  8
PART_HOLES_LAYER_TOP
100
AcDbPolyline
 90
        2
 70
         1
 43
0.45
 10
63.515
 20
62.7
 42
-1.0
 10
63.965
 20
62.7
 42
-1.0
  0
LWPOLYLINE
  5
138
100
AcDbEntity
  8
PART_HOLES_LAYER_TOP
100
AcDbPolyline
 90
        2
 70
         1
 43
0.45
 10
60.975
 20
60.16
 42
-1.0
 10
61.425
 20
60.16
 42
-1.0
  0
LWPOLYLINE
  5
139
100
AcDbEntity
  8
PART_HOLES_LAYER_TOP
100
AcDbPolyline
 90
        2
 70
         1
 43
0.45
 10
60.975
 20
62.7
 42
-1.0
 10
61.425
 20
62.7
 42
-1.0
  0
LWPOLYLINE
  5
13A
100
AcDbEntity
  8
PART_HOLES_LAYER_TOP
100
AcDbPolyline
 90
        2
 70
         1
 43
0.45
 10
63.515
 20
60.16
 42
-1.0
 10
63.965
 20
60.16
 42
-1.0
  0
LWPOLYLINE
  5
13B
100
AcDbEntity
  8
PART_HOLES_LAYER_TOP
100
AcDbPolyline
 90
        2
 70
         1
 43
0.45
 10
66.055
 20
60.16
 42
-1.0
 10
66.505
 20
60.16
 42
-1.0
  0
LWPOLYLINE
  5
13C
100
AcDbEntity
  8
PART_HOLES_LAYER_TOP
100
AcDbPolyline
 90
        2
 70
         1
 43
0.45
 10
71.135
 20
60.16
 42
-1.0
 10
71.585
 20
60.16
 42
-1.0
  0
LWPOLYLINE
  5
13D
100
AcDbEntity
  8
PART_HOLES_LAYER_TOP
100
AcDbPolyline
 90
        2
 70
         1
 43
0.45
 10
50.815
 20
60.16
 42
-1.0
 10
51.265
 20
60.16
 42
-1.0
  0
LWPOLYLINE
  5
13E
100
AcDbEntity
  8
PART_HOLES_LAYER_TOP
100
AcDbPolyline
 90
        2
 70
         1
 43
0.45
 10
68.595
 20
60.16
 42
-1.0
 10
69.045
 20
60.16
 42
-1.0
  0
LWPOLYLINE
  5
13F
100
AcDbEntity
  8
PART_HOLES_LAYER_TOP
100
AcDbPolyline
 90
        2
 70
         1
 43
0.45
 10
96.535
 20
60.16
 42
-1.0
 10
96.985
 20
60.16
 42
-1.0
  0
LWPOLYLINE
  5
140
100
AcDbEntity
  8
PART_HOLES_LAYER_TOP
100
AcDbPolyline
 90
        2
 70
         1
 43
0.45
 10
96.535
 20
62.7
 42
-1.0
 10
96.985
 20
62.7
 42
-1.0
  0
LWPOLYLINE
  5
141
100
AcDbEntity
  8
PART_HOLES_LAYER_TOP
100
AcDbPolyline
 90
        2
 70
         1
 43
0.45
 10
93.995
 20
60.16
 42
-1.0
 10
94.445
 20
60.16
 42
-1.0
  0
LWPOLYLINE
  5
142
100
AcDbEntity
  8
PART_HOLES_LAYER_TOP
100
AcDbPolyline
 90
        2
 70
         1
 43
0.45
 10
93.995
 20
62.7
 42
-1.0
 10
94.445
 20
62.7
 42
-1.0
  0
LWPOLYLINE
  5
143
100
AcDbEntity
  8
PART_HOLES_LAYER_TOP
100
AcDbPolyline
 90
        2
 70
         1
 43
0.45
 10
48.275
 20
62.7
 42
-1.0
 10
48.725
 20
62.7
 42
-1.0
  0
LWPOLYLINE
  5
144
100
AcDbEntity
  8
PART_HOLES_LAYER_TOP
100
AcDbPolyline
 90
        2
 70
         1
 43
0.45
 10
91.455
 20
60.16
 42
-1.0
 10
91.905
 20
60.16
 42
-1.0
  0
LWPOLYLINE
  5
145
100
AcDbEntity
  8
PART_HOLES_LAYER_TOP
100
AcDbPolyline
 90
        2
 70
         1
 43
0.45
 10
91.455
 20
62.7
 42
-1.0
 10
91.905
 20
62.7
 42
-1.0
  0
LWPOLYLINE
  5
146
100
AcDbEntity
  8
PART_HOLES_LAYER_TOP
100
AcDbPolyline
 90
        2
 70
         1
 43
0.45
 10
88.915
 20
60.16
 42
-1.0
 10
89.365
 20
60.16
 42
-1.0
  0
LWPOLYLINE
  5
147
100
AcDbEntity
  8
PART_HOLES_LAYER_TOP
100
AcDbPolyline
 90
        2
 70
         1
 43
0.45
 10
88.915
 20
62.7
 42
-1.0
 10
89.365
 20
62.7
 42
-1.0
  0
LWPOLYLINE
  5
148
100
AcDbEntity
  8
PART_HOLES_LAYER_TOP
100
AcDbPolyline
 90
        2
 70
         1
 43
0.45
 10
86.375
 20
60.16
 42
-1.0
 10
86.825
 20
60.16
 42
-1.0
  0
LWPOLYLINE
  5
149
100
AcDbEntity
  8
PART_HOLES_LAYER_TOP
100
AcDbPolyline
 90
        2
 70
         1
 43
0.45
 10
86.375
 20
62.7
 42
-1.0
 10
86.825
 20
62.7
 42
-1.0
  0
LWPOLYLINE
  5
14A
100
AcDbEntity
  8
PART_HOLES_LAYER_TOP
100
AcDbPolyline
 90
        2
 70
         1
 43
0.45
 10
48.275
 20
6.3
 42
-1.0
 10
48.725
 20
6.3
 42
-1.0
  0
LWPOLYLINE
  5
14B
100
AcDbEntity
  8
PART_HOLES_LAYER_TOP
100
AcDbPolyline
 90
        2
 70
         1
 43
0.45
 10
81.295
 20
6.3
 42
-1.0
 10
81.745
 20
6.3
 42
-1.0
  0
LWPOLYLINE
  5
14C
100
AcDbEntity
  8
PART_HOLES_LAYER_TOP
100
AcDbPolyline
 90
        2
 70
         1
 43
0.45
 10
81.295
 20
8.84
 42
-1.0
 10
81.745
 20
8.84
 42
-1.0
  0
LWPOLYLINE
  5
14D
100
AcDbEntity
  8
PART_HOLES_LAYER_TOP
100
AcDbPolyline
 90
        2
 70
         1
 43
0.45
 10
78.755
 20
8.84
 42
-1.0
 10
79.205
 20
8.84
 42
-1.0
  0
LWPOLYLINE
  5
14E
100
AcDbEntity
  8
PART_HOLES_LAYER_TOP
100
AcDbPolyline
 90
        2
 70
         1
 43
0.45
 10
50.815
 20
8.84
 42
-1.0
 10
51.265
 20
8.84
 42
-1.0
  0
LWPOLYLINE
  5
14F
100
AcDbEntity
  8
PART_HOLES_LAYER_TOP
100
AcDbPolyline
 90
        2
 70
         1
 43
0.45
 10
53.355
 20
6.3
 42
-1.0
 10
53.805
 20
6.3
 42
-1.0
  0
LWPOLYLINE
  5
150
100
AcDbEntity
  8
PART_HOLES_LAYER_TOP
100
AcDbPolyline
 90
        2
 70
         1
 43
0.45
 10
50.815
 20
6.3
 42
-1.0
 10
51.265
 20
6.3
 42
-1.0
  0
LWPOLYLINE
  5
151
100
AcDbEntity
  8
PART_HOLES_LAYER_TOP
100
AcDbPolyline
 90
        2
 70
         1
 43
0.45
 10
48.275
 20
8.84
 42
-1.0
 10
48.725
 20
8.84
 42
-1.0
  0
LWPOLYLINE
  5
152
100
AcDbEntity
  8
PART_HOLES_LAYER_TOP
100
AcDbPolyline
 90
        2
 70
         1
 43
0.45
 10
86.375
 20
8.84
 42
-1.0
 10
86.825
 20
8.84
 42
-1.0
  0
LWPOLYLINE
  5
153
100
AcDbEntity
  8
PART_HOLES_LAYER_TOP
100
AcDbPolyline
 90
        2
 70
         1
 43
0.45
 10
88.915
 20
6.3
 42
-1.0
 10
89.365
 20
6.3
 42
-1.0
  0
LWPOLYLINE
  5
154
100
AcDbEntity
  8
PART_HOLES_LAYER_TOP
100
AcDbPolyline
 90
        2
 70
         1
 43
0.45
 10
86.375
 20
6.3
 42
-1.0
 10
86.825
 20
6.3
 42
-1.0
  0
LWPOLYLINE
  5
155
100
AcDbEntity
  8
PART_HOLES_LAYER_TOP
100
AcDbPolyline
 90
        2
 70
         1
 43
0.45
 10
83.835
 20
8.84
 42
-1.0
 10
84.285
 20
8.84
 42
-1.0
  0
LWPOLYLINE
  5
156
100
AcDbEntity
  8
PART_HOLES_LAYER_TOP
100
AcDbPolyline
 90
        2
 70
         1
 43
0.45
 10
83.835
 20
6.3
 42
-1.0
 10
84.285
 20
6.3
 42
-1.0
  0
LWPOLYLINE
  5
157
100
AcDbEntity
  8
PART_HOLES_LAYER_TOP
100
AcDbPolyline
 90
        2
 70
         1
 43
0.45
 10
78.755
 20
6.3
 42
-1.0
 10
79.205
 20
6.3
 42
-1.0
  0
LWPOLYLINE
  5
158
100
AcDbEntity
  8
PART_HOLES_LAYER_TOP
100
AcDbPolyline
 90
        2
 70
         1
 43
0.45
 10
76.215
 20
6.3
 42
-1.0
 10
76.665
 20
6.3
 42
-1.0
  0
LWPOLYLINE
  5
159
100
AcDbEntity
  8
PART_HOLES_LAYER_TOP
100
AcDbPolyline
 90
        2
 70
         1
 43
0.45
 10
73.675
 20
8.84
 42
-1.0
 10
74.125
 20
8.84
 42
-1.0
  0
LWPOLYLINE
  5
15A
100
AcDbEntity
  8
PART_HOLES_LAYER_TOP
100
AcDbPolyline
 90
        2
 70
         1
 43
0.45
 10
58.435
 20
6.3
 42
-1.0
 10
58.885
 20
6.3
 42
-1.0
  0
LWPOLYLINE
  5
15B
100
AcDbEntity
  8
PART_HOLES_LAYER_TOP
100
AcDbPolyline
 90
        2
 70
         1
 43
0.45
 10
55.895
 20
8.84
 42
-1.0
 10
56.345
 20
8.84
 42
-1.0
  0
LWPOLYLINE
  5
15C
100
AcDbEntity
  8
PART_HOLES_LAYER_TOP
100
AcDbPolyline
 90
        2
 70
         1
 43
0.45
 10
58.435
 20
8.84
 42
-1.0
 10
58.885
 20
8.84
 42
-1.0
  0
LWPOLYLINE
  5
15D
100
AcDbEntity
  8
PART_HOLES_LAYER_TOP
100
AcDbPolyline
 90
        2
 70
         1
 43
0.45
 10
60.975
 20
6.3
 42
-1.0
 10
61.425
 20
6.3
 42
-1.0
  0
LWPOLYLINE
  5
15E
100
AcDbEntity
  8
PART_HOLES_LAYER_TOP
100
AcDbPolyline
 90
        2
 70
         1
 43
0.45
 10
68.595
 20
6.3
 42
-1.0
 10
69.045
 20
6.3
 42
-1.0
  0
LWPOLYLINE
  5
15F
100
AcDbEntity
  8
PART_HOLES_LAYER_TOP
100
AcDbPolyline
 90
        2
 70
         1
 43
0.45
 10
96.535
 20
8.84
 42
-1.0
 10
96.985
 20
8.84
 42
-1.0
  0
LWPOLYLINE
  5
160
100
AcDbEntity
  8
PART_HOLES_LAYER_TOP
100
AcDbPolyline
 90
        2
 70
         1
 43
0.45
 10
68.595
 20
8.84
 42
-1.0
 10
69.045
 20
8.84
 42
-1.0
  0
LWPOLYLINE
  5
161
100
AcDbEntity
  8
PART_HOLES_LAYER_TOP
100
AcDbPolyline
 90
        2
 70
         1
 43
0.45
 10
66.055
 20
8.84
 42
-1.0
 10
66.505
 20
8.84
 42
-1.0
  0
LWPOLYLINE
  5
162
100
AcDbEntity
  8
PART_HOLES_LAYER_TOP
100
AcDbPolyline
 90
        2
 70
         1
 43
0.45
 10
71.135
 20
6.3
 42
-1.0
 10
71.585
 20
6.3
 42
-1.0
  0
LWPOLYLINE
  5
163
100
AcDbEntity
  8
PART_HOLES_LAYER_TOP
100
AcDbPolyline
 90
        2
 70
         1
 43
0.45
 10
71.135
 20
8.84
 42
-1.0
 10
71.585
 20
8.84
 42
-1.0
  0
LWPOLYLINE
  5
164
100
AcDbEntity
  8
PART_HOLES_LAYER_TOP
100
AcDbPolyline
 90
        2
 70
         1
 43
0.45
 10
91.455
 20
8.84
 42
-1.0
 10
91.905
 20
8.84
 42
-1.0
  0
LWPOLYLINE
  5
165
100
AcDbEntity
  8
PART_HOLES_LAYER_TOP
100
AcDbPolyline
 90
        2
 70
         1
 43
0.45
 10
91.455
 20
6.3
 42
-1.0
 10
91.905
 20
6.3
 42
-1.0
  0
LWPOLYLINE
  5
166
100
AcDbEntity
  8
PART_HOLES_LAYER_TOP
100
AcDbPolyline
 90
        2
 70
         1
 43
0.45
 10
93.995
 20
6.3
 42
-1.0
 10
94.445
 20
6.3
 42
-1.0
  0
LWPOLYLINE
  5
167
100
AcDbEntity
  8
PART_HOLES_LAYER_TOP
100
AcDbPolyline
 90
        2
 70
         1
 43
0.45
 10
73.675
 20
6.3
 42
-1.0
 10
74.125
 20
6.3
 42
-1.0
  0
LWPOLYLINE
  5
168
100
AcDbEntity
  8
PART_HOLES_LAYER_TOP
100
AcDbPolyline
 90
        2
 70
         1
 43
0.45
 10
76.215
 20
8.84
 42
-1.0
 10
76.665
 20
8.84
 42
-1.0
  0
LWPOLYLINE
  5
169
100
AcDbEntity
  8
PART_HOLES_LAYER_TOP
100
AcDbPolyline
 90
        2
 70
         1
 43
0.45
 10
53.355
 20
8.84
 42
-1.0
 10
53.805
 20
8.84
 42
-1.0
  0
LWPOLYLINE
  5
16A
100
AcDbEntity
  8
PART_HOLES_LAYER_TOP
100
AcDbPolyline
 90
        2
 70
         1
 43
0.45
 10
55.895
 20
6.3
 42
-1.0
 10
56.345
 20
6.3
 42
-1.0
  0
LWPOLYLINE
  5
16B
100
AcDbEntity
  8
PART_HOLES_LAYER_TOP
100
AcDbPolyline
 90
        2
 70
         1
 43
0.45
 10
63.515
 20
8.84
 42
-1.0
 10
63.965
 20
8.84
 42
-1.0
  0
LWPOLYLINE
  5
16C
100
AcDbEntity
  8
PART_HOLES_LAYER_TOP
100
AcDbPolyline
 90
        2
 70
         1
 43
0.45
 10
66.055
 20
6.3
 42
-1.0
 10
66.505
 20
6.3
 42
-1.0
  0
LWPOLYLINE
  5
16D
100
AcDbEntity
  8
PART_HOLES_LAYER_TOP
100
AcDbPolyline
 90
        2
 70
         1
 43
0.45
 10
96.535
 20
6.3
 42
-1.0
 10
96.985
 20
6.3
 42
-1.0
  0
LWPOLYLINE
  5
16E
100
AcDbEntity
  8
PART_HOLES_LAYER_TOP
100
AcDbPolyline
 90
        2
 70
         1
 43
0.45
 10
88.915
 20
8.84
 42
-1.0
 10
89.365
 20
8.84
 42
-1.0
  0
LWPOLYLINE
  5
16F
100
AcDbEntity
  8
PART_HOLES_LAYER_TOP
100
AcDbPolyline
 90
        2
 70
         1
 43
0.45
 10
93.995
 20
8.84
 42
-1.0
 10
94.445
 20
8.84
 42
-1.0
  0
LWPOLYLINE
  5
170
100
AcDbEntity
  8
PART_HOLES_LAYER_TOP
100
AcDbPolyline
 90
        2
 70
         1
 43
0.45
 10
60.975
 20
8.84
 42
-1.0
 10
61.425
 20
8.84
 42
-1.0
  0
LWPOLYLINE
  5
171
100
AcDbEntity
  8
PART_HOLES_LAYER_TOP
100
AcDbPolyline
 90
        2
 70
         1
 43
0.45
 10
63.515
 20
6.3
 42
-1.0
 10
63.965
 20
6.3
 42
-1.0
  0
LWPOLYLINE
  5
172
100
AcDbEntity
  8
PART_HOLES_LAYER_TOP
100
AcDbPolyline
 90
        2
 70
         1
 43
0.45
 10
86.995
 20
41.69
 42
-1.0
 10
87.445
 20
41.69
 42
-1.0
  0
LWPOLYLINE
  5
173
100
AcDbEntity
  8
PART_HOLES_LAYER_TOP
100
AcDbPolyline
 90
        2
 70
         1
 43
0.45
 10
89.535
 20
41.69
 42
-1.0
 10
89.985
 20
41.69
 42
-1.0
  0
LWPOLYLINE
  5
174
100
AcDbEntity
  8
PART_HOLES_LAYER_TOP
100
AcDbPolyline
 90
        2
 70
         1
 43
0.45
 10
58.635
 20
39.539998
 42
-1.0
 10
59.085
 20
39.539998
 42
-1.0
  0
LWPOLYLINE
  5
175
100
AcDbEntity
  8
PART_HOLES_LAYER_TOP
100
AcDbPolyline
 90
        2
 70
         1
 43
0.45
 10
58.635
 20
42.08
 42
-1.0
 10
59.085
 20
42.08
 42
-1.0
  0
LWPOLYLINE
  5
176
100
AcDbEntity
  8
PART_HOLES_LAYER_TOP
100
AcDbPolyline
 90
        2
 70
         1
 43
0.45
 10
77.975
 20
20.94
 42
-1.0
 10
78.425
 20
20.94
 42
-1.0
  0
LWPOLYLINE
  5
177
100
AcDbEntity
  8
PART_HOLES_LAYER_TOP
100
AcDbPolyline
 90
        2
 70
         1
 43
0.45
 10
73.095
 20
20.94
 42
-1.0
 10
73.545
 20
20.94
 42
-1.0
  0
LWPOLYLINE
  5
178
100
AcDbEntity
  8
PART_HOLES_LAYER_TOP
100
AcDbPolyline
 90
        2
 70
         1
 43
0.45
 10
62.885
 20
27.46
 42
-1.0
 10
63.335
 20
27.46
 42
-1.0
  0
LWPOLYLINE
  5
179
100
AcDbEntity
  8
PART_HOLES_LAYER_TOP
100
AcDbPolyline
 90
        2
 70
         1
 43
0.45
 10
62.885
 20
22.58
 42
-1.0
 10
63.335
 20
22.58
 42
-1.0
  0
ENDSEC
  0
SECTION
  2
OBJECTS
  0
DICTIONARY
  5
19
100
AcDbDictionary
  3
ACAD_GROUP
350
1A
  3
ACAD_MLINESTYLE
350
1B
  0
DICTIONARY
  5
1A
102
{ACAD_REACTORS
330
19
102
}
100
AcDbDictionary
  0
DICTIONARY
  5
1B
102
{ACAD_REACTORS
330
19
102
}
100
AcDbDictionary
  3
STANDARD
350
1C
  0
MLINESTYLE
  5
1C
102
{ACAD_REACTORS
330
1B
102
}
100
AcDbMlineStyle
  2
STANDARD
 70
         0
  3

 62
         0
 51
90.0
 52
90.0
 71
         2
 49
0.5
 62
       256
  6
BYLAYER
 49
-0.5
 62
       256
  6
BYLAYER
  0
DICTIONARY
  5
22
102
{ACAD_REACTORS
330
19
102
}
100
AcDbDictionary
  0
ENDSEC
  0
EOF
